  0
SECTION
  2
HEADER
  9
$ACADVER
  1
AC1032
  9
$ACADMAINTVER
 90
       55
  9
$DWGCODEPAGE
  3
ANSI_932
  9
$LASTSAVEDBY
  1
client05
  9
$REQUIREDVERSIONS
160
                 0
  9
$INSBASE
 10
0.0
 20
0.0
 30
0.0
  9
$EXTMIN
 10
-16.72030303030306
 20
-79.90909090909092
 30
0.0
  9
$EXTMAX
 10
233.2796969696969
 20
362.3733687237337
 30
0.0
  9
$LIMMIN
 10
0.0
 20
0.0
  9
$LIMMAX
 10
297.0
 20
210.0
  9
$ORTHOMODE
 70
     0
  9
$REGENMODE
 70
     1
  9
$FILLMODE
 70
     1
  9
$QTEXTMODE
 70
     0
  9
$MIRRTEXT
 70
     1
  9
$LTSCALE
 40
0.25
  9
$ATTMODE
 70
     1
  9
$TEXTSIZE
 40
5.0
  9
$TRACEWID
 40
0.05
  9
$TEXTSTYLE
  7
Standard
  9
$CLAYER
  8
0
  9
$CELTYPE
  6
ByLayer
  9
$CECOLOR
 62
   256
  9
$CELTSCALE
 40
1.0
  9
$DISPSILH
 70
     0
  9
$DIMSCALE
 40
1.0
  9
$DIMASZ
 40
4.0
  9
$DIMEXO
 40
2.0
  9
$DIMDLI
 40
10.0
  9
$DIMRND
 40
0.0
  9
$DIMDLE
 40
0.0
  9
$DIMEXE
 40
2.0
  9
$DIMTP
 40
0.0
  9
$DIMTM
 40
0.0
  9
$DIMTXT
 40
3.5
  9
$DIMCEN
 40
0.09
  9
$DIMTSZ
 40
0.0
  9
$DIMTOL
 70
     0
  9
$DIMLIM
 70
     0
  9
$DIMTIH
 70
     0
  9
$DIMTOH
 70
     0
  9
$DIMSE1
 70
     0
  9
$DIMSE2
 70
     0
  9
$DIMTAD
 70
     3
  9
$DIMZIN
 70
     8
  9
$DIMBLK
  1

  9
$DIMASO
 70
     1
  9
$DIMSHO
 70
     1
  9
$DIMPOST
  1

  9
$DIMAPOST
  1

  9
$DIMALT
 70
     0
  9
$DIMALTD
 70
     2
  9
$DIMALTF
 40
25.4
  9
$DIMLFAC
 40
1.0
  9
$DIMTOFL
 70
     1
  9
$DIMTVP
 40
0.7
  9
$DIMTIX
 70
     0
  9
$DIMSOXD
 70
     0
  9
$DIMSAH
 70
     0
  9
$DIMBLK1
  1

  9
$DIMBLK2
  1

  9
$DIMSTYLE
  2
Standard
  9
$DIMCLRD
 70
     0
  9
$DIMCLRE
 70
     0
  9
$DIMCLRT
 70
     0
  9
$DIMTFAC
 40
0.5
  9
$DIMGAP
 40
0.09
  9
$DIMJUST
 70
     0
  9
$DIMSD1
 70
     0
  9
$DIMSD2
 70
     0
  9
$DIMTOLJ
 70
     1
  9
$DIMTZIN
 70
     8
  9
$DIMALTZ
 70
     0
  9
$DIMALTTZ
 70
     0
  9
$DIMUPT
 70
     1
  9
$DIMDEC
 70
     2
  9
$DIMTDEC
 70
     4
  9
$DIMALTU
 70
     2
  9
$DIMALTTD
 70
     2
  9
$DIMTXSTY
  7
Standard
  9
$DIMAUNIT
 70
     0
  9
$DIMADEC
 70
     0
  9
$DIMALTRND
 40
0.0
  9
$DIMAZIN
 70
     0
  9
$DIMDSEP
 70
    46
  9
$DIMATFIT
 70
     2
  9
$DIMFRAC
 70
     0
  9
$DIMLDRBLK
  1

  9
$DIMLUNIT
 70
     2
  9
$DIMLWD
 70
    -2
  9
$DIMLWE
 70
    -2
  9
$DIMTMOVE
 70
     2
  9
$DIMFXL
 40
1.0
  9
$DIMFXLON
 70
     0
  9
$DIMJOGANG
 40
0.7853981633974483
  9
$DIMTFILL
 70
     0
  9
$DIMTFILLCLR
 70
     0
  9
$DIMARCSYM
 70
     0
  9
$DIMLTYPE
  6

  9
$DIMLTEX1
  6

  9
$DIMLTEX2
  6

  9
$DIMTXTDIRECTION
 70
     0
  9
$LUNITS
 70
     2
  9
$LUPREC
 70
     4
  9
$SKETCHINC
 40
0.1
  9
$FILLETRAD
 40
0.5
  9
$AUNITS
 70
     0
  9
$AUPREC
 70
     0
  9
$MENU
  1
.
  9
$ELEVATION
 40
0.0
  9
$PELEVATION
 40
0.0
  9
$THICKNESS
 40
0.0
  9
$LIMCHECK
 70
     0
  9
$CHAMFERA
 40
0.0
  9
$CHAMFERB
 40
0.0
  9
$CHAMFERC
 40
0.0
  9
$CHAMFERD
 40
0.0
  9
$SKPOLY
 70
     0
  9
$TDCREATE
 40
2459374.889861111
  9
$TDUCREATE
 40
2459374.514861111
  9
$TDUPDATE
 40
2459374.514866111
  9
$TDUUPDATE
 40
2459374.139866111
  9
$TDINDWG
 40
0.0000000116
  9
$TDUSRTIMER
 40
0.0000000116
  9
$USRTIMER
 70
     1
  9
$ANGBASE
 50
0.0
  9
$ANGDIR
 70
     0
  9
$PDMODE
 70
     0
  9
$PDSIZE
 40
0.0
  9
$PLINEWID
 40
0.0
  9
$SPLFRAME
 70
     0
  9
$SPLINETYPE
 70
     6
  9
$SPLINESEGS
 70
     8
  9
$HANDSEED
  5
530
  9
$SURFTAB1
 70
     6
  9
$SURFTAB2
 70
     6
  9
$SURFTYPE
 70
     6
  9
$SURFU
 70
     6
  9
$SURFV
 70
     6
  9
$UCSBASE
  2

  9
$UCSNAME
  2

  9
$UCSORG
 10
0.0
 20
0.0
 30
0.0
  9
$UCSXDIR
 10
1.0
 20
0.0
 30
0.0
  9
$UCSYDIR
 10
0.0
 20
1.0
 30
0.0
  9
$UCSORTHOREF
  2

  9
$UCSORTHOVIEW
 70
     0
  9
$UCSORGTOP
 10
0.0
 20
0.0
 30
0.0
  9
$UCSORGBOTTOM
 10
0.0
 20
0.0
 30
0.0
  9
$UCSORGLEFT
 10
0.0
 20
0.0
 30
0.0
  9
$UCSORGRIGHT
 10
0.0
 20
0.0
 30
0.0
  9
$UCSORGFRONT
 10
0.0
 20
0.0
 30
0.0
  9
$UCSORGBACK
 10
0.0
 20
0.0
 30
0.0
  9
$PUCSBASE
  2

  9
$PUCSNAME
  2

  9
$PUCSORG
 10
0.0
 20
0.0
 30
0.0
  9
$PUCSXDIR
 10
1.0
 20
0.0
 30
0.0
  9
$PUCSYDIR
 10
0.0
 20
1.0
 30
0.0
  9
$PUCSORTHOREF
  2

  9
$PUCSORTHOVIEW
 70
     0
  9
$PUCSORGTOP
 10
0.0
 20
0.0
 30
0.0
  9
$PUCSORGBOTTOM
 10
0.0
 20
0.0
 30
0.0
  9
$PUCSORGLEFT
 10
0.0
 20
0.0
 30
0.0
  9
$PUCSORGRIGHT
 10
0.0
 20
0.0
 30
0.0
  9
$PUCSORGFRONT
 10
0.0
 20
0.0
 30
0.0
  9
$PUCSORGBACK
 10
0.0
 20
0.0
 30
0.0
  9
$USERI1
 70
     0
  9
$USERI2
 70
     0
  9
$USERI3
 70
     0
  9
$USERI4
 70
     0
  9
$USERI5
 70
     0
  9
$USERR1
 40
0.0
  9
$USERR2
 40
0.0
  9
$USERR3
 40
0.0
  9
$USERR4
 40
0.0
  9
$USERR5
 40
0.0
  9
$WORLDVIEW
 70
     1
  9
$SHADEDGE
 70
     3
  9
$SHADEDIF
 70
    70
  9
$TILEMODE
 70
     1
  9
$MAXACTVP
 70
    64
  9
$PINSBASE
 10
0.0
 20
0.0
 30
0.0
  9
$PLIMCHECK
 70
     0
  9
$PEXTMIN
 10
0.0
 20
0.0
 30
0.0
  9
$PEXTMAX
 10
297.0
 20
210.0
 30
0.0
  9
$PLIMMIN
 10
0.0
 20
0.0
  9
$PLIMMAX
 10
297.0
 20
210.0
  9
$UNITMODE
 70
     0
  9
$VISRETAIN
 70
     1
  9
$PLINEGEN
 70
     0
  9
$PSLTSCALE
 70
     1
  9
$TREEDEPTH
 70
  3020
  9
$CMLSTYLE
  2
Standard
  9
$CMLJUST
 70
     0
  9
$CMLSCALE
 40
1.0
  9
$PROXYGRAPHICS
 70
     1
  9
$MEASUREMENT
 70
     1
  9
$CELWEIGHT
370
    -1
  9
$ENDCAPS
280
     0
  9
$JOINSTYLE
280
     0
  9
$LWDISPLAY
290
     0
  9
$INSUNITS
 70
     4
  9
$HYPERLINKBASE
  1

  9
$STYLESHEET
  1

  9
$XEDIT
290
     1
  9
$CEPSNTYPE
380
     0
  9
$PSTYLEMODE
290
     1
  9
$FINGERPRINTGUID
  2
{8925fa04-294c-4e21-9cae-01d94bd05687}
  9
$VERSIONGUID
  2
{FAEB1C32-E019-11D5-929B-00C0DF256EC4}
  9
$EXTNAMES
290
     1
  9
$PSVPSCALE
 40
0.0
  9
$OLESTARTUP
290
     0
  9
$SORTENTS
280
   127
  9
$INDEXCTL
280
     0
  9
$HIDETEXT
280
     1
  9
$XCLIPFRAME
280
     2
  9
$HALOGAP
280
     0
  9
$OBSCOLOR
 70
   257
  9
$OBSLTYPE
280
     0
  9
$INTERSECTIONDISPLAY
280
     0
  9
$INTERSECTIONCOLOR
 70
   257
  9
$DIMASSOC
280
     1
  9
$PROJECTNAME
  1

  9
$CAMERADISPLAY
290
     0
  9
$LENSLENGTH
 40
50.0
  9
$CAMERAHEIGHT
 40
0.0
  9
$STEPSPERSEC
 40
2.0
  9
$STEPSIZE
 40
6.0
  9
$3DDWFPREC
 40
2.0
  9
$PSOLWIDTH
 40
0.25
  9
$PSOLHEIGHT
 40
4.0
  9
$LOFTANG1
 40
1.570796326794897
  9
$LOFTANG2
 40
1.570796326794897
  9
$LOFTMAG1
 40
0.0
  9
$LOFTMAG2
 40
0.0
  9
$LOFTPARAM
 70
     7
  9
$LOFTNORMALS
280
     1
  9
$LATITUDE
 40
37.795
  9
$LONGITUDE
 40
-122.394
  9
$NORTHDIRECTION
 40
0.0
  9
$TIMEZONE
 70
 -8000
  9
$LIGHTGLYPHDISPLAY
280
     1
  9
$TILEMODELIGHTSYNCH
280
     1
  9
$CMATERIAL
347
44
  9
$SOLIDHIST
280
     0
  9
$SHOWHIST
280
     1
  9
$DWFFRAME
280
     2
  9
$DGNFRAME
280
     2
  9
$REALWORLDSCALE
290
     1
  9
$INTERFERECOLOR
 62
   256
  9
$CSHADOW
280
     0
  9
$SHADOWPLANELOCATION
 40
0.0
  0
ENDSEC
  0
SECTION
  2
CLASSES
  0
CLASS
  1
ACDBDICTIONARYWDFLT
  2
AcDbDictionaryWithDefault
  3
ObjectDBX Classes
 90
        0
 91
        3
280
     0
281
     0
  0
CLASS
  1
VISUALSTYLE
  2
AcDbVisualStyle
  3
ObjectDBX Classes
 90
     4095
 91
        3
280
     0
281
     0
  0
CLASS
  1
MATERIAL
  2
AcDbMaterial
  3
ObjectDBX Classes
 90
     1153
 91
        3
280
     0
281
     0
  0
CLASS
  1
SCALE
  2
AcDbScale
  3
ObjectDBX Classes
 90
     1153
 91
        3
280
     0
281
     0
  0
CLASS
  1
TABLESTYLE
  2
AcDbTableStyle
  3
ObjectDBX Classes
 90
     4095
 91
        3
280
     0
281
     0
  0
CLASS
  1
MLEADERSTYLE
  2
AcDbMLeaderStyle
  3
ACDB_MLEADERSTYLE_CLASS
 90
     4095
 91
        3
280
     0
281
     0
  0
CLASS
  1
SUN
  2
AcDbSun
  3
SCENEOE
 90
     1153
 91
        3
280
     0
281
     0
  0
CLASS
  1
DICTIONARYVAR
  2
AcDbDictionaryVar
  3
ObjectDBX Classes
 90
        0
 91
        3
280
     0
281
     0
  0
CLASS
  1
CELLSTYLEMAP
  2
AcDbCellStyleMap
  3
ObjectDBX Classes
 90
     1152
 91
        3
280
     0
281
     0
  0
ENDSEC
  0
SECTION
  2
TABLES
  0
TABLE
  2
VPORT
  5
8
330
0
100
AcDbSymbolTable
 70
     1
  0
VPORT
  5
29
330
8
100
AcDbSymbolTableRecord
100
AcDbViewportTableRecord
  2
*Active
 70
     0
 10
0.0
 20
0.0
 11
1.0
 21
1.0
 12
10.42990654205607
 22
4.5
 13
0.0
 23
0.0
 14
0.5
 24
0.5
 15
0.5
 25
0.5
 16
0.0
 26
0.0
 36
1.0
 17
0.0
 27
0.0
 37
0.0
 40
9.0
 41
1.972972972850329
 42
50.0
 43
0.0
 44
0.0
 50
0.0
 51
0.0
 71
     0
 72
   100
 73
     1
 74
     3
 75
     0
 76
     0
 77
     0
 78
     0
281
     0
 65
     1
110
0.0
120
0.0
130
0.0
111
1.0
121
0.0
131
0.0
112
0.0
122
1.0
132
0.0
 79
     0
146
0.0
348
2F
 60
     3
 61
     5
292
     1
282
     1
141
0.0
142
0.0
 63
   250
361
6D
  0
ENDTAB
  0
TABLE
  2
LTYPE
  5
5
330
0
100
AcDbSymbolTable
 70
     9
  0
LTYPE
  5
14
330
5
100
AcDbSymbolTableRecord
100
AcDbLinetypeTableRecord
  2
ByBlock
 70
     0
  3

 72
    65
 73
     0
 40
0.0
  0
LTYPE
  5
15
330
5
100
AcDbSymbolTableRecord
100
AcDbLinetypeTableRecord
  2
ByLayer
 70
     0
  3

 72
    65
 73
     0
 40
0.0
  0
LTYPE
  5
16
330
5
100
AcDbSymbolTableRecord
100
AcDbLinetypeTableRecord
  2
Continuous
 70
     0
  3
Solid line
 72
    65
 73
     0
 40
0.0
  0
LTYPE
  5
BC
330
5
100
AcDbSymbolTableRecord
100
AcDbLinetypeTableRecord
  2
DOT
 70
     0
  3
DOT
 72
    65
 73
     2
 40
4.0
 49
6.0
 74
     0
 49
-2.0
 74
     0
  0
LTYPE
  5
BD
330
5
100
AcDbSymbolTableRecord
100
AcDbLinetypeTableRecord
  2
HIDDEN
 70
     0
  3
HIDDEN
 72
    65
 73
     2
 40
4.2
 49
8.4
 74
     0
 49
-4.2
 74
     0
  0
LTYPE
  5
BE
330
5
100
AcDbSymbolTableRecord
100
AcDbLinetypeTableRecord
  2
DASHDOT
 70
     0
  3
DASHDOT
 72
    65
 73
     4
 40
14.5
 49
30.0
 74
     0
 49
-9.0
 74
     0
 49
2.5
 74
     0
 49
-9.0
 74
     0
  0
LTYPE
  5
BF
330
5
100
AcDbSymbolTableRecord
100
AcDbLinetypeTableRecord
  2
PHANTOM
 70
     0
  3
PHANTOM
 72
    65
 73
     6
 40
12.0
 49
30.0
 74
     0
 49
-9.0
 74
     0
 49
2.5
 74
     0
 49
-5.0
 74
     0
 49
2.5
 74
     0
 49
-9.0
 74
     0
  0
LTYPE
  5
C0
330
5
100
AcDbSymbolTableRecord
100
AcDbLinetypeTableRecord
  2
ACAD_ISO14W100
 70
     0
  3
ACAD_ISO14W100
 72
    65
 73
     8
 40
1.5
 49
12.0
 74
     0
 49
-3.0
 74
     0
 49
0.5
 74
     0
 49
-3.0
 74
     0
 49
0.5
 74
     0
 49
-3.0
 74
     0
 49
0.5
 74
     0
 49
-3.0
 74
     0
  0
LTYPE
  5
C1
330
5
100
AcDbSymbolTableRecord
100
AcDbLinetypeTableRecord
  2
ACAD_ISO06W100
 70
     0
  3
ACAD_ISO06W100
 72
    65
 73
     8
 40
13.5
 49
24.0
 74
     0
 49
-3.0
 74
     0
 49
0.5
 74
     0
 49
-3.0
 74
     0
 49
0.5
 74
     0
 49
-3.0
 74
     0
 49
0.5
 74
     0
 49
-3.0
 74
     0
  0
LTYPE
  5
C2
330
5
100
AcDbSymbolTableRecord
100
AcDbLinetypeTableRecord
  2
ACAD_ISO11W100
 70
     0
  3
ACAD_ISO11W100
 72
    65
 73
     6
 40
15.5
 49
12.0
 74
     0
 49
-3.0
 74
     0
 49
12.0
 74
     0
 49
-3.0
 74
     0
 49
0.5
 74
     0
 49
-3.0
 74
     0
  0
LTYPE
  5
C3
330
5
100
AcDbSymbolTableRecord
100
AcDbLinetypeTableRecord
  2
ACAD_ISO13W100
 70
     0
  3
ACAD_ISO13W100
 72
    65
 73
     8
 40
13.0
 49
12.0
 74
     0
 49
-3.0
 74
     0
 49
12.0
 74
     0
 49
-3.0
 74
     0
 49
0.5
 74
     0
 49
-3.0
 74
     0
 49
0.5
 74
     0
 49
-3.0
 74
     0
  0
ENDTAB
  0
TABLE
  2
LAYER
  5
2
330
0
100
AcDbSymbolTable
 70
    30
  0
LAYER
  5
10
330
2
100
AcDbSymbolTableRecord
100
AcDbLayerTableRecord
  2
0
 70
     0
 62
     7
  6
Continuous
370
    -3
390
F
347
46
348
0
  0
LAYER
  5
C4
330
2
100
AcDbSymbolTableRecord
100
AcDbLayerTableRecord
  2
1
 70
     0
 62
     7
  6
Continuous
370
     9
390
F
347
46
348
0
  0
LAYER
  5
C5
330
2
100
AcDbSymbolTableRecord
100
AcDbLayerTableRecord
  2
2
 70
     0
 62
   136
420
    32896
  6
Continuous
370
     9
390
F
347
46
348
0
  0
LAYER
  5
C6
330
2
100
AcDbSymbolTableRecord
100
AcDbLayerTableRecord
  2
3
 70
     0
 62
   216
420
  8388736
  6
Continuous
370
     9
390
F
347
46
348
0
  0
LAYER
  5
C7
330
2
100
AcDbSymbolTableRecord
100
AcDbLayerTableRecord
  2
4
 70
     0
 62
    56
420
  8421376
  6
Continuous
370
     9
390
F
347
46
348
0
  0
LAYER
  5
C8
330
2
100
AcDbSymbolTableRecord
100
AcDbLayerTableRecord
  2
5
 70
     0
 62
    96
420
    32768
  6
Continuous
370
     9
390
F
347
46
348
0
  0
LAYER
  5
C9
330
2
100
AcDbSymbolTableRecord
100
AcDbLayerTableRecord
  2
6
 70
     0
 62
    16
420
  8388608
  6
Continuous
370
     9
390
F
347
46
348
0
  0
LAYER
  5
CA
330
2
100
AcDbSymbolTableRecord
100
AcDbLayerTableRecord
  2
7
 70
     0
 62
     4
  6
Continuous
370
     9
390
F
347
46
348
0
  0
LAYER
  5
CB
330
2
100
AcDbSymbolTableRecord
100
AcDbLayerTableRecord
  2
8
 70
     0
 62
     6
  6
Continuous
370
     9
390
F
347
46
348
0
  0
LAYER
  5
CC
330
2
100
AcDbSymbolTableRecord
100
AcDbLayerTableRecord
  2
9
 70
     0
 62
     2
  6
Continuous
370
     9
390
F
347
46
348
0
  0
LAYER
  5
CD
330
2
100
AcDbSymbolTableRecord
100
AcDbLayerTableRecord
  2
10
 70
     0
 62
     3
  6
Continuous
370
     9
390
F
347
46
348
0
  0
LAYER
  5
CE
330
2
100
AcDbSymbolTableRecord
100
AcDbLayerTableRecord
  2
11
 70
     0
 62
     8
420
  8421504
  6
Continuous
370
     9
390
F
347
46
348
0
  0
LAYER
  5
CF
330
2
100
AcDbSymbolTableRecord
100
AcDbLayerTableRecord
  2
12
 70
     0
 62
   138
420
    20560
  6
Continuous
370
     9
390
F
347
46
348
0
  0
LAYER
  5
D0
330
2
100
AcDbSymbolTableRecord
100
AcDbLayerTableRecord
  2
13
 70
     0
 62
   218
420
  5242960
  6
Continuous
370
     9
390
F
347
46
348
0
  0
LAYER
  5
D1
330
2
100
AcDbSymbolTableRecord
100
AcDbLayerTableRecord
  2
14
 70
     0
 62
    58
420
  5263360
  6
Continuous
370
     9
390
F
347
46
348
0
  0
LAYER
  5
D2
330
2
100
AcDbSymbolTableRecord
100
AcDbLayerTableRecord
  2
15
 70
     0
 62
    98
420
    20480
  6
Continuous
370
     9
390
F
347
46
348
0
  0
LAYER
  5
D3
330
2
100
AcDbSymbolTableRecord
100
AcDbLayerTableRecord
  2
16
 70
     0
 62
    18
420
  5242880
  6
Continuous
370
     9
390
F
347
46
348
0
  0
LAYER
  5
D4
330
2
100
AcDbSymbolTableRecord
100
AcDbLayerTableRecord
  2
17
 70
     0
 62
   132
420
    49344
  6
Continuous
370
     9
390
F
347
46
348
0
  0
LAYER
  5
D5
330
2
100
AcDbSymbolTableRecord
100
AcDbLayerTableRecord
  2
18
 70
     0
 62
   212
420
 12583104
  6
Continuous
370
     9
390
F
347
46
348
0
  0
LAYER
  5
D6
330
2
100
AcDbSymbolTableRecord
100
AcDbLayerTableRecord
  2
19
 70
     0
 62
    52
420
 12632064
  6
Continuous
370
     9
390
F
347
46
348
0
  0
LAYER
  5
D7
330
2
100
AcDbSymbolTableRecord
100
AcDbLayerTableRecord
  2
20
 70
     0
 62
   251
420
  5263440
  6
Continuous
370
     9
390
F
347
46
348
0
  0
LAYER
  5
D8
330
2
100
AcDbSymbolTableRecord
100
AcDbLayerTableRecord
  2
100
 70
     0
 62
     7
  6
Continuous
370
     9
390
F
347
46
348
0
  0
LAYER
  5
D9
330
2
100
AcDbSymbolTableRecord
100
AcDbLayerTableRecord
  2
101
 70
     0
 62
     7
  6
Continuous
370
     9
390
F
347
46
348
0
  0
LAYER
  5
DA
330
2
100
AcDbSymbolTableRecord
100
AcDbLayerTableRecord
  2
102
 70
     0
 62
     7
  6
Continuous
370
     9
390
F
347
46
348
0
  0
LAYER
  5
DB
330
2
100
AcDbSymbolTableRecord
100
AcDbLayerTableRecord
  2
103
 70
     0
 62
     9
420
 12434877
  6
Continuous
370
     9
390
F
347
46
348
0
  0
LAYER
  5
DC
330
2
100
AcDbSymbolTableRecord
100
AcDbLayerTableRecord
  2
104
 70
     0
 62
   253
420
 10263708
  6
Continuous
370
     9
390
F
347
46
348
0
  0
LAYER
  5
DD
330
2
100
AcDbSymbolTableRecord
100
AcDbLayerTableRecord
  2
105
 70
     0
 62
     8
420
  7566195
  6
Continuous
370
     9
390
F
347
46
348
0
  0
LAYER
  5
DE
330
2
100
AcDbSymbolTableRecord
100
AcDbLayerTableRecord
  2
106
 70
     0
 62
     8
420
  7566195
  6
Continuous
370
     9
390
F
347
46
348
0
  0
LAYER
  5
DF
330
2
100
AcDbSymbolTableRecord
100
AcDbLayerTableRecord
  2
107
 70
     0
 62
     1
  6
Continuous
370
     9
390
F
347
46
348
0
  0
LAYER
  5
E0
330
2
100
AcDbSymbolTableRecord
100
AcDbLayerTableRecord
  2
128
 70
     0
 62
     7
  6
Continuous
370
     9
390
F
347
46
348
0
  0
ENDTAB
  0
TABLE
  2
STYLE
  5
3
330
0
100
AcDbSymbolTable
 70
     2
  0
STYLE
  5
11
330
3
100
AcDbSymbolTableRecord
100
AcDbTextStyleTableRecord
  2
Standard
 70
     0
 40
0.0
 41
1.0
 50
0.0
 71
     0
 42
5.0
  3
txt
  4
bigfont
  0
STYLE
  5
6F
330
3
100
AcDbSymbolTableRecord
100
AcDbTextStyleTableRecord
  2
T_STANDARD
 70
     4
 40
10.0
 41
1.0
 50
0.0
 71
     0
 42
5.0
  3
txt
  4
bigfont
1001
ACAD
1000

1071
      256
  0
ENDTAB
  0
TABLE
  2
VIEW
  5
6
330
0
100
AcDbSymbolTable
 70
     0
  0
ENDTAB
  0
TABLE
  2
UCS
  5
7
330
0
100
AcDbSymbolTable
 70
     0
  0
ENDTAB
  0
TABLE
  2
APPID
  5
9
330
0
100
AcDbSymbolTable
 70
     2
  0
APPID
  5
12
330
9
100
AcDbSymbolTableRecord
100
AcDbRegAppTableRecord
  2
ACAD
 70
     0
  0
APPID
  5
6E
330
9
100
AcDbSymbolTableRecord
100
AcDbRegAppTableRecord
  2
ODA
 70
     0
  0
ENDTAB
  0
TABLE
  2
DIMSTYLE
  5
A
330
0
100
AcDbSymbolTable
 70
     1
100
AcDbDimStyleTable
  0
DIMSTYLE
105
27
330
A
100
AcDbSymbolTableRecord
100
AcDbDimStyleTableRecord
  2
Standard
 70
     0
178
     0
340
11
  0
ENDTAB
  0
TABLE
  2
BLOCK_RECORD
  5
1
330
0
100
AcDbSymbolTable
 70
    52
  0
BLOCK_RECORD
  5
1F
330
1
100
AcDbSymbolTableRecord
100
AcDbBlockTableRecord
  2
*Model_Space
340
22
 70
     0
280
     1
281
     0
  0
BLOCK_RECORD
  5
1B
330
1
100
AcDbSymbolTableRecord
100
AcDbBlockTableRecord
  2
*Paper_Space
340
1E
 70
     0
280
     1
281
     0
  0
BLOCK_RECORD
  5
23
330
1
100
AcDbSymbolTableRecord
100
AcDbBlockTableRecord
  2
*Paper_Space0
340
26
 70
     0
280
     1
281
     0
  0
BLOCK_RECORD
  5
70
330
1
100
AcDbSymbolTableRecord
100
AcDbBlockTableRecord
  2
_ORIGIN
340
0
 70
     0
280
     1
281
     0
  0
BLOCK_RECORD
  5
75
330
1
100
AcDbSymbolTableRecord
100
AcDbBlockTableRecord
  2
_DOTBLANK
340
0
 70
     0
280
     1
281
     0
  0
BLOCK_RECORD
  5
7A
330
1
100
AcDbSymbolTableRecord
100
AcDbBlockTableRecord
  2
_DOT
340
0
 70
     0
280
     1
281
     0
  0
BLOCK_RECORD
  5
7F
330
1
100
AcDbSymbolTableRecord
100
AcDbBlockTableRecord
  2
_OPEN
340
0
 70
     0
280
     1
281
     0
  0
BLOCK_RECORD
  5
85
330
1
100
AcDbSymbolTableRecord
100
AcDbBlockTableRecord
  2
_CLOSED
340
0
 70
     0
280
     1
281
     0
  0
BLOCK_RECORD
  5
8C
330
1
100
AcDbSymbolTableRecord
100
AcDbBlockTableRecord
  2
_CLOSEDBLANK
340
0
 70
     0
280
     1
281
     0
  0
BLOCK_RECORD
  5
92
330
1
100
AcDbSymbolTableRecord
100
AcDbBlockTableRecord
  2
_ARROWFILLED
340
0
 70
     0
280
     1
281
     0
  0
BLOCK_RECORD
  5
96
330
1
100
AcDbSymbolTableRecord
100
AcDbBlockTableRecord
  2
_BOXBLANK
340
0
 70
     0
280
     1
281
     0
  0
BLOCK_RECORD
  5
9E
330
1
100
AcDbSymbolTableRecord
100
AcDbBlockTableRecord
  2
_BOXFILLED
340
0
 70
     0
280
     1
281
     0
  0
BLOCK_RECORD
  5
A3
330
1
100
AcDbSymbolTableRecord
100
AcDbBlockTableRecord
  2
_INTEGRAL
340
0
 70
     0
280
     1
281
     0
  0
BLOCK_RECORD
  5
A8
330
1
100
AcDbSymbolTableRecord
100
AcDbBlockTableRecord
  2
_OBLIQUE
340
0
 70
     0
280
     1
281
     0
  0
BLOCK_RECORD
  5
AC
330
1
100
AcDbSymbolTableRecord
100
AcDbBlockTableRecord
  2
_NONE
340
0
 70
     0
280
     1
281
     0
  0
BLOCK_RECORD
  5
AF
330
1
100
AcDbSymbolTableRecord
100
AcDbBlockTableRecord
  2
MARK_OPEN
340
0
 70
     0
280
     1
281
     0
  0
BLOCK_RECORD
  5
B4
330
1
100
AcDbSymbolTableRecord
100
AcDbBlockTableRecord
  2
MARK_ORIGIN
340
0
 70
     0
280
     1
281
     0
  0
BLOCK_RECORD
  5
B8
330
1
100
AcDbSymbolTableRecord
100
AcDbBlockTableRecord
  2
MARK_DOT
340
0
 70
     0
280
     1
281
     0
  0
BLOCK_RECORD
  5
E1
330
1
100
AcDbSymbolTableRecord
100
AcDbBlockTableRecord
  2
G1
340
0
102
{BLKREFS
331
344
102
}
 70
     0
280
     1
281
     0
  0
BLOCK_RECORD
  5
E4
330
1
100
AcDbSymbolTableRecord
100
AcDbBlockTableRecord
  2
G2
340
0
102
{BLKREFS
331
129
102
}
 70
     0
280
     1
281
     0
  0
BLOCK_RECORD
  5
12A
330
1
100
AcDbSymbolTableRecord
100
AcDbBlockTableRecord
  2
G3
340
0
102
{BLKREFS
331
13D
102
}
 70
     0
280
     1
281
     0
  0
BLOCK_RECORD
  5
13E
330
1
100
AcDbSymbolTableRecord
100
AcDbBlockTableRecord
  2
G4
340
0
102
{BLKREFS
331
147
102
}
 70
     0
280
     1
281
     0
  0
BLOCK_RECORD
  5
148
330
1
100
AcDbSymbolTableRecord
100
AcDbBlockTableRecord
  2
G5
340
0
102
{BLKREFS
331
156
102
}
 70
     0
280
     1
281
     0
  0
BLOCK_RECORD
  5
157
330
1
100
AcDbSymbolTableRecord
100
AcDbBlockTableRecord
  2
G6
340
0
102
{BLKREFS
331
170
102
}
 70
     0
280
     1
281
     0
  0
BLOCK_RECORD
  5
171
330
1
100
AcDbSymbolTableRecord
100
AcDbBlockTableRecord
  2
G7
340
0
102
{BLKREFS
331
184
102
}
 70
     0
280
     1
281
     0
  0
BLOCK_RECORD
  5
185
330
1
100
AcDbSymbolTableRecord
100
AcDbBlockTableRecord
  2
G8
340
0
102
{BLKREFS
331
191
102
}
 70
     0
280
     1
281
     0
  0
BLOCK_RECORD
  5
192
330
1
100
AcDbSymbolTableRecord
100
AcDbBlockTableRecord
  2
G9
340
0
102
{BLKREFS
331
1A9
102
}
 70
     0
280
     1
281
     0
  0
BLOCK_RECORD
  5
1AA
330
1
100
AcDbSymbolTableRecord
100
AcDbBlockTableRecord
  2
G10
340
0
102
{BLKREFS
331
1B9
102
}
 70
     0
280
     1
281
     0
  0
BLOCK_RECORD
  5
1BA
330
1
100
AcDbSymbolTableRecord
100
AcDbBlockTableRecord
  2
G11
340
0
102
{BLKREFS
331
1D1
102
}
 70
     0
280
     1
281
     0
  0
BLOCK_RECORD
  5
1D2
330
1
100
AcDbSymbolTableRecord
100
AcDbBlockTableRecord
  2
G12
340
0
102
{BLKREFS
331
1DD
102
}
 70
     0
280
     1
281
     0
  0
BLOCK_RECORD
  5
1DE
330
1
100
AcDbSymbolTableRecord
100
AcDbBlockTableRecord
  2
G13
340
0
102
{BLKREFS
331
1ED
102
}
 70
     0
280
     1
281
     0
  0
BLOCK_RECORD
  5
1EE
330
1
100
AcDbSymbolTableRecord
100
AcDbBlockTableRecord
  2
G14
340
0
102
{BLKREFS
331
1F4
102
}
 70
     0
280
     1
281
     0
  0
BLOCK_RECORD
  5
1F5
330
1
100
AcDbSymbolTableRecord
100
AcDbBlockTableRecord
  2
G15
340
0
102
{BLKREFS
331
1FC
102
}
 70
     0
280
     1
281
     0
  0
BLOCK_RECORD
  5
1FD
330
1
100
AcDbSymbolTableRecord
100
AcDbBlockTableRecord
  2
G16
340
0
102
{BLKREFS
331
207
102
}
 70
     0
280
     1
281
     0
  0
BLOCK_RECORD
  5
208
330
1
100
AcDbSymbolTableRecord
100
AcDbBlockTableRecord
  2
G17
340
0
102
{BLKREFS
331
210
102
}
 70
     0
280
     1
281
     0
  0
BLOCK_RECORD
  5
211
330
1
100
AcDbSymbolTableRecord
100
AcDbBlockTableRecord
  2
G18
340
0
102
{BLKREFS
331
225
102
}
 70
     0
280
     1
281
     0
  0
BLOCK_RECORD
  5
226
330
1
100
AcDbSymbolTableRecord
100
AcDbBlockTableRecord
  2
G19
340
0
102
{BLKREFS
331
232
102
}
 70
     0
280
     1
281
     0
  0
BLOCK_RECORD
  5
233
330
1
100
AcDbSymbolTableRecord
100
AcDbBlockTableRecord
  2
G20
340
0
102
{BLKREFS
331
248
102
}
 70
     0
280
     1
281
     0
  0
BLOCK_RECORD
  5
249
330
1
100
AcDbSymbolTableRecord
100
AcDbBlockTableRecord
  2
G21
340
0
102
{BLKREFS
331
256
102
}
 70
     0
280
     1
281
     0
  0
BLOCK_RECORD
  5
257
330
1
100
AcDbSymbolTableRecord
100
AcDbBlockTableRecord
  2
G22
340
0
102
{BLKREFS
331
261
102
}
 70
     0
280
     1
281
     0
  0
BLOCK_RECORD
  5
262
330
1
100
AcDbSymbolTableRecord
100
AcDbBlockTableRecord
  2
G23
340
0
102
{BLKREFS
331
26A
102
}
 70
     0
280
     1
281
     0
  0
BLOCK_RECORD
  5
26B
330
1
100
AcDbSymbolTableRecord
100
AcDbBlockTableRecord
  2
G24
340
0
102
{BLKREFS
331
284
102
}
 70
     0
280
     1
281
     0
  0
BLOCK_RECORD
  5
285
330
1
100
AcDbSymbolTableRecord
100
AcDbBlockTableRecord
  2
G25
340
0
102
{BLKREFS
331
296
102
}
 70
     0
280
     1
281
     0
  0
BLOCK_RECORD
  5
297
330
1
100
AcDbSymbolTableRecord
100
AcDbBlockTableRecord
  2
G26
340
0
102
{BLKREFS
331
2A5
102
}
 70
     0
280
     1
281
     0
  0
BLOCK_RECORD
  5
2A6
330
1
100
AcDbSymbolTableRecord
100
AcDbBlockTableRecord
  2
G27
340
0
102
{BLKREFS
331
2D8
102
}
 70
     0
280
     1
281
     0
  0
BLOCK_RECORD
  5
2D9
330
1
100
AcDbSymbolTableRecord
100
AcDbBlockTableRecord
  2
G28
340
0
102
{BLKREFS
331
2EB
102
}
 70
     0
280
     1
281
     0
  0
BLOCK_RECORD
  5
2EC
330
1
100
AcDbSymbolTableRecord
100
AcDbBlockTableRecord
  2
G29
340
0
102
{BLKREFS
331
2F9
102
}
 70
     0
280
     1
281
     0
  0
BLOCK_RECORD
  5
2FA
330
1
100
AcDbSymbolTableRecord
100
AcDbBlockTableRecord
  2
G30
340
0
102
{BLKREFS
331
30A
102
}
 70
     0
280
     1
281
     0
  0
BLOCK_RECORD
  5
30B
330
1
100
AcDbSymbolTableRecord
100
AcDbBlockTableRecord
  2
G31
340
0
102
{BLKREFS
331
313
102
}
 70
     0
280
     1
281
     0
  0
BLOCK_RECORD
  5
314
330
1
100
AcDbSymbolTableRecord
100
AcDbBlockTableRecord
  2
G32
340
0
102
{BLKREFS
331
31B
102
}
 70
     0
280
     1
281
     0
  0
BLOCK_RECORD
  5
31C
330
1
100
AcDbSymbolTableRecord
100
AcDbBlockTableRecord
  2
G33
340
0
102
{BLKREFS
331
32D
102
}
 70
     0
280
     1
281
     0
  0
BLOCK_RECORD
  5
32E
330
1
100
AcDbSymbolTableRecord
100
AcDbBlockTableRecord
  2
G34
340
0
102
{BLKREFS
331
337
102
}
 70
     0
280
     1
281
     0
  0
BLOCK_RECORD
  5
338
330
1
100
AcDbSymbolTableRecord
100
AcDbBlockTableRecord
  2
G35
340
0
102
{BLKREFS
331
33D
102
}
 70
     0
280
     1
281
     0
  0
BLOCK_RECORD
  5
33E
330
1
100
AcDbSymbolTableRecord
100
AcDbBlockTableRecord
  2
G36
340
0
102
{BLKREFS
331
343
102
}
 70
     0
280
     1
281
     0
  0
ENDTAB
  0
ENDSEC
  0
SECTION
  2
BLOCKS
  0
BLOCK
  5
20
330
1F
100
AcDbEntity
  8
0
100
AcDbBlockBegin
  2
*Model_Space
 70
     0
 10
0.0
 20
0.0
 30
0.0
  3
*Model_Space
  1

  0
ENDBLK
  5
21
330
1F
100
AcDbEntity
  8
0
100
AcDbBlockEnd
  0
BLOCK
  5
1C
330
1B
100
AcDbEntity
 67
     1
  8
0
100
AcDbBlockBegin
  2
*Paper_Space
 70
     0
 10
0.0
 20
0.0
 30
0.0
  3
*Paper_Space
  1

  0
ENDBLK
  5
1D
330
1B
100
AcDbEntity
 67
     1
  8
0
100
AcDbBlockEnd
  0
BLOCK
  5
24
330
23
100
AcDbEntity
  8
0
100
AcDbBlockBegin
  2
*Paper_Space0
 70
     0
 10
0.0
 20
0.0
 30
0.0
  3
*Paper_Space0
  1

  0
ENDBLK
  5
25
330
23
100
AcDbEntity
  8
0
100
AcDbBlockEnd
  0
BLOCK
  5
73
330
70
100
AcDbEntity
  8
0
100
AcDbBlockBegin
  2
_ORIGIN
 70
     0
 10
0.0
 20
0.0
 30
0.0
  3
_ORIGIN
  1

  0
CIRCLE
  5
71
330
70
100
AcDbEntity
  8
0
 62
     0
100
AcDbCircle
 10
0.0
 20
0.0
 30
0.0
 40
0.5
  0
LINE
  5
72
330
70
100
AcDbEntity
  8
0
 62
     0
100
AcDbLine
 10
0.0
 20
0.0
 30
0.0
 11
-1.0
 21
0.0
 31
0.0
  0
ENDBLK
  5
74
330
70
100
AcDbEntity
  8
0
100
AcDbBlockEnd
  0
BLOCK
  5
78
330
75
100
AcDbEntity
  8
0
100
AcDbBlockBegin
  2
_DOTBLANK
 70
     0
 10
0.0
 20
0.0
 30
0.0
  3
_DOTBLANK
  1

  0
CIRCLE
  5
76
330
75
100
AcDbEntity
  8
0
 62
     0
100
AcDbCircle
 10
0.0
 20
0.0
 30
0.0
 40
0.5
  0
LINE
  5
77
330
75
100
AcDbEntity
  8
0
 62
     0
100
AcDbLine
 10
-0.5
 20
0.0
 30
0.0
 11
-1.0
 21
0.0
 31
0.0
  0
ENDBLK
  5
79
330
75
100
AcDbEntity
  8
0
100
AcDbBlockEnd
  0
BLOCK
  5
7D
330
7A
100
AcDbEntity
  8
0
100
AcDbBlockBegin
  2
_DOT
 70
     0
 10
0.0
 20
0.0
 30
0.0
  3
_DOT
  1

  0
LWPOLYLINE
  5
7B
330
7A
100
AcDbEntity
  8
0
 62
     0
100
AcDbPolyline
 90
        2
 70
     1
 43
0.5
 10
-0.25
 20
0.0
 42
1.0
 10
0.25
 20
0.0
 42
1.0
  0
LINE
  5
7C
330
7A
100
AcDbEntity
  8
0
 62
     0
100
AcDbLine
 10
-0.5
 20
0.0
 30
0.0
 11
-1.0
 21
0.0
 31
0.0
  0
ENDBLK
  5
7E
330
7A
100
AcDbEntity
  8
0
100
AcDbBlockEnd
  0
BLOCK
  5
83
330
7F
100
AcDbEntity
  8
0
100
AcDbBlockBegin
  2
_OPEN
 70
     0
 10
0.0
 20
0.0
 30
0.0
  3
_OPEN
  1

  0
LINE
  5
80
330
7F
100
AcDbEntity
  8
0
 62
     0
100
AcDbLine
 10
0.0
 20
0.0
 30
0.0
 11
-1.0
 21
0.1666666666666667
 31
0.0
  0
LINE
  5
81
330
7F
100
AcDbEntity
  8
0
 62
     0
100
AcDbLine
 10
0.0
 20
0.0
 30
0.0
 11
-1.0
 21
-0.1666666666666667
 31
0.0
  0
LINE
  5
82
330
7F
100
AcDbEntity
  8
0
 62
     0
100
AcDbLine
 10
0.0
 20
0.0
 30
0.0
 11
-1.0
 21
0.0
 31
0.0
  0
ENDBLK
  5
84
330
7F
100
AcDbEntity
  8
0
100
AcDbBlockEnd
  0
BLOCK
  5
8A
330
85
100
AcDbEntity
  8
0
100
AcDbBlockBegin
  2
_CLOSED
 70
     0
 10
0.0
 20
0.0
 30
0.0
  3
_CLOSED
  1

  0
LINE
  5
86
330
85
100
AcDbEntity
  8
0
 62
     0
100
AcDbLine
 10
0.0
 20
0.0
 30
0.0
 11
-1.0
 21
0.1666666666666667
 31
0.0
  0
LINE
  5
87
330
85
100
AcDbEntity
  8
0
 62
     0
100
AcDbLine
 10
0.0
 20
0.0
 30
0.0
 11
-1.0
 21
-0.1666666666666667
 31
0.0
  0
LINE
  5
88
330
85
100
AcDbEntity
  8
0
 62
     0
100
AcDbLine
 10
-1.0
 20
0.1666666666666667
 30
0.0
 11
-1.0
 21
-0.1666666666666667
 31
0.0
  0
LINE
  5
89
330
85
100
AcDbEntity
  8
0
 62
     0
100
AcDbLine
 10
0.0
 20
0.0
 30
0.0
 11
-1.0
 21
0.0
 31
0.0
  0
ENDBLK
  5
8B
330
85
100
AcDbEntity
  8
0
100
AcDbBlockEnd
  0
BLOCK
  5
90
330
8C
100
AcDbEntity
  8
0
100
AcDbBlockBegin
  2
_CLOSEDBLANK
 70
     0
 10
0.0
 20
0.0
 30
0.0
  3
_CLOSEDBLANK
  1

  0
LINE
  5
8D
330
8C
100
AcDbEntity
  8
0
 62
     0
100
AcDbLine
 10
0.0
 20
0.0
 30
0.0
 11
-1.0
 21
0.1666666666666667
 31
0.0
  0
LINE
  5
8E
330
8C
100
AcDbEntity
  8
0
 62
     0
100
AcDbLine
 10
0.0
 20
0.0
 30
0.0
 11
-1.0
 21
-0.1666666666666667
 31
0.0
  0
LINE
  5
8F
330
8C
100
AcDbEntity
  8
0
 62
     0
100
AcDbLine
 10
-1.0
 20
0.1666666666666667
 30
0.0
 11
-1.0
 21
-0.1666666666666667
 31
0.0
  0
ENDBLK
  5
91
330
8C
100
AcDbEntity
  8
0
100
AcDbBlockEnd
  0
BLOCK
  5
94
330
92
100
AcDbEntity
  8
0
100
AcDbBlockBegin
  2
_ARROWFILLED
 70
     0
 10
0.0
 20
0.0
 30
0.0
  3
_ARROWFILLED
  1

  0
SOLID
  5
93
330
92
100
AcDbEntity
  8
0
 62
     0
100
AcDbTrace
 10
0.0
 20
0.0
 30
0.0
 11
-1.0
 21
-0.1666666666666667
 31
0.0
 12
-1.0
 22
0.1666666666666667
 32
0.0
 13
0.0
 23
0.0
 33
0.0
  0
ENDBLK
  5
95
330
92
100
AcDbEntity
  8
0
100
AcDbBlockEnd
  0
BLOCK
  5
9C
330
96
100
AcDbEntity
  8
0
100
AcDbBlockBegin
  2
_BOXBLANK
 70
     0
 10
0.0
 20
0.0
 30
0.0
  3
_BOXBLANK
  1

  0
LINE
  5
97
330
96
100
AcDbEntity
  8
0
 62
     0
100
AcDbLine
 10
-0.5
 20
-0.5
 30
0.0
 11
0.5
 21
-0.5
 31
0.0
  0
LINE
  5
98
330
96
100
AcDbEntity
  8
0
 62
     0
100
AcDbLine
 10
0.5
 20
-0.5
 30
0.0
 11
0.5
 21
0.5
 31
0.0
  0
LINE
  5
99
330
96
100
AcDbEntity
  8
0
 62
     0
100
AcDbLine
 10
0.5
 20
0.5
 30
0.0
 11
-0.5
 21
0.5
 31
0.0
  0
LINE
  5
9A
330
96
100
AcDbEntity
  8
0
 62
     0
100
AcDbLine
 10
-0.5
 20
0.5
 30
0.0
 11
-0.5
 21
-0.5
 31
0.0
  0
LINE
  5
9B
330
96
100
AcDbEntity
  8
0
 62
     0
100
AcDbLine
 10
-0.5
 20
0.0
 30
0.0
 11
-1.0
 21
0.0
 31
0.0
  0
ENDBLK
  5
9D
330
96
100
AcDbEntity
  8
0
100
AcDbBlockEnd
  0
BLOCK
  5
A1
330
9E
100
AcDbEntity
  8
0
100
AcDbBlockBegin
  2
_BOXFILLED
 70
     0
 10
0.0
 20
0.0
 30
0.0
  3
_BOXFILLED
  1

  0
SOLID
  5
9F
330
9E
100
AcDbEntity
  8
0
 62
     0
100
AcDbTrace
 10
-0.5
 20
0.5
 30
0.0
 11
0.5
 21
0.5
 31
0.0
 12
-0.5
 22
-0.5
 32
0.0
 13
0.5
 23
-0.5
 33
0.0
  0
LINE
  5
A0
330
9E
100
AcDbEntity
  8
0
 62
     0
100
AcDbLine
 10
-0.5
 20
0.0
 30
0.0
 11
-1.0
 21
0.0
 31
0.0
  0
ENDBLK
  5
A2
330
9E
100
AcDbEntity
  8
0
100
AcDbBlockEnd
  0
BLOCK
  5
A6
330
A3
100
AcDbEntity
  8
0
100
AcDbBlockBegin
  2
_INTEGRAL
 70
     0
 10
0.0
 20
0.0
 30
0.0
  3
_INTEGRAL
  1

  0
ARC
  5
A4
330
A3
100
AcDbEntity
  8
0
 62
     0
100
AcDbCircle
 10
0.444888
 20
-0.0913346
 30
0.0
 40
0.4541666
100
AcDbArc
 50
101.9999999999999
 51
167.9999999999998
  0
ARC
  5
A5
330
A3
100
AcDbEntity
  8
0
 62
     0
100
AcDbCircle
 10
-0.444888
 20
0.0913346
 30
0.0
 40
0.4541666
100
AcDbArc
 50
281.9999999999997
 51
347.9999999999997
  0
ENDBLK
  5
A7
330
A3
100
AcDbEntity
  8
0
100
AcDbBlockEnd
  0
BLOCK
  5
AA
330
A8
100
AcDbEntity
  8
0
100
AcDbBlockBegin
  2
_OBLIQUE
 70
     0
 10
0.0
 20
0.0
 30
0.0
  3
_OBLIQUE
  1

  0
LINE
  5
A9
330
A8
100
AcDbEntity
  8
0
 62
     0
100
AcDbLine
 10
-0.5
 20
-0.5
 30
0.0
 11
0.5
 21
0.5
 31
0.0
  0
ENDBLK
  5
AB
330
A8
100
AcDbEntity
  8
0
100
AcDbBlockEnd
  0
BLOCK
  5
AD
330
AC
100
AcDbEntity
  8
0
100
AcDbBlockBegin
  2
_NONE
 70
     0
 10
0.0
 20
0.0
 30
0.0
  3
_NONE
  1

  0
ENDBLK
  5
AE
330
AC
100
AcDbEntity
  8
0
100
AcDbBlockEnd
  0
BLOCK
  5
B2
330
AF
100
AcDbEntity
  8
0
100
AcDbBlockBegin
  2
MARK_OPEN
 70
     0
 10
0.0
 20
0.0
 30
0.0
  3
MARK_OPEN
  1

  0
LINE
  5
B0
330
AF
100
AcDbEntity
  8
0
 62
     0
100
AcDbLine
 10
0.0
 20
0.0
 30
0.0
 11
-1.0
 21
0.1666666666666667
 31
0.0
  0
LINE
  5
B1
330
AF
100
AcDbEntity
  8
0
 62
     0
100
AcDbLine
 10
0.0
 20
0.0
 30
0.0
 11
-1.0
 21
-0.1666666666666667
 31
0.0
  0
ENDBLK
  5
B3
330
AF
100
AcDbEntity
  8
0
100
AcDbBlockEnd
  0
BLOCK
  5
B6
330
B4
100
AcDbEntity
  8
0
100
AcDbBlockBegin
  2
MARK_ORIGIN
 70
     0
 10
0.0
 20
0.0
 30
0.0
  3
MARK_ORIGIN
  1

  0
CIRCLE
  5
B5
330
B4
100
AcDbEntity
  8
0
 62
     0
100
AcDbCircle
 10
0.0
 20
0.0
 30
0.0
 40
0.5
  0
ENDBLK
  5
B7
330
B4
100
AcDbEntity
  8
0
100
AcDbBlockEnd
  0
BLOCK
  5
BA
330
B8
100
AcDbEntity
  8
0
100
AcDbBlockBegin
  2
MARK_DOT
 70
     0
 10
0.0
 20
0.0
 30
0.0
  3
MARK_DOT
  1

  0
LWPOLYLINE
  5
B9
330
B8
100
AcDbEntity
  8
0
 62
     0
100
AcDbPolyline
 90
        2
 70
     1
 43
0.5
 10
-0.25
 20
0.0
 42
1.0
 10
0.25
 20
0.0
 42
1.0
  0
ENDBLK
  5
BB
330
B8
100
AcDbEntity
  8
0
100
AcDbBlockEnd
  0
BLOCK
  5
E2
330
E1
100
AcDbEntity
  8
0
100
AcDbBlockBegin
  2
G1
 70
     0
 10
0.0
 20
0.0
 30
0.0
  3
G1
  1

  0
INSERT
  5
129
330
E1
100
AcDbEntity
  8
0
100
AcDbBlockReference
  2
G2
 10
0.0
 20
0.0
 30
0.0
  0
INSERT
  5
13D
330
E1
100
AcDbEntity
  8
0
100
AcDbBlockReference
  2
G3
 10
0.0
 20
0.0
 30
0.0
  0
INSERT
  5
147
330
E1
100
AcDbEntity
  8
0
100
AcDbBlockReference
  2
G4
 10
0.0
 20
0.0
 30
0.0
  0
INSERT
  5
156
330
E1
100
AcDbEntity
  8
0
100
AcDbBlockReference
  2
G5
 10
0.0
 20
0.0
 30
0.0
  0
INSERT
  5
170
330
E1
100
AcDbEntity
  8
0
100
AcDbBlockReference
  2
G6
 10
0.0
 20
0.0
 30
0.0
  0
INSERT
  5
184
330
E1
100
AcDbEntity
  8
0
100
AcDbBlockReference
  2
G7
 10
0.0
 20
0.0
 30
0.0
  0
INSERT
  5
191
330
E1
100
AcDbEntity
  8
0
100
AcDbBlockReference
  2
G8
 10
0.0
 20
0.0
 30
0.0
  0
INSERT
  5
1A9
330
E1
100
AcDbEntity
  8
0
100
AcDbBlockReference
  2
G9
 10
0.0
 20
0.0
 30
0.0
  0
INSERT
  5
1B9
330
E1
100
AcDbEntity
  8
0
100
AcDbBlockReference
  2
G10
 10
0.0
 20
0.0
 30
0.0
  0
INSERT
  5
1D1
330
E1
100
AcDbEntity
  8
0
100
AcDbBlockReference
  2
G11
 10
0.0
 20
0.0
 30
0.0
  0
INSERT
  5
1DD
330
E1
100
AcDbEntity
  8
0
100
AcDbBlockReference
  2
G12
 10
0.0
 20
0.0
 30
0.0
  0
INSERT
  5
1ED
330
E1
100
AcDbEntity
  8
0
100
AcDbBlockReference
  2
G13
 10
0.0
 20
0.0
 30
0.0
  0
INSERT
  5
1F4
330
E1
100
AcDbEntity
  8
0
100
AcDbBlockReference
  2
G14
 10
0.0
 20
0.0
 30
0.0
  0
INSERT
  5
1FC
330
E1
100
AcDbEntity
  8
0
100
AcDbBlockReference
  2
G15
 10
0.0
 20
0.0
 30
0.0
  0
INSERT
  5
207
330
E1
100
AcDbEntity
  8
0
100
AcDbBlockReference
  2
G16
 10
0.0
 20
0.0
 30
0.0
  0
INSERT
  5
210
330
E1
100
AcDbEntity
  8
0
100
AcDbBlockReference
  2
G17
 10
0.0
 20
0.0
 30
0.0
  0
INSERT
  5
225
330
E1
100
AcDbEntity
  8
0
100
AcDbBlockReference
  2
G18
 10
0.0
 20
0.0
 30
0.0
  0
INSERT
  5
232
330
E1
100
AcDbEntity
  8
0
100
AcDbBlockReference
  2
G19
 10
0.0
 20
0.0
 30
0.0
  0
INSERT
  5
248
330
E1
100
AcDbEntity
  8
0
100
AcDbBlockReference
  2
G20
 10
0.0
 20
0.0
 30
0.0
  0
INSERT
  5
256
330
E1
100
AcDbEntity
  8
0
100
AcDbBlockReference
  2
G21
 10
0.0
 20
0.0
 30
0.0
  0
INSERT
  5
261
330
E1
100
AcDbEntity
  8
0
100
AcDbBlockReference
  2
G22
 10
0.0
 20
0.0
 30
0.0
  0
INSERT
  5
26A
330
E1
100
AcDbEntity
  8
0
100
AcDbBlockReference
  2
G23
 10
0.0
 20
0.0
 30
0.0
  0
INSERT
  5
284
330
E1
100
AcDbEntity
  8
0
100
AcDbBlockReference
  2
G24
 10
0.0
 20
0.0
 30
0.0
  0
INSERT
  5
296
330
E1
100
AcDbEntity
  8
0
100
AcDbBlockReference
  2
G25
 10
0.0
 20
0.0
 30
0.0
  0
INSERT
  5
2A5
330
E1
100
AcDbEntity
  8
0
100
AcDbBlockReference
  2
G26
 10
0.0
 20
0.0
 30
0.0
  0
INSERT
  5
2D8
330
E1
100
AcDbEntity
  8
0
100
AcDbBlockReference
  2
G27
 10
0.0
 20
0.0
 30
0.0
  0
INSERT
  5
2EB
330
E1
100
AcDbEntity
  8
0
100
AcDbBlockReference
  2
G28
 10
0.0
 20
0.0
 30
0.0
  0
INSERT
  5
2F9
330
E1
100
AcDbEntity
  8
0
100
AcDbBlockReference
  2
G29
 10
0.0
 20
0.0
 30
0.0
  0
INSERT
  5
30A
330
E1
100
AcDbEntity
  8
0
100
AcDbBlockReference
  2
G30
 10
0.0
 20
0.0
 30
0.0
  0
INSERT
  5
313
330
E1
100
AcDbEntity
  8
0
100
AcDbBlockReference
  2
G31
 10
0.0
 20
0.0
 30
0.0
  0
INSERT
  5
31B
330
E1
100
AcDbEntity
  8
0
100
AcDbBlockReference
  2
G32
 10
0.0
 20
0.0
 30
0.0
  0
INSERT
  5
32D
330
E1
100
AcDbEntity
  8
0
100
AcDbBlockReference
  2
G33
 10
0.0
 20
0.0
 30
0.0
  0
INSERT
  5
337
330
E1
100
AcDbEntity
  8
0
100
AcDbBlockReference
  2
G34
 10
0.0
 20
0.0
 30
0.0
  0
INSERT
  5
33D
330
E1
100
AcDbEntity
  8
0
100
AcDbBlockReference
  2
G35
 10
0.0
 20
0.0
 30
0.0
  0
INSERT
  5
343
330
E1
100
AcDbEntity
  8
0
100
AcDbBlockReference
  2
G36
 10
0.0
 20
0.0
 30
0.0
  0
ENDBLK
  5
E3
330
E1
100
AcDbEntity
  8
0
100
AcDbBlockEnd
  0
BLOCK
  5
E5
330
E4
100
AcDbEntity
  8
0
100
AcDbBlockBegin
  2
G2
 70
     0
 10
0.0
 20
0.0
 30
0.0
  3
G2
  1

  0
LINE
  5
E7
330
E4
100
AcDbEntity
  8
100
  6
Continuous
 62
     7
370
    30
100
AcDbLine
 10
23.88375
 20
205.05375
 30
0.0
 11
20.295
 21
203.32125
 31
0.0
  0
LINE
  5
E8
330
E4
100
AcDbEntity
  8
100
  6
Continuous
 62
     7
370
    30
100
AcDbLine
 10
20.295
 20
203.32125
 30
0.0
 11
18.315
 21
200.35125
 31
0.0
  0
LINE
  5
E9
330
E4
100
AcDbEntity
  8
100
  6
Continuous
 62
     7
370
    30
100
AcDbLine
 10
18.315
 20
200.35125
 30
0.0
 11
17.94375
 21
196.515
 31
0.0
  0
LINE
  5
EA
330
E4
100
AcDbEntity
  8
100
  6
Continuous
 62
     7
370
    30
100
AcDbLine
 10
17.94375
 20
196.515
 30
0.0
 11
19.5525
 21
191.93625
 31
0.0
  0
LINE
  5
EB
330
E4
100
AcDbEntity
  8
100
  6
Continuous
 62
     7
370
    30
100
AcDbLine
 10
19.5525
 20
191.93625
 30
0.0
 11
24.9975
 21
180.613125
 31
0.0
  0
LINE
  5
EC
330
E4
100
AcDbEntity
  8
100
  6
Continuous
 62
     7
370
    30
100
AcDbLine
 10
24.9975
 20
180.613125
 30
0.0
 11
34.340625
 21
159.946875
 31
0.0
  0
LINE
  5
ED
330
E4
100
AcDbEntity
  8
100
  6
Continuous
 62
     7
370
    30
100
AcDbLine
 10
34.340625
 20
159.946875
 30
0.0
 11
43.250625
 21
140.70375
 31
0.0
  0
LINE
  5
EE
330
E4
100
AcDbEntity
  8
100
  6
Continuous
 62
     7
370
    30
100
AcDbLine
 10
43.250625
 20
140.70375
 30
0.0
 11
46.40625
 21
133.8975
 31
0.0
  0
LINE
  5
EF
330
E4
100
AcDbEntity
  8
100
  6
Continuous
 62
     7
370
    30
100
AcDbLine
 10
46.40625
 20
133.8975
 30
0.0
 11
48.2625
 21
130.185
 31
0.0
  0
LINE
  5
F0
330
E4
100
AcDbEntity
  8
100
  6
Continuous
 62
     7
370
    30
100
AcDbLine
 10
48.2625
 20
130.185
 30
0.0
 11
49.5
 21
129.81375
 31
0.0
  0
LINE
  5
F1
330
E4
100
AcDbEntity
  8
100
  6
Continuous
 62
     7
370
    30
100
AcDbLine
 10
49.5
 20
129.81375
 30
0.0
 11
50.799375
 21
129.628125
 31
0.0
  0
LINE
  5
F2
330
E4
100
AcDbEntity
  8
100
  6
Continuous
 62
     7
370
    30
100
AcDbLine
 10
50.799375
 20
129.628125
 30
0.0
 11
51.85125
 21
128.9475
 31
0.0
  0
LINE
  5
F3
330
E4
100
AcDbEntity
  8
100
  6
Continuous
 62
     7
370
    30
100
AcDbLine
 10
51.85125
 20
128.9475
 30
0.0
 11
53.58375
 21
128.82375
 31
0.0
  0
LINE
  5
F4
330
E4
100
AcDbEntity
  8
100
  6
Continuous
 62
     7
370
    30
100
AcDbLine
 10
53.58375
 20
128.82375
 30
0.0
 11
56.80125
 21
128.638125
 31
0.0
  0
LINE
  5
F5
330
E4
100
AcDbEntity
  8
100
  6
Continuous
 62
     7
370
    30
100
AcDbLine
 10
56.80125
 20
128.638125
 30
0.0
 11
58.41
 21
128.761875
 31
0.0
  0
LINE
  5
F6
330
E4
100
AcDbEntity
  8
100
  6
Continuous
 62
     7
370
    30
100
AcDbLine
 10
58.41
 20
128.761875
 30
0.0
 11
60.39
 21
129.999375
 31
0.0
  0
LINE
  5
F7
330
E4
100
AcDbEntity
  8
100
  6
Continuous
 62
     7
370
    30
100
AcDbLine
 10
60.39
 20
129.999375
 30
0.0
 11
61.813125
 21
132.9075
 31
0.0
  0
LINE
  5
F8
330
E4
100
AcDbEntity
  8
100
  6
Continuous
 62
     7
370
    30
100
AcDbLine
 10
61.813125
 20
132.9075
 30
0.0
 11
62.679375
 21
135.815625
 31
0.0
  0
LINE
  5
F9
330
E4
100
AcDbEntity
  8
100
  6
Continuous
 62
     7
370
    30
100
AcDbLine
 10
62.679375
 20
135.815625
 30
0.0
 11
63.6075
 21
138.72375
 31
0.0
  0
LINE
  5
FA
330
E4
100
AcDbEntity
  8
100
  6
Continuous
 62
     7
370
    30
100
AcDbLine
 10
63.6075
 20
138.72375
 30
0.0
 11
68.031562
 21
135.568125
 31
0.0
  0
LINE
  5
FB
330
E4
100
AcDbEntity
  8
100
  6
Continuous
 62
     7
370
    30
100
AcDbLine
 10
68.031562
 20
135.568125
 30
0.0
 11
73.724062
 21
133.340625
 31
0.0
  0
LINE
  5
FC
330
E4
100
AcDbEntity
  8
100
  6
Continuous
 62
     7
370
    30
100
AcDbLine
 10
73.724062
 20
133.340625
 30
0.0
 11
80.715937
 21
130.989375
 31
0.0
  0
LINE
  5
FD
330
E4
100
AcDbEntity
  8
100
  6
Continuous
 62
     7
370
    30
100
AcDbLine
 10
80.715937
 20
130.989375
 30
0.0
 11
91.172812
 21
128.7
 31
0.0
  0
LINE
  5
FE
330
E4
100
AcDbEntity
  8
100
  6
Continuous
 62
     7
370
    30
100
AcDbLine
 10
91.172812
 20
128.7
 30
0.0
 11
101.877187
 21
127.09125
 31
0.0
  0
LINE
  5
FF
330
E4
100
AcDbEntity
  8
100
  6
Continuous
 62
     7
370
    30
100
AcDbLine
 10
101.877187
 20
127.09125
 30
0.0
 11
109.240312
 21
126.534375
 31
0.0
  0
LINE
  5
100
330
E4
100
AcDbEntity
  8
100
  6
Continuous
 62
     7
370
    30
100
AcDbLine
 10
109.240312
 20
126.534375
 30
0.0
 11
118.645312
 21
125.9775
 31
0.0
  0
LINE
  5
101
330
E4
100
AcDbEntity
  8
100
  6
Continuous
 62
     7
370
    30
100
AcDbLine
 10
118.645312
 20
125.9775
 30
0.0
 11
127.555312
 21
125.9775
 31
0.0
  0
LINE
  5
102
330
E4
100
AcDbEntity
  8
100
  6
Continuous
 62
     7
370
    30
100
AcDbLine
 10
127.555312
 20
125.9775
 30
0.0
 11
136.094062
 21
126.4725
 31
0.0
  0
LINE
  5
103
330
E4
100
AcDbEntity
  8
100
  6
Continuous
 62
     7
370
    30
100
AcDbLine
 10
136.094062
 20
126.4725
 30
0.0
 11
142.900312
 21
127.029375
 31
0.0
  0
LINE
  5
104
330
E4
100
AcDbEntity
  8
100
  6
Continuous
 62
     7
370
    30
100
AcDbLine
 10
142.900312
 20
127.029375
 30
0.0
 11
151.005937
 21
128.205
 31
0.0
  0
LINE
  5
105
330
E4
100
AcDbEntity
  8
100
  6
Continuous
 62
     7
370
    30
100
AcDbLine
 10
151.005937
 20
128.205
 30
0.0
 11
159.420937
 21
129.751875
 31
0.0
  0
LINE
  5
106
330
E4
100
AcDbEntity
  8
100
  6
Continuous
 62
     7
370
    30
100
AcDbLine
 10
159.420937
 20
129.751875
 30
0.0
 11
167.155312
 21
132.103125
 31
0.0
  0
LINE
  5
107
330
E4
100
AcDbEntity
  8
100
  6
Continuous
 62
     7
370
    30
100
AcDbLine
 10
167.155312
 20
132.103125
 30
0.0
 11
172.043437
 21
134.02125
 31
0.0
  0
LINE
  5
108
330
E4
100
AcDbEntity
  8
100
  6
Continuous
 62
     7
370
    30
100
AcDbLine
 10
172.043437
 20
134.02125
 30
0.0
 11
176.312812
 21
136.62
 31
0.0
  0
LINE
  5
109
330
E4
100
AcDbEntity
  8
100
  6
Continuous
 62
     7
370
    30
100
AcDbLine
 10
176.312812
 20
136.62
 30
0.0
 11
179.159062
 21
139.156875
 31
0.0
  0
LINE
  5
10A
330
E4
100
AcDbEntity
  8
100
  6
Continuous
 62
     7
370
    30
100
AcDbLine
 10
179.159062
 20
139.156875
 30
0.0
 11
180.458437
 21
141.384375
 31
0.0
  0
LINE
  5
10B
330
E4
100
AcDbEntity
  8
100
  6
Continuous
 62
     7
370
    30
100
AcDbLine
 10
180.458437
 20
141.384375
 30
0.0
 11
180.582187
 21
156.79125
 31
0.0
  0
LINE
  5
10C
330
E4
100
AcDbEntity
  8
100
  6
Continuous
 62
     7
370
    30
100
AcDbLine
 10
180.582187
 20
156.79125
 30
0.0
 11
180.582187
 21
159.575625
 31
0.0
  0
LINE
  5
10D
330
E4
100
AcDbEntity
  8
100
  6
Continuous
 62
     7
370
    30
100
AcDbLine
 10
180.582187
 20
159.575625
 30
0.0
 11
179.592187
 21
161.926875
 31
0.0
  0
LINE
  5
10E
330
E4
100
AcDbEntity
  8
100
  6
Continuous
 62
     7
370
    30
100
AcDbLine
 10
179.592187
 20
161.926875
 30
0.0
 11
177.240938
 21
164.401875
 31
0.0
  0
LINE
  5
10F
330
E4
100
AcDbEntity
  8
100
  6
Continuous
 62
     7
370
    30
100
AcDbLine
 10
177.240938
 20
164.401875
 30
0.0
 11
174.642188
 21
166.134375
 31
0.0
  0
LINE
  5
110
330
E4
100
AcDbEntity
  8
100
  6
Continuous
 62
     7
370
    30
100
AcDbLine
 10
174.642188
 20
166.134375
 30
0.0
 11
171.053438
 21
167.92875
 31
0.0
  0
LINE
  5
111
330
E4
100
AcDbEntity
  8
100
  6
Continuous
 62
     7
370
    30
100
AcDbLine
 10
171.053438
 20
167.92875
 30
0.0
 11
170.496563
 21
186.181875
 31
0.0
  0
LINE
  5
112
330
E4
100
AcDbEntity
  8
100
  6
Continuous
 62
     7
370
    30
100
AcDbLine
 10
170.496563
 20
186.181875
 30
0.0
 11
170.063438
 21
188.038125
 31
0.0
  0
LINE
  5
113
330
E4
100
AcDbEntity
  8
100
  6
Continuous
 62
     7
370
    30
100
AcDbLine
 10
170.063438
 20
188.038125
 30
0.0
 11
168.207188
 21
190.45125
 31
0.0
  0
LINE
  5
114
330
E4
100
AcDbEntity
  8
100
  6
Continuous
 62
     7
370
    30
100
AcDbLine
 10
168.207188
 20
190.45125
 30
0.0
 11
165.794063
 21
192.245625
 31
0.0
  0
LINE
  5
115
330
E4
100
AcDbEntity
  8
100
  6
Continuous
 62
     7
370
    30
100
AcDbLine
 10
165.794063
 20
192.245625
 30
0.0
 11
162.947813
 21
193.483125
 31
0.0
  0
LINE
  5
116
330
E4
100
AcDbEntity
  8
100
  6
Continuous
 62
     7
370
    30
100
AcDbLine
 10
162.947813
 20
193.483125
 30
0.0
 11
157.502813
 21
194.844375
 31
0.0
  0
LINE
  5
117
330
E4
100
AcDbEntity
  8
100
  6
Continuous
 62
     7
370
    30
100
AcDbLine
 10
157.502813
 20
194.844375
 30
0.0
 11
151.439063
 21
195.64875
 31
0.0
  0
LINE
  5
118
330
E4
100
AcDbEntity
  8
100
  6
Continuous
 62
     7
370
    30
100
AcDbLine
 10
151.439063
 20
195.64875
 30
0.0
 11
143.828438
 21
196.329375
 31
0.0
  0
LINE
  5
119
330
E4
100
AcDbEntity
  8
100
  6
Continuous
 62
     7
370
    30
100
AcDbLine
 10
143.828438
 20
196.329375
 30
0.0
 11
133.619063
 21
196.948125
 31
0.0
  0
LINE
  5
11A
330
E4
100
AcDbEntity
  8
100
  6
Continuous
 62
     7
370
    30
100
AcDbLine
 10
133.619063
 20
196.948125
 30
0.0
 11
122.914688
 21
197.13375
 31
0.0
  0
LINE
  5
11B
330
E4
100
AcDbEntity
  8
100
  6
Continuous
 62
     7
370
    30
100
AcDbLine
 10
122.914688
 20
197.13375
 30
0.0
 11
112.767188
 21
196.948125
 31
0.0
  0
LINE
  5
11C
330
E4
100
AcDbEntity
  8
100
  6
Continuous
 62
     7
370
    30
100
AcDbLine
 10
112.767188
 20
196.948125
 30
0.0
 11
101.629688
 21
196.515
 31
0.0
  0
LINE
  5
11D
330
E4
100
AcDbEntity
  8
100
  6
Continuous
 62
     7
370
    30
100
AcDbLine
 10
101.629688
 20
196.515
 30
0.0
 11
88.450313
 21
195.463125
 31
0.0
  0
LINE
  5
11E
330
E4
100
AcDbEntity
  8
100
  6
Continuous
 62
     7
370
    30
100
AcDbLine
 10
88.450313
 20
195.463125
 30
0.0
 11
82.510313
 21
194.596875
 31
0.0
  0
LINE
  5
11F
330
E4
100
AcDbEntity
  8
100
  6
Continuous
 62
     7
370
    30
100
AcDbLine
 10
82.510313
 20
194.596875
 30
0.0
 11
79.416563
 21
194.101875
 31
0.0
  0
LINE
  5
120
330
E4
100
AcDbEntity
  8
100
  6
Continuous
 62
     7
370
    30
100
AcDbLine
 10
79.416563
 20
194.101875
 30
0.0
 11
75.209063
 21
192.616875
 31
0.0
  0
LINE
  5
121
330
E4
100
AcDbEntity
  8
100
  6
Continuous
 62
     7
370
    30
100
AcDbLine
 10
75.209063
 20
192.616875
 30
0.0
 11
71.187188
 21
189.95625
 31
0.0
  0
LINE
  5
122
330
E4
100
AcDbEntity
  8
100
  6
Continuous
 62
     7
370
    30
100
AcDbLine
 10
71.187188
 20
189.95625
 30
0.0
 11
69.145313
 21
187.790625
 31
0.0
  0
LINE
  5
123
330
E4
100
AcDbEntity
  8
100
  6
Continuous
 62
     7
370
    30
100
AcDbLine
 10
69.145313
 20
187.790625
 30
0.0
 11
67.660313
 21
187.914375
 31
0.0
  0
LINE
  5
124
330
E4
100
AcDbEntity
  8
100
  6
Continuous
 62
     7
370
    30
100
AcDbLine
 10
67.660313
 20
187.914375
 30
0.0
 11
61.596563
 21
188.285625
 31
0.0
  0
LINE
  5
125
330
E4
100
AcDbEntity
  8
100
  6
Continuous
 62
     7
370
    30
100
AcDbLine
 10
61.596563
 20
188.285625
 30
0.0
 11
55.656563
 21
188.780625
 31
0.0
  0
LINE
  5
126
330
E4
100
AcDbEntity
  8
100
  6
Continuous
 62
     7
370
    30
100
AcDbLine
 10
55.656563
 20
188.780625
 30
0.0
 11
50.706563
 21
189.028125
 31
0.0
  0
LINE
  5
127
330
E4
100
AcDbEntity
  8
100
  6
Continuous
 62
     7
370
    30
100
AcDbLine
 10
50.706563
 20
189.028125
 30
0.0
 11
46.127813
 21
189.523125
 31
0.0
  0
LINE
  5
128
330
E4
100
AcDbEntity
  8
100
  6
Continuous
 62
     7
370
    30
100
AcDbLine
 10
46.127813
 20
189.523125
 30
0.0
 11
45.014063
 21
190.884375
 31
0.0
  0
ENDBLK
  5
E6
330
E4
100
AcDbEntity
  8
0
100
AcDbBlockEnd
  0
BLOCK
  5
12B
330
12A
100
AcDbEntity
  8
0
100
AcDbBlockBegin
  2
G3
 70
     0
 10
0.0
 20
0.0
 30
0.0
  3
G3
  1

  0
LINE
  5
12D
330
12A
100
AcDbEntity
  8
100
  6
Continuous
 62
     7
370
    30
100
AcDbLine
 10
23.88375
 20
205.05375
 30
0.0
 11
26.60625
 21
204.6825
 31
0.0
  0
LINE
  5
12E
330
12A
100
AcDbEntity
  8
100
  6
Continuous
 62
     7
370
    30
100
AcDbLine
 10
26.60625
 20
204.6825
 30
0.0
 11
29.638125
 21
204.373125
 31
0.0
  0
LINE
  5
12F
330
12A
100
AcDbEntity
  8
100
  6
Continuous
 62
     7
370
    30
100
AcDbLine
 10
29.638125
 20
204.373125
 30
0.0
 11
40.3425
 21
198.928125
 31
0.0
  0
LINE
  5
130
330
12A
100
AcDbEntity
  8
100
  6
Continuous
 62
     7
370
    30
100
AcDbLine
 10
40.3425
 20
198.928125
 30
0.0
 11
64.47375
 21
201.279375
 31
0.0
  0
LINE
  5
131
330
12A
100
AcDbEntity
  8
100
  6
Continuous
 62
     7
370
    30
100
AcDbLine
 10
64.47375
 20
201.279375
 30
0.0
 11
65.773125
 21
201.898125
 31
0.0
  0
LINE
  5
132
330
12A
100
AcDbEntity
  8
100
  6
Continuous
 62
     7
370
    30
100
AcDbLine
 10
65.773125
 20
201.898125
 30
0.0
 11
67.381875
 21
202.82625
 31
0.0
  0
LINE
  5
133
330
12A
100
AcDbEntity
  8
100
  6
Continuous
 62
     7
370
    30
100
AcDbLine
 10
67.381875
 20
202.82625
 30
0.0
 11
71.960625
 21
206.78625
 31
0.0
  0
LINE
  5
134
330
12A
100
AcDbEntity
  8
100
  6
Continuous
 62
     7
370
    30
100
AcDbLine
 10
71.960625
 20
206.78625
 30
0.0
 11
74.683125
 21
208.951875
 31
0.0
  0
LINE
  5
135
330
12A
100
AcDbEntity
  8
100
  6
Continuous
 62
     7
370
    30
100
AcDbLine
 10
74.683125
 20
208.951875
 30
0.0
 11
76.168125
 21
209.01375
 31
0.0
  0
LINE
  5
136
330
12A
100
AcDbEntity
  8
100
  6
Continuous
 62
     7
370
    30
100
AcDbLine
 10
76.168125
 20
209.01375
 30
0.0
 11
79.695
 21
209.075625
 31
0.0
  0
LINE
  5
137
330
12A
100
AcDbEntity
  8
100
  6
Continuous
 62
     7
370
    30
100
AcDbLine
 10
79.695
 20
209.075625
 30
0.0
 11
81.860625
 21
208.580625
 31
0.0
  0
LINE
  5
138
330
12A
100
AcDbEntity
  8
100
  6
Continuous
 62
     7
370
    30
100
AcDbLine
 10
81.860625
 20
208.580625
 30
0.0
 11
83.469375
 21
206.600625
 31
0.0
  0
LINE
  5
139
330
12A
100
AcDbEntity
  8
100
  6
Continuous
 62
     7
370
    30
100
AcDbLine
 10
83.469375
 20
206.600625
 30
0.0
 11
84.211875
 21
204.373125
 31
0.0
  0
LINE
  5
13A
330
12A
100
AcDbEntity
  8
100
  6
Continuous
 62
     7
370
    30
100
AcDbLine
 10
84.211875
 20
204.373125
 30
0.0
 11
83.53125
 21
200.10375
 31
0.0
  0
LINE
  5
13B
330
12A
100
AcDbEntity
  8
100
  6
Continuous
 62
     7
370
    30
100
AcDbLine
 10
83.53125
 20
200.10375
 30
0.0
 11
82.603125
 21
197.01
 31
0.0
  0
LINE
  5
13C
330
12A
100
AcDbEntity
  8
100
  6
Continuous
 62
     7
370
    30
100
AcDbLine
 10
82.603125
 20
197.01
 30
0.0
 11
81.9225
 21
194.65875
 31
0.0
  0
ENDBLK
  5
12C
330
12A
100
AcDbEntity
  8
0
100
AcDbBlockEnd
  0
BLOCK
  5
13F
330
13E
100
AcDbEntity
  8
0
100
AcDbBlockBegin
  2
G4
 70
     0
 10
0.0
 20
0.0
 30
0.0
  3
G4
  1

  0
LINE
  5
141
330
13E
100
AcDbEntity
  8
100
  6
Continuous
 62
     7
370
    30
100
AcDbLine
 10
76.601117
 20
209.021346
 30
0.0
 11
74.404688
 21
207.188437
 31
0.0
  0
LINE
  5
142
330
13E
100
AcDbEntity
  8
100
  6
Continuous
 62
     7
370
    30
100
AcDbLine
 10
74.404688
 20
207.188437
 30
0.0
 11
71.28
 21
204.651562
 31
0.0
  0
LINE
  5
143
330
13E
100
AcDbEntity
  8
100
  6
Continuous
 62
     7
370
    30
100
AcDbLine
 10
71.28
 20
204.651562
 30
0.0
 11
69.083438
 21
202.640625
 31
0.0
  0
LINE
  5
144
330
13E
100
AcDbEntity
  8
100
  6
Continuous
 62
     7
370
    30
100
AcDbLine
 10
69.083438
 20
202.640625
 30
0.0
 11
67.722188
 21
201.58875
 31
0.0
  0
LINE
  5
145
330
13E
100
AcDbEntity
  8
100
  6
Continuous
 62
     7
370
    30
100
AcDbLine
 10
67.722188
 20
201.58875
 30
0.0
 11
66.484688
 21
201.186562
 31
0.0
  0
LINE
  5
146
330
13E
100
AcDbEntity
  8
100
  6
Continuous
 62
     7
370
    30
100
AcDbLine
 10
66.484688
 20
201.186562
 30
0.0
 11
64.029768
 21
201.236115
 31
0.0
  0
ENDBLK
  5
140
330
13E
100
AcDbEntity
  8
0
100
AcDbBlockEnd
  0
BLOCK
  5
149
330
148
100
AcDbEntity
  8
0
100
AcDbBlockBegin
  2
G5
 70
     0
 10
0.0
 20
0.0
 30
0.0
  3
G5
  1

  0
LINE
  5
14B
330
148
100
AcDbEntity
  8
100
  6
Continuous
 62
     7
370
    30
100
AcDbLine
 10
79.695
 20
209.075625
 30
0.0
 11
78.364688
 21
208.333125
 31
0.0
  0
LINE
  5
14C
330
148
100
AcDbEntity
  8
100
  6
Continuous
 62
     7
370
    30
100
AcDbLine
 10
78.364688
 20
208.333125
 30
0.0
 11
76.260938
 21
206.445937
 31
0.0
  0
LINE
  5
14D
330
148
100
AcDbEntity
  8
100
  6
Continuous
 62
     7
370
    30
100
AcDbLine
 10
76.260938
 20
206.445937
 30
0.0
 11
73.13625
 21
203.599687
 31
0.0
  0
LINE
  5
14E
330
148
100
AcDbEntity
  8
100
  6
Continuous
 62
     7
370
    30
100
AcDbLine
 10
73.13625
 20
203.599687
 30
0.0
 11
70.41375
 21
201.248437
 31
0.0
  0
LINE
  5
14F
330
148
100
AcDbEntity
  8
100
  6
Continuous
 62
     7
370
    30
100
AcDbLine
 10
70.41375
 20
201.248437
 30
0.0
 11
69.733125
 21
201.062813
 31
0.0
  0
LINE
  5
150
330
148
100
AcDbEntity
  8
100
  6
Continuous
 62
     7
370
    30
100
AcDbLine
 10
69.733125
 20
201.062813
 30
0.0
 11
67.44375
 21
200.629687
 31
0.0
  0
LINE
  5
151
330
148
100
AcDbEntity
  8
100
  6
Continuous
 62
     7
370
    30
100
AcDbLine
 10
67.44375
 20
200.629687
 30
0.0
 11
62.803125
 21
200.258437
 31
0.0
  0
LINE
  5
152
330
148
100
AcDbEntity
  8
100
  6
Continuous
 62
     7
370
    30
100
AcDbLine
 10
62.803125
 20
200.258437
 30
0.0
 11
50.675625
 21
198.959062
 31
0.0
  0
LINE
  5
153
330
148
100
AcDbEntity
  8
100
  6
Continuous
 62
     7
370
    30
100
AcDbLine
 10
50.675625
 20
198.959062
 30
0.0
 11
42.69375
 21
198.216563
 31
0.0
  0
LINE
  5
154
330
148
100
AcDbEntity
  8
100
  6
Continuous
 62
     7
370
    30
100
AcDbLine
 10
42.69375
 20
198.216563
 30
0.0
 11
40.899375
 21
198.278438
 31
0.0
  0
LINE
  5
155
330
148
100
AcDbEntity
  8
100
  6
Continuous
 62
     7
370
    30
100
AcDbLine
 10
40.899375
 20
198.278438
 30
0.0
 11
40.3425
 21
198.928125
 31
0.0
  0
ENDBLK
  5
14A
330
148
100
AcDbEntity
  8
0
100
AcDbBlockEnd
  0
BLOCK
  5
158
330
157
100
AcDbEntity
  8
0
100
AcDbBlockBegin
  2
G6
 70
     0
 10
0.0
 20
0.0
 30
0.0
  3
G6
  1

  0
LINE
  5
15A
330
157
100
AcDbEntity
  8
100
  6
Continuous
 62
     7
370
    30
100
AcDbLine
 10
26.60625
 20
204.6825
 30
0.0
 11
25.183125
 21
204.342188
 31
0.0
  0
LINE
  5
15B
330
157
100
AcDbEntity
  8
100
  6
Continuous
 62
     7
370
    30
100
AcDbLine
 10
25.183125
 20
204.342188
 30
0.0
 11
23.543438
 21
203.445
 31
0.0
  0
LINE
  5
15C
330
157
100
AcDbEntity
  8
100
  6
Continuous
 62
     7
370
    30
100
AcDbLine
 10
23.543438
 20
203.445
 30
0.0
 11
22.275
 21
202.08375
 31
0.0
  0
LINE
  5
15D
330
157
100
AcDbEntity
  8
100
  6
Continuous
 62
     7
370
    30
100
AcDbLine
 10
22.275
 20
202.08375
 30
0.0
 11
21.5325
 21
200.784375
 31
0.0
  0
LINE
  5
15E
330
157
100
AcDbEntity
  8
100
  6
Continuous
 62
     7
370
    30
100
AcDbLine
 10
21.5325
 20
200.784375
 30
0.0
 11
20.759063
 21
199.144688
 31
0.0
  0
LINE
  5
15F
330
157
100
AcDbEntity
  8
100
  6
Continuous
 62
     7
370
    30
100
AcDbLine
 10
20.759063
 20
199.144688
 30
0.0
 11
20.449688
 21
197.01
 31
0.0
  0
LINE
  5
160
330
157
100
AcDbEntity
  8
100
  6
Continuous
 62
     7
370
    30
100
AcDbLine
 10
20.449688
 20
197.01
 30
0.0
 11
20.66625
 21
194.65875
 31
0.0
  0
LINE
  5
161
330
157
100
AcDbEntity
  8
100
  6
Continuous
 62
     7
370
    30
100
AcDbLine
 10
20.66625
 20
194.65875
 30
0.0
 11
21.470625
 21
192.524063
 31
0.0
  0
LINE
  5
162
330
157
100
AcDbEntity
  8
100
  6
Continuous
 62
     7
370
    30
100
AcDbLine
 10
21.470625
 20
192.524063
 30
0.0
 11
24.224063
 21
186.769688
 31
0.0
  0
LINE
  5
163
330
157
100
AcDbEntity
  8
100
  6
Continuous
 62
     7
370
    30
100
AcDbLine
 10
24.224063
 20
186.769688
 30
0.0
 11
26.668125
 21
181.572188
 31
0.0
  0
LINE
  5
164
330
157
100
AcDbEntity
  8
100
  6
Continuous
 62
     7
370
    30
100
AcDbLine
 10
26.668125
 20
181.572188
 30
0.0
 11
29.32875
 21
176.09625
 31
0.0
  0
LINE
  5
165
330
157
100
AcDbEntity
  8
100
  6
Continuous
 62
     7
370
    30
100
AcDbLine
 10
29.32875
 20
176.09625
 30
0.0
 11
31.4325
 21
171.424688
 31
0.0
  0
LINE
  5
166
330
157
100
AcDbEntity
  8
100
  6
Continuous
 62
     7
370
    30
100
AcDbLine
 10
31.4325
 20
171.424688
 30
0.0
 11
33.690938
 21
166.289063
 31
0.0
  0
LINE
  5
167
330
157
100
AcDbEntity
  8
100
  6
Continuous
 62
     7
370
    30
100
AcDbLine
 10
33.690938
 20
166.289063
 30
0.0
 11
35.578125
 21
162.329063
 31
0.0
  0
LINE
  5
168
330
157
100
AcDbEntity
  8
100
  6
Continuous
 62
     7
370
    30
100
AcDbLine
 10
35.578125
 20
162.329063
 30
0.0
 11
38.517188
 21
156.203438
 31
0.0
  0
LINE
  5
169
330
157
100
AcDbEntity
  8
100
  6
Continuous
 62
     7
370
    30
100
AcDbLine
 10
38.517188
 20
156.203438
 30
0.0
 11
40.775625
 21
151.408125
 31
0.0
  0
LINE
  5
16A
330
157
100
AcDbEntity
  8
100
  6
Continuous
 62
     7
370
    30
100
AcDbLine
 10
40.775625
 20
151.408125
 30
0.0
 11
43.68375
 21
144.973125
 31
0.0
  0
LINE
  5
16B
330
157
100
AcDbEntity
  8
100
  6
Continuous
 62
     7
370
    30
100
AcDbLine
 10
43.68375
 20
144.973125
 30
0.0
 11
46.560938
 21
139.125938
 31
0.0
  0
LINE
  5
16C
330
157
100
AcDbEntity
  8
100
  6
Continuous
 62
     7
370
    30
100
AcDbLine
 10
46.560938
 20
139.125938
 30
0.0
 11
48.88125
 21
133.835625
 31
0.0
  0
LINE
  5
16D
330
157
100
AcDbEntity
  8
100
  6
Continuous
 62
     7
370
    30
100
AcDbLine
 10
48.88125
 20
133.835625
 30
0.0
 11
50.520938
 21
130.741875
 31
0.0
  0
LINE
  5
16E
330
157
100
AcDbEntity
  8
100
  6
Continuous
 62
     7
370
    30
100
AcDbLine
 10
50.520938
 20
130.741875
 30
0.0
 11
51.572813
 21
129.535313
 31
0.0
  0
LINE
  5
16F
330
157
100
AcDbEntity
  8
100
  6
Continuous
 62
     7
370
    30
100
AcDbLine
 10
51.572813
 20
129.535313
 30
0.0
 11
52.532817
 21
128.898817
 31
0.0
  0
ENDBLK
  5
159
330
157
100
AcDbEntity
  8
0
100
AcDbBlockEnd
  0
BLOCK
  5
172
330
171
100
AcDbEntity
  8
0
100
AcDbBlockBegin
  2
G7
 70
     0
 10
0.0
 20
0.0
 30
0.0
  3
G7
  1

  0
LINE
  5
174
330
171
100
AcDbEntity
  8
100
  6
Continuous
 62
     7
370
    30
100
AcDbLine
 10
57.017813
 20
137.8575
 30
0.0
 11
57.915
 21
138.661875
 31
0.0
  0
LINE
  5
175
330
171
100
AcDbEntity
  8
100
  6
Continuous
 62
     7
370
    30
100
AcDbLine
 10
57.915
 20
138.661875
 30
0.0
 11
58.935938
 21
138.940313
 31
0.0
  0
LINE
  5
176
330
171
100
AcDbEntity
  8
100
  6
Continuous
 62
     7
370
    30
100
AcDbLine
 10
58.935938
 20
138.940313
 30
0.0
 11
60.01875
 21
138.661875
 31
0.0
  0
LINE
  5
177
330
171
100
AcDbEntity
  8
100
  6
Continuous
 62
     7
370
    30
100
AcDbLine
 10
60.01875
 20
138.661875
 30
0.0
 11
60.854063
 21
137.424375
 31
0.0
  0
LINE
  5
178
330
171
100
AcDbEntity
  8
100
  6
Continuous
 62
     7
370
    30
100
AcDbLine
 10
60.854063
 20
137.424375
 30
0.0
 11
61.1325
 21
135.63
 31
0.0
  0
LINE
  5
179
330
171
100
AcDbEntity
  8
100
  6
Continuous
 62
     7
370
    30
100
AcDbLine
 10
61.1325
 20
135.63
 30
0.0
 11
60.885
 21
133.77375
 31
0.0
  0
LINE
  5
17A
330
171
100
AcDbEntity
  8
100
  6
Continuous
 62
     7
370
    30
100
AcDbLine
 10
60.885
 20
133.77375
 30
0.0
 11
60.235313
 21
132.319688
 31
0.0
  0
LINE
  5
17B
330
171
100
AcDbEntity
  8
100
  6
Continuous
 62
     7
370
    30
100
AcDbLine
 10
60.235313
 20
132.319688
 30
0.0
 11
59.214375
 21
131.113125
 31
0.0
  0
LINE
  5
17C
330
171
100
AcDbEntity
  8
100
  6
Continuous
 62
     7
370
    30
100
AcDbLine
 10
59.214375
 20
131.113125
 30
0.0
 11
58.224375
 21
130.494375
 31
0.0
  0
LINE
  5
17D
330
171
100
AcDbEntity
  8
100
  6
Continuous
 62
     7
370
    30
100
AcDbLine
 10
58.224375
 20
130.494375
 30
0.0
 11
57.079688
 21
130.525313
 31
0.0
  0
LINE
  5
17E
330
171
100
AcDbEntity
  8
100
  6
Continuous
 62
     7
370
    30
100
AcDbLine
 10
57.079688
 20
130.525313
 30
0.0
 11
56.30625
 21
130.9275
 31
0.0
  0
LINE
  5
17F
330
171
100
AcDbEntity
  8
100
  6
Continuous
 62
     7
370
    30
100
AcDbLine
 10
56.30625
 20
130.9275
 30
0.0
 11
55.594688
 21
131.979375
 31
0.0
  0
LINE
  5
180
330
171
100
AcDbEntity
  8
100
  6
Continuous
 62
     7
370
    30
100
AcDbLine
 10
55.594688
 20
131.979375
 30
0.0
 11
55.347188
 21
133.742813
 31
0.0
  0
LINE
  5
181
330
171
100
AcDbEntity
  8
100
  6
Continuous
 62
     7
370
    30
100
AcDbLine
 10
55.347188
 20
133.742813
 30
0.0
 11
55.625625
 21
135.3825
 31
0.0
  0
LINE
  5
182
330
171
100
AcDbEntity
  8
100
  6
Continuous
 62
     7
370
    30
100
AcDbLine
 10
55.625625
 20
135.3825
 30
0.0
 11
56.151563
 21
136.681875
 31
0.0
  0
LINE
  5
183
330
171
100
AcDbEntity
  8
100
  6
Continuous
 62
     7
370
    30
100
AcDbLine
 10
56.151563
 20
136.681875
 30
0.0
 11
57.017813
 21
137.8575
 31
0.0
  0
ENDBLK
  5
173
330
171
100
AcDbEntity
  8
0
100
AcDbBlockEnd
  0
BLOCK
  5
186
330
185
100
AcDbEntity
  8
0
100
AcDbBlockBegin
  2
G8
 70
     0
 10
0.0
 20
0.0
 30
0.0
  3
G8
  1

  0
LINE
  5
188
330
185
100
AcDbEntity
  8
100
  6
Continuous
 62
     7
370
    30
100
AcDbLine
 10
56.782199
 20
137.537738
 30
0.0
 11
57.729375
 21
137.671875
 31
0.0
  0
LINE
  5
189
330
185
100
AcDbEntity
  8
100
  6
Continuous
 62
     7
370
    30
100
AcDbLine
 10
57.729375
 20
137.671875
 30
0.0
 11
58.28625
 21
137.115
 31
0.0
  0
LINE
  5
18A
330
185
100
AcDbEntity
  8
100
  6
Continuous
 62
     7
370
    30
100
AcDbLine
 10
58.28625
 20
137.115
 30
0.0
 11
58.688438
 21
136.341563
 31
0.0
  0
LINE
  5
18B
330
185
100
AcDbEntity
  8
100
  6
Continuous
 62
     7
370
    30
100
AcDbLine
 10
58.688438
 20
136.341563
 30
0.0
 11
58.750313
 21
135.042188
 31
0.0
  0
LINE
  5
18C
330
185
100
AcDbEntity
  8
100
  6
Continuous
 62
     7
370
    30
100
AcDbLine
 10
58.750313
 20
135.042188
 30
0.0
 11
58.440938
 21
133.866563
 31
0.0
  0
LINE
  5
18D
330
185
100
AcDbEntity
  8
100
  6
Continuous
 62
     7
370
    30
100
AcDbLine
 10
58.440938
 20
133.866563
 30
0.0
 11
57.853125
 21
132.9075
 31
0.0
  0
LINE
  5
18E
330
185
100
AcDbEntity
  8
100
  6
Continuous
 62
     7
370
    30
100
AcDbLine
 10
57.853125
 20
132.9075
 30
0.0
 11
57.079688
 21
132.350625
 31
0.0
  0
LINE
  5
18F
330
185
100
AcDbEntity
  8
100
  6
Continuous
 62
     7
370
    30
100
AcDbLine
 10
57.079688
 20
132.350625
 30
0.0
 11
56.368125
 21
132.257813
 31
0.0
  0
LINE
  5
190
330
185
100
AcDbEntity
  8
100
  6
Continuous
 62
     7
370
    30
100
AcDbLine
 10
56.368125
 20
132.257813
 30
0.0
 11
55.525286
 21
132.473861
 31
0.0
  0
ENDBLK
  5
187
330
185
100
AcDbEntity
  8
0
100
AcDbBlockEnd
  0
BLOCK
  5
193
330
192
100
AcDbEntity
  8
0
100
AcDbBlockBegin
  2
G9
 70
     0
 10
0.0
 20
0.0
 30
0.0
  3
G9
  1

  0
LINE
  5
195
330
192
100
AcDbEntity
  8
100
  6
Continuous
 62
     7
370
    30
100
AcDbLine
 10
25.678125
 20
198.61875
 30
0.0
 11
26.11125
 21
199.887188
 31
0.0
  0
LINE
  5
196
330
192
100
AcDbEntity
  8
100
  6
Continuous
 62
     7
370
    30
100
AcDbLine
 10
26.11125
 20
199.887188
 30
0.0
 11
27.039375
 21
200.877188
 31
0.0
  0
LINE
  5
197
330
192
100
AcDbEntity
  8
100
  6
Continuous
 62
     7
370
    30
100
AcDbLine
 10
27.039375
 20
200.877188
 30
0.0
 11
28.215
 21
201.34125
 31
0.0
  0
LINE
  5
198
330
192
100
AcDbEntity
  8
100
  6
Continuous
 62
     7
370
    30
100
AcDbLine
 10
28.215
 20
201.34125
 30
0.0
 11
29.390625
 21
201.434063
 31
0.0
  0
LINE
  5
199
330
192
100
AcDbEntity
  8
100
  6
Continuous
 62
     7
370
    30
100
AcDbLine
 10
29.390625
 20
201.434063
 30
0.0
 11
30.287813
 21
201.34125
 31
0.0
  0
LINE
  5
19A
330
192
100
AcDbEntity
  8
100
  6
Continuous
 62
     7
370
    30
100
AcDbLine
 10
30.287813
 20
201.34125
 30
0.0
 11
31.30875
 21
200.691563
 31
0.0
  0
LINE
  5
19B
330
192
100
AcDbEntity
  8
100
  6
Continuous
 62
     7
370
    30
100
AcDbLine
 10
31.30875
 20
200.691563
 30
0.0
 11
31.896563
 21
199.825313
 31
0.0
  0
LINE
  5
19C
330
192
100
AcDbEntity
  8
100
  6
Continuous
 62
     7
370
    30
100
AcDbLine
 10
31.896563
 20
199.825313
 30
0.0
 11
32.236875
 21
198.433125
 31
0.0
  0
LINE
  5
19D
330
192
100
AcDbEntity
  8
100
  6
Continuous
 62
     7
370
    30
100
AcDbLine
 10
32.236875
 20
198.433125
 30
0.0
 11
32.329688
 21
197.01
 31
0.0
  0
LINE
  5
19E
330
192
100
AcDbEntity
  8
100
  6
Continuous
 62
     7
370
    30
100
AcDbLine
 10
32.329688
 20
197.01
 30
0.0
 11
32.05125
 21
195.64875
 31
0.0
  0
LINE
  5
19F
330
192
100
AcDbEntity
  8
100
  6
Continuous
 62
     7
370
    30
100
AcDbLine
 10
32.05125
 20
195.64875
 30
0.0
 11
31.55625
 21
194.442188
 31
0.0
  0
LINE
  5
1A0
330
192
100
AcDbEntity
  8
100
  6
Continuous
 62
     7
370
    30
100
AcDbLine
 10
31.55625
 20
194.442188
 30
0.0
 11
30.844688
 21
193.328438
 31
0.0
  0
LINE
  5
1A1
330
192
100
AcDbEntity
  8
100
  6
Continuous
 62
     7
370
    30
100
AcDbLine
 10
30.844688
 20
193.328438
 30
0.0
 11
29.7
 21
192.895313
 31
0.0
  0
LINE
  5
1A2
330
192
100
AcDbEntity
  8
100
  6
Continuous
 62
     7
370
    30
100
AcDbLine
 10
29.7
 20
192.895313
 30
0.0
 11
28.431563
 21
192.988125
 31
0.0
  0
LINE
  5
1A3
330
192
100
AcDbEntity
  8
100
  6
Continuous
 62
     7
370
    30
100
AcDbLine
 10
28.431563
 20
192.988125
 30
0.0
 11
27.286875
 21
193.606875
 31
0.0
  0
LINE
  5
1A4
330
192
100
AcDbEntity
  8
100
  6
Continuous
 62
     7
370
    30
100
AcDbLine
 10
27.286875
 20
193.606875
 30
0.0
 11
26.35875
 21
194.318438
 31
0.0
  0
LINE
  5
1A5
330
192
100
AcDbEntity
  8
100
  6
Continuous
 62
     7
370
    30
100
AcDbLine
 10
26.35875
 20
194.318438
 30
0.0
 11
25.770938
 21
195.215625
 31
0.0
  0
LINE
  5
1A6
330
192
100
AcDbEntity
  8
100
  6
Continuous
 62
     7
370
    30
100
AcDbLine
 10
25.770938
 20
195.215625
 30
0.0
 11
25.399688
 21
196.2675
 31
0.0
  0
LINE
  5
1A7
330
192
100
AcDbEntity
  8
100
  6
Continuous
 62
     7
370
    30
100
AcDbLine
 10
25.399688
 20
196.2675
 30
0.0
 11
25.430625
 21
197.2575
 31
0.0
  0
LINE
  5
1A8
330
192
100
AcDbEntity
  8
100
  6
Continuous
 62
     7
370
    30
100
AcDbLine
 10
25.430625
 20
197.2575
 30
0.0
 11
25.678125
 21
198.61875
 31
0.0
  0
ENDBLK
  5
194
330
192
100
AcDbEntity
  8
0
100
AcDbBlockEnd
  0
BLOCK
  5
1AB
330
1AA
100
AcDbEntity
  8
0
100
AcDbBlockBegin
  2
G10
 70
     0
 10
0.0
 20
0.0
 30
0.0
  3
G10
  1

  0
LINE
  5
1AD
330
1AA
100
AcDbEntity
  8
100
  6
Continuous
 62
     7
370
    30
100
AcDbLine
 10
25.905879
 20
199.285744
 30
0.0
 11
26.760938
 21
199.763438
 31
0.0
  0
LINE
  5
1AE
330
1AA
100
AcDbEntity
  8
100
  6
Continuous
 62
     7
370
    30
100
AcDbLine
 10
26.760938
 20
199.763438
 30
0.0
 11
27.812813
 21
200.010938
 31
0.0
  0
LINE
  5
1AF
330
1AA
100
AcDbEntity
  8
100
  6
Continuous
 62
     7
370
    30
100
AcDbLine
 10
27.812813
 20
200.010938
 30
0.0
 11
28.71
 21
199.918125
 31
0.0
  0
LINE
  5
1B0
330
1AA
100
AcDbEntity
  8
100
  6
Continuous
 62
     7
370
    30
100
AcDbLine
 10
28.71
 20
199.918125
 30
0.0
 11
29.359688
 21
199.36125
 31
0.0
  0
LINE
  5
1B1
330
1AA
100
AcDbEntity
  8
100
  6
Continuous
 62
     7
370
    30
100
AcDbLine
 10
29.359688
 20
199.36125
 30
0.0
 11
29.854688
 21
198.185625
 31
0.0
  0
LINE
  5
1B2
330
1AA
100
AcDbEntity
  8
100
  6
Continuous
 62
     7
370
    30
100
AcDbLine
 10
29.854688
 20
198.185625
 30
0.0
 11
29.885625
 21
196.793438
 31
0.0
  0
LINE
  5
1B3
330
1AA
100
AcDbEntity
  8
100
  6
Continuous
 62
     7
370
    30
100
AcDbLine
 10
29.885625
 20
196.793438
 30
0.0
 11
29.607188
 21
195.710625
 31
0.0
  0
LINE
  5
1B4
330
1AA
100
AcDbEntity
  8
100
  6
Continuous
 62
     7
370
    30
100
AcDbLine
 10
29.607188
 20
195.710625
 30
0.0
 11
29.050313
 21
194.875313
 31
0.0
  0
LINE
  5
1B5
330
1AA
100
AcDbEntity
  8
100
  6
Continuous
 62
     7
370
    30
100
AcDbLine
 10
29.050313
 20
194.875313
 30
0.0
 11
28.060313
 21
194.504063
 31
0.0
  0
LINE
  5
1B6
330
1AA
100
AcDbEntity
  8
100
  6
Continuous
 62
     7
370
    30
100
AcDbLine
 10
28.060313
 20
194.504063
 30
0.0
 11
27.194063
 21
194.442188
 31
0.0
  0
LINE
  5
1B7
330
1AA
100
AcDbEntity
  8
100
  6
Continuous
 62
     7
370
    30
100
AcDbLine
 10
27.194063
 20
194.442188
 30
0.0
 11
26.4825
 21
194.813438
 31
0.0
  0
LINE
  5
1B8
330
1AA
100
AcDbEntity
  8
100
  6
Continuous
 62
     7
370
    30
100
AcDbLine
 10
26.4825
 20
194.813438
 30
0.0
 11
25.637859
 21
195.592682
 31
0.0
  0
ENDBLK
  5
1AC
330
1AA
100
AcDbEntity
  8
0
100
AcDbBlockEnd
  0
BLOCK
  5
1BB
330
1BA
100
AcDbEntity
  8
0
100
AcDbBlockBegin
  2
G11
 70
     0
 10
0.0
 20
0.0
 30
0.0
  3
G11
  1

  0
LINE
  5
1BD
330
1BA
100
AcDbEntity
  8
100
  6
Continuous
 62
     7
370
    30
100
AcDbLine
 10
78.921563
 20
205.858125
 30
0.0
 11
79.849688
 21
206.755312
 31
0.0
  0
LINE
  5
1BE
330
1BA
100
AcDbEntity
  8
100
  6
Continuous
 62
     7
370
    30
100
AcDbLine
 10
79.849688
 20
206.755312
 30
0.0
 11
80.746875
 21
207.002812
 31
0.0
  0
LINE
  5
1BF
330
1BA
100
AcDbEntity
  8
100
  6
Continuous
 62
     7
370
    30
100
AcDbLine
 10
80.746875
 20
207.002812
 30
0.0
 11
81.675
 21
206.91
 31
0.0
  0
LINE
  5
1C0
330
1BA
100
AcDbEntity
  8
100
  6
Continuous
 62
     7
370
    30
100
AcDbLine
 10
81.675
 20
206.91
 30
0.0
 11
82.54125
 21
206.29125
 31
0.0
  0
LINE
  5
1C1
330
1BA
100
AcDbEntity
  8
100
  6
Continuous
 62
     7
370
    30
100
AcDbLine
 10
82.54125
 20
206.29125
 30
0.0
 11
82.819688
 21
205.425
 31
0.0
  0
LINE
  5
1C2
330
1BA
100
AcDbEntity
  8
100
  6
Continuous
 62
     7
370
    30
100
AcDbLine
 10
82.819688
 20
205.425
 30
0.0
 11
82.974375
 21
204.93
 31
0.0
  0
LINE
  5
1C3
330
1BA
100
AcDbEntity
  8
100
  6
Continuous
 62
     7
370
    30
100
AcDbLine
 10
82.974375
 20
204.93
 30
0.0
 11
83.005313
 21
204.342187
 31
0.0
  0
LINE
  5
1C4
330
1BA
100
AcDbEntity
  8
100
  6
Continuous
 62
     7
370
    30
100
AcDbLine
 10
83.005313
 20
204.342187
 30
0.0
 11
83.098125
 21
203.56875
 31
0.0
  0
LINE
  5
1C5
330
1BA
100
AcDbEntity
  8
100
  6
Continuous
 62
     7
370
    30
100
AcDbLine
 10
83.098125
 20
203.56875
 30
0.0
 11
83.098125
 21
202.733437
 31
0.0
  0
LINE
  5
1C6
330
1BA
100
AcDbEntity
  8
100
  6
Continuous
 62
     7
370
    30
100
AcDbLine
 10
83.098125
 20
202.733437
 30
0.0
 11
82.757813
 21
201.805312
 31
0.0
  0
LINE
  5
1C7
330
1BA
100
AcDbEntity
  8
100
  6
Continuous
 62
     7
370
    30
100
AcDbLine
 10
82.757813
 20
201.805312
 30
0.0
 11
82.510313
 21
200.908125
 31
0.0
  0
LINE
  5
1C8
330
1BA
100
AcDbEntity
  8
100
  6
Continuous
 62
     7
370
    30
100
AcDbLine
 10
82.510313
 20
200.908125
 30
0.0
 11
82.015313
 21
200.289375
 31
0.0
  0
LINE
  5
1C9
330
1BA
100
AcDbEntity
  8
100
  6
Continuous
 62
     7
370
    30
100
AcDbLine
 10
82.015313
 20
200.289375
 30
0.0
 11
80.994375
 21
200.289375
 31
0.0
  0
LINE
  5
1CA
330
1BA
100
AcDbEntity
  8
100
  6
Continuous
 62
     7
370
    30
100
AcDbLine
 10
80.994375
 20
200.289375
 30
0.0
 11
79.9425
 21
200.567812
 31
0.0
  0
LINE
  5
1CB
330
1BA
100
AcDbEntity
  8
100
  6
Continuous
 62
     7
370
    30
100
AcDbLine
 10
79.9425
 20
200.567812
 30
0.0
 11
79.107188
 21
201.34125
 31
0.0
  0
LINE
  5
1CC
330
1BA
100
AcDbEntity
  8
100
  6
Continuous
 62
     7
370
    30
100
AcDbLine
 10
79.107188
 20
201.34125
 30
0.0
 11
78.58125
 21
202.176562
 31
0.0
  0
LINE
  5
1CD
330
1BA
100
AcDbEntity
  8
100
  6
Continuous
 62
     7
370
    30
100
AcDbLine
 10
78.58125
 20
202.176562
 30
0.0
 11
78.364688
 21
203.290312
 31
0.0
  0
LINE
  5
1CE
330
1BA
100
AcDbEntity
  8
100
  6
Continuous
 62
     7
370
    30
100
AcDbLine
 10
78.364688
 20
203.290312
 30
0.0
 11
78.395625
 21
204.249375
 31
0.0
  0
LINE
  5
1CF
330
1BA
100
AcDbEntity
  8
100
  6
Continuous
 62
     7
370
    30
100
AcDbLine
 10
78.395625
 20
204.249375
 30
0.0
 11
78.58125
 21
205.455937
 31
0.0
  0
LINE
  5
1D0
330
1BA
100
AcDbEntity
  8
100
  6
Continuous
 62
     7
370
    30
100
AcDbLine
 10
78.58125
 20
205.455937
 30
0.0
 11
78.921563
 21
205.858125
 31
0.0
  0
ENDBLK
  5
1BC
330
1BA
100
AcDbEntity
  8
0
100
AcDbBlockEnd
  0
BLOCK
  5
1D3
330
1D2
100
AcDbEntity
  8
0
100
AcDbBlockBegin
  2
G12
 70
     0
 10
0.0
 20
0.0
 30
0.0
  3
G12
  1

  0
LINE
  5
1D5
330
1D2
100
AcDbEntity
  8
100
  6
Continuous
 62
     7
370
    30
100
AcDbLine
 10
78.921563
 20
205.858125
 30
0.0
 11
79.695
 21
205.765312
 31
0.0
  0
LINE
  5
1D6
330
1D2
100
AcDbEntity
  8
100
  6
Continuous
 62
     7
370
    30
100
AcDbLine
 10
79.695
 20
205.765312
 30
0.0
 11
80.406563
 21
205.394062
 31
0.0
  0
LINE
  5
1D7
330
1D2
100
AcDbEntity
  8
100
  6
Continuous
 62
     7
370
    30
100
AcDbLine
 10
80.406563
 20
205.394062
 30
0.0
 11
80.777813
 21
204.496875
 31
0.0
  0
LINE
  5
1D8
330
1D2
100
AcDbEntity
  8
100
  6
Continuous
 62
     7
370
    30
100
AcDbLine
 10
80.777813
 20
204.496875
 30
0.0
 11
80.870625
 21
203.352187
 31
0.0
  0
LINE
  5
1D9
330
1D2
100
AcDbEntity
  8
100
  6
Continuous
 62
     7
370
    30
100
AcDbLine
 10
80.870625
 20
203.352187
 30
0.0
 11
80.685
 21
202.485937
 31
0.0
  0
LINE
  5
1DA
330
1D2
100
AcDbEntity
  8
100
  6
Continuous
 62
     7
370
    30
100
AcDbLine
 10
80.685
 20
202.485937
 30
0.0
 11
80.282813
 21
201.7125
 31
0.0
  0
LINE
  5
1DB
330
1D2
100
AcDbEntity
  8
100
  6
Continuous
 62
     7
370
    30
100
AcDbLine
 10
80.282813
 20
201.7125
 30
0.0
 11
79.787813
 21
201.34125
 31
0.0
  0
LINE
  5
1DC
330
1D2
100
AcDbEntity
  8
100
  6
Continuous
 62
     7
370
    30
100
AcDbLine
 10
79.787813
 20
201.34125
 30
0.0
 11
79.255866
 21
201.203585
 31
0.0
  0
ENDBLK
  5
1D4
330
1D2
100
AcDbEntity
  8
0
100
AcDbBlockEnd
  0
BLOCK
  5
1DF
330
1DE
100
AcDbEntity
  8
0
100
AcDbBlockBegin
  2
G13
 70
     0
 10
0.0
 20
0.0
 30
0.0
  3
G13
  1

  0
LINE
  5
1E1
330
1DE
100
AcDbEntity
  8
100
  6
Continuous
 62
     7
370
    30
100
AcDbLine
 10
40.930313
 20
169.599375
 30
0.0
 11
44.642813
 21
169.723125
 31
0.0
  0
LINE
  5
1E2
330
1DE
100
AcDbEntity
  8
100
  6
Continuous
 62
     7
370
    30
100
AcDbLine
 10
44.642813
 20
169.723125
 30
0.0
 11
46.499063
 21
169.599375
 31
0.0
  0
LINE
  5
1E3
330
1DE
100
AcDbEntity
  8
100
  6
Continuous
 62
     7
370
    30
100
AcDbLine
 10
46.499063
 20
169.599375
 30
0.0
 11
53.924063
 21
168.856875
 31
0.0
  0
LINE
  5
1E4
330
1DE
100
AcDbEntity
  8
100
  6
Continuous
 62
     7
370
    30
100
AcDbLine
 10
53.924063
 20
168.856875
 30
0.0
 11
60.111563
 21
168.114375
 31
0.0
  0
LINE
  5
1E5
330
1DE
100
AcDbEntity
  8
100
  6
Continuous
 62
     7
370
    30
100
AcDbLine
 10
60.111563
 20
168.114375
 30
0.0
 11
63.576563
 21
167.619375
 31
0.0
  0
LINE
  5
1E6
330
1DE
100
AcDbEntity
  8
100
  6
Continuous
 62
     7
370
    30
100
AcDbLine
 10
63.576563
 20
167.619375
 30
0.0
 11
64.071563
 21
166.010625
 31
0.0
  0
LINE
  5
1E7
330
1DE
100
AcDbEntity
  8
100
  6
Continuous
 62
     7
370
    30
100
AcDbLine
 10
64.071563
 20
166.010625
 30
0.0
 11
62.339063
 21
164.401875
 31
0.0
  0
LINE
  5
1E8
330
1DE
100
AcDbEntity
  8
100
  6
Continuous
 62
     7
370
    30
100
AcDbLine
 10
62.339063
 20
164.401875
 30
0.0
 11
60.730313
 21
162.298125
 31
0.0
  0
LINE
  5
1E9
330
1DE
100
AcDbEntity
  8
100
  6
Continuous
 62
     7
370
    30
100
AcDbLine
 10
60.730313
 20
162.298125
 30
0.0
 11
59.987813
 21
159.946875
 31
0.0
  0
LINE
  5
1EA
330
1DE
100
AcDbEntity
  8
100
  6
Continuous
 62
     7
370
    30
100
AcDbLine
 10
59.987813
 20
159.946875
 30
0.0
 11
60.111562
 21
143.7975
 31
0.0
  0
LINE
  5
1EB
330
1DE
100
AcDbEntity
  8
100
  6
Continuous
 62
     7
370
    30
100
AcDbLine
 10
60.111562
 20
143.7975
 30
0.0
 11
60.544687
 21
141.94125
 31
0.0
  0
LINE
  5
1EC
330
1DE
100
AcDbEntity
  8
100
  6
Continuous
 62
     7
370
    30
100
AcDbLine
 10
60.544687
 20
141.94125
 30
0.0
 11
63.6075
 21
138.72375
 31
0.0
  0
ENDBLK
  5
1E0
330
1DE
100
AcDbEntity
  8
0
100
AcDbBlockEnd
  0
BLOCK
  5
1EF
330
1EE
100
AcDbEntity
  8
0
100
AcDbBlockBegin
  2
G14
 70
     0
 10
0.0
 20
0.0
 30
0.0
  3
G14
  1

  0
LINE
  5
1F1
330
1EE
100
AcDbEntity
  8
100
  6
Continuous
 62
     7
370
    30
100
AcDbLine
 10
43.900313
 20
188.780625
 30
0.0
 11
42.910313
 21
187.171875
 31
0.0
  0
LINE
  5
1F2
330
1EE
100
AcDbEntity
  8
100
  6
Continuous
 62
     7
370
    30
100
AcDbLine
 10
42.910313
 20
187.171875
 30
0.0
 11
42.910313
 21
175.168125
 31
0.0
  0
LINE
  5
1F3
330
1EE
100
AcDbEntity
  8
100
  6
Continuous
 62
     7
370
    30
100
AcDbLine
 10
42.910313
 20
175.168125
 30
0.0
 11
42.788623
 21
169.661319
 31
0.0
  0
ENDBLK
  5
1F0
330
1EE
100
AcDbEntity
  8
0
100
AcDbBlockEnd
  0
BLOCK
  5
1F6
330
1F5
100
AcDbEntity
  8
0
100
AcDbBlockBegin
  2
G15
 70
     0
 10
0.0
 20
0.0
 30
0.0
  3
G15
  1

  0
LINE
  5
1F8
330
1F5
100
AcDbEntity
  8
100
  6
Continuous
 62
     7
370
    30
100
AcDbLine
 10
47.736563
 20
191.874375
 30
0.0
 11
56.770313
 21
192.493125
 31
0.0
  0
LINE
  5
1F9
330
1F5
100
AcDbEntity
  8
100
  6
Continuous
 62
     7
370
    30
100
AcDbLine
 10
56.770313
 20
192.493125
 30
0.0
 11
66.175313
 21
193.483125
 31
0.0
  0
LINE
  5
1FA
330
1F5
100
AcDbEntity
  8
100
  6
Continuous
 62
     7
370
    30
100
AcDbLine
 10
66.175313
 20
193.483125
 30
0.0
 11
70.011563
 21
193.854375
 31
0.0
  0
LINE
  5
1FB
330
1F5
100
AcDbEntity
  8
100
  6
Continuous
 62
     7
370
    30
100
AcDbLine
 10
70.011563
 20
193.854375
 30
0.0
 11
68.526563
 21
196.081875
 31
0.0
  0
ENDBLK
  5
1F7
330
1F5
100
AcDbEntity
  8
0
100
AcDbBlockEnd
  0
BLOCK
  5
1FE
330
1FD
100
AcDbEntity
  8
0
100
AcDbBlockBegin
  2
G16
 70
     0
 10
0.0
 20
0.0
 30
0.0
  3
G16
  1

  0
LINE
  5
200
330
1FD
100
AcDbEntity
  8
100
  6
Continuous
 62
     7
370
    30
100
AcDbLine
 10
67.041563
 20
167.248125
 30
0.0
 11
68.897813
 21
168.361875
 31
0.0
  0
LINE
  5
201
330
1FD
100
AcDbEntity
  8
100
  6
Continuous
 62
     7
370
    30
100
AcDbLine
 10
68.897813
 20
168.361875
 30
0.0
 11
69.640313
 21
169.723125
 31
0.0
  0
LINE
  5
202
330
1FD
100
AcDbEntity
  8
100
  6
Continuous
 62
     7
370
    30
100
AcDbLine
 10
69.640313
 20
169.723125
 30
0.0
 11
69.516563
 21
173.806875
 31
0.0
  0
LINE
  5
203
330
1FD
100
AcDbEntity
  8
100
  6
Continuous
 62
     7
370
    30
100
AcDbLine
 10
69.516563
 20
173.806875
 30
0.0
 11
69.516563
 21
179.870625
 31
0.0
  0
LINE
  5
204
330
1FD
100
AcDbEntity
  8
100
  6
Continuous
 62
     7
370
    30
100
AcDbLine
 10
69.516563
 20
179.870625
 30
0.0
 11
69.392813
 21
184.573125
 31
0.0
  0
LINE
  5
205
330
1FD
100
AcDbEntity
  8
100
  6
Continuous
 62
     7
370
    30
100
AcDbLine
 10
69.392813
 20
184.573125
 30
0.0
 11
70.011563
 21
187.48125
 31
0.0
  0
LINE
  5
206
330
1FD
100
AcDbEntity
  8
100
  6
Continuous
 62
     7
370
    30
100
AcDbLine
 10
70.011563
 20
187.48125
 30
0.0
 11
71.496563
 21
189.151875
 31
0.0
  0
ENDBLK
  5
1FF
330
1FD
100
AcDbEntity
  8
0
100
AcDbBlockEnd
  0
BLOCK
  5
209
330
208
100
AcDbEntity
  8
0
100
AcDbBlockBegin
  2
G17
 70
     0
 10
0.0
 20
0.0
 30
0.0
  3
G17
  1

  0
LINE
  5
20B
330
208
100
AcDbEntity
  8
100
  6
Continuous
 62
     7
370
    30
100
AcDbLine
 10
67.041563
 20
170.341875
 30
0.0
 11
66.917813
 21
174.61125
 31
0.0
  0
LINE
  5
20C
330
208
100
AcDbEntity
  8
100
  6
Continuous
 62
     7
370
    30
100
AcDbLine
 10
66.917813
 20
174.61125
 30
0.0
 11
66.917813
 21
178.385625
 31
0.0
  0
LINE
  5
20D
330
208
100
AcDbEntity
  8
100
  6
Continuous
 62
     7
370
    30
100
AcDbLine
 10
66.917813
 20
178.385625
 30
0.0
 11
66.979688
 21
181.78875
 31
0.0
  0
LINE
  5
20E
330
208
100
AcDbEntity
  8
100
  6
Continuous
 62
     7
370
    30
100
AcDbLine
 10
66.979688
 20
181.78875
 30
0.0
 11
67.598438
 21
185.25375
 31
0.0
  0
LINE
  5
20F
330
208
100
AcDbEntity
  8
100
  6
Continuous
 62
     7
370
    30
100
AcDbLine
 10
67.598438
 20
185.25375
 30
0.0
 11
69.145313
 21
187.790625
 31
0.0
  0
ENDBLK
  5
20A
330
208
100
AcDbEntity
  8
0
100
AcDbBlockEnd
  0
BLOCK
  5
212
330
211
100
AcDbEntity
  8
0
100
AcDbBlockBegin
  2
G18
 70
     0
 10
0.0
 20
0.0
 30
0.0
  3
G18
  1

  0
LINE
  5
214
330
211
100
AcDbEntity
  8
100
  6
Continuous
 62
     7
370
    30
100
AcDbLine
 10
59.996376
 20
158.829398
 30
0.0
 11
61.596562
 21
156.915
 31
0.0
  0
LINE
  5
215
330
211
100
AcDbEntity
  8
100
  6
Continuous
 62
     7
370
    30
100
AcDbLine
 10
61.596562
 20
156.915
 30
0.0
 11
65.123437
 21
154.56375
 31
0.0
  0
LINE
  5
216
330
211
100
AcDbEntity
  8
100
  6
Continuous
 62
     7
370
    30
100
AcDbLine
 10
65.123437
 20
154.56375
 30
0.0
 11
70.382812
 21
152.274375
 31
0.0
  0
LINE
  5
217
330
211
100
AcDbEntity
  8
100
  6
Continuous
 62
     7
370
    30
100
AcDbLine
 10
70.382812
 20
152.274375
 30
0.0
 11
75.580312
 21
151.09875
 31
0.0
  0
LINE
  5
218
330
211
100
AcDbEntity
  8
100
  6
Continuous
 62
     7
370
    30
100
AcDbLine
 10
75.580312
 20
151.09875
 30
0.0
 11
84.057187
 21
149.180625
 31
0.0
  0
LINE
  5
219
330
211
100
AcDbEntity
  8
100
  6
Continuous
 62
     7
370
    30
100
AcDbLine
 10
84.057187
 20
149.180625
 30
0.0
 11
94.885312
 21
147.63375
 31
0.0
  0
LINE
  5
21A
330
211
100
AcDbEntity
  8
100
  6
Continuous
 62
     7
370
    30
100
AcDbLine
 10
94.885312
 20
147.63375
 30
0.0
 11
104.661562
 21
146.7675
 31
0.0
  0
LINE
  5
21B
330
211
100
AcDbEntity
  8
100
  6
Continuous
 62
     7
370
    30
100
AcDbLine
 10
104.661562
 20
146.7675
 30
0.0
 11
118.274062
 21
146.581875
 31
0.0
  0
LINE
  5
21C
330
211
100
AcDbEntity
  8
100
  6
Continuous
 62
     7
370
    30
100
AcDbLine
 10
118.274062
 20
146.581875
 30
0.0
 11
128.235937
 21
146.334375
 31
0.0
  0
LINE
  5
21D
330
211
100
AcDbEntity
  8
100
  6
Continuous
 62
     7
370
    30
100
AcDbLine
 10
128.235937
 20
146.334375
 30
0.0
 11
139.249687
 21
146.829375
 31
0.0
  0
LINE
  5
21E
330
211
100
AcDbEntity
  8
100
  6
Continuous
 62
     7
370
    30
100
AcDbLine
 10
139.249687
 20
146.829375
 30
0.0
 11
150.882187
 21
147.448125
 31
0.0
  0
LINE
  5
21F
330
211
100
AcDbEntity
  8
100
  6
Continuous
 62
     7
370
    30
100
AcDbLine
 10
150.882187
 20
147.448125
 30
0.0
 11
158.554687
 21
148.5
 31
0.0
  0
LINE
  5
220
330
211
100
AcDbEntity
  8
100
  6
Continuous
 62
     7
370
    30
100
AcDbLine
 10
158.554687
 20
148.5
 30
0.0
 11
167.835937
 21
150.418125
 31
0.0
  0
LINE
  5
221
330
211
100
AcDbEntity
  8
100
  6
Continuous
 62
     7
370
    30
100
AcDbLine
 10
167.835937
 20
150.418125
 30
0.0
 11
174.085312
 21
152.33625
 31
0.0
  0
LINE
  5
222
330
211
100
AcDbEntity
  8
100
  6
Continuous
 62
     7
370
    30
100
AcDbLine
 10
174.085312
 20
152.33625
 30
0.0
 11
177.797812
 21
154.254375
 31
0.0
  0
LINE
  5
223
330
211
100
AcDbEntity
  8
100
  6
Continuous
 62
     7
370
    30
100
AcDbLine
 10
177.797812
 20
154.254375
 30
0.0
 11
180.025312
 21
156.54375
 31
0.0
  0
LINE
  5
224
330
211
100
AcDbEntity
  8
100
  6
Continuous
 62
     7
370
    30
100
AcDbLine
 10
180.025312
 20
156.54375
 30
0.0
 11
180.582187
 21
158.214375
 31
0.0
  0
ENDBLK
  5
213
330
211
100
AcDbEntity
  8
0
100
AcDbBlockEnd
  0
BLOCK
  5
227
330
226
100
AcDbEntity
  8
0
100
AcDbBlockBegin
  2
G19
 70
     0
 10
0.0
 20
0.0
 30
0.0
  3
G19
  1

  0
LINE
  5
229
330
226
100
AcDbEntity
  8
100
  6
Continuous
 62
     7
370
    30
100
AcDbLine
 10
69.207187
 20
166.32
 30
0.0
 11
74.280937
 21
163.22625
 31
0.0
  0
LINE
  5
22A
330
226
100
AcDbEntity
  8
100
  6
Continuous
 62
     7
370
    30
100
AcDbLine
 10
74.280937
 20
163.22625
 30
0.0
 11
85.294687
 21
160.50375
 31
0.0
  0
LINE
  5
22B
330
226
100
AcDbEntity
  8
100
  6
Continuous
 62
     7
370
    30
100
AcDbLine
 10
85.294687
 20
160.50375
 30
0.0
 11
99.030937
 21
159.26625
 31
0.0
  0
LINE
  5
22C
330
226
100
AcDbEntity
  8
100
  6
Continuous
 62
     7
370
    30
100
AcDbLine
 10
99.030937
 20
159.26625
 30
0.0
 11
114.499687
 21
158.52375
 31
0.0
  0
LINE
  5
22D
330
226
100
AcDbEntity
  8
100
  6
Continuous
 62
     7
370
    30
100
AcDbLine
 10
114.499687
 20
158.52375
 30
0.0
 11
136.527187
 21
158.52375
 31
0.0
  0
LINE
  5
22E
330
226
100
AcDbEntity
  8
100
  6
Continuous
 62
     7
370
    30
100
AcDbLine
 10
136.527187
 20
158.52375
 30
0.0
 11
151.872187
 21
160.00875
 31
0.0
  0
LINE
  5
22F
330
226
100
AcDbEntity
  8
100
  6
Continuous
 62
     7
370
    30
100
AcDbLine
 10
151.872187
 20
160.00875
 30
0.0
 11
161.772187
 21
161.6175
 31
0.0
  0
LINE
  5
230
330
226
100
AcDbEntity
  8
100
  6
Continuous
 62
     7
370
    30
100
AcDbLine
 10
161.772187
 20
161.6175
 30
0.0
 11
167.217187
 21
164.21625
 31
0.0
  0
LINE
  5
231
330
226
100
AcDbEntity
  8
100
  6
Continuous
 62
     7
370
    30
100
AcDbLine
 10
167.217187
 20
164.21625
 30
0.0
 11
169.939687
 21
165.70125
 31
0.0
  0
ENDBLK
  5
228
330
226
100
AcDbEntity
  8
0
100
AcDbBlockEnd
  0
BLOCK
  5
234
330
233
100
AcDbEntity
  8
0
100
AcDbBlockBegin
  2
G20
 70
     0
 10
0.0
 20
0.0
 30
0.0
  3
G20
  1

  0
LINE
  5
236
330
233
100
AcDbEntity
  8
100
  6
Continuous
 62
     7
370
    30
100
AcDbLine
 10
177.426562
 20
162.298125
 30
0.0
 11
177.550312
 21
160.565625
 31
0.0
  0
LINE
  5
237
330
233
100
AcDbEntity
  8
100
  6
Continuous
 62
     7
370
    30
100
AcDbLine
 10
177.550312
 20
160.565625
 30
0.0
 11
176.560312
 21
158.4
 31
0.0
  0
LINE
  5
238
330
233
100
AcDbEntity
  8
100
  6
Continuous
 62
     7
370
    30
100
AcDbLine
 10
176.560312
 20
158.4
 30
0.0
 11
173.899687
 21
156.54375
 31
0.0
  0
LINE
  5
239
330
233
100
AcDbEntity
  8
100
  6
Continuous
 62
     7
370
    30
100
AcDbLine
 10
173.899687
 20
156.54375
 30
0.0
 11
168.145312
 21
154.501875
 31
0.0
  0
LINE
  5
23A
330
233
100
AcDbEntity
  8
100
  6
Continuous
 62
     7
370
    30
100
AcDbLine
 10
168.145312
 20
154.501875
 30
0.0
 11
160.658437
 21
152.645625
 31
0.0
  0
LINE
  5
23B
330
233
100
AcDbEntity
  8
100
  6
Continuous
 62
     7
370
    30
100
AcDbLine
 10
160.658437
 20
152.645625
 30
0.0
 11
151.995937
 21
151.408125
 31
0.0
  0
LINE
  5
23C
330
233
100
AcDbEntity
  8
100
  6
Continuous
 62
     7
370
    30
100
AcDbLine
 10
151.995937
 20
151.408125
 30
0.0
 11
143.828437
 21
150.60375
 31
0.0
  0
LINE
  5
23D
330
233
100
AcDbEntity
  8
100
  6
Continuous
 62
     7
370
    30
100
AcDbLine
 10
143.828437
 20
150.60375
 30
0.0
 11
133.990312
 21
150.046875
 31
0.0
  0
LINE
  5
23E
330
233
100
AcDbEntity
  8
100
  6
Continuous
 62
     7
370
    30
100
AcDbLine
 10
133.990312
 20
150.046875
 30
0.0
 11
121.739062
 21
149.61375
 31
0.0
  0
LINE
  5
23F
330
233
100
AcDbEntity
  8
100
  6
Continuous
 62
     7
370
    30
100
AcDbLine
 10
121.739062
 20
149.61375
 30
0.0
 11
111.900937
 21
149.985
 31
0.0
  0
LINE
  5
240
330
233
100
AcDbEntity
  8
100
  6
Continuous
 62
     7
370
    30
100
AcDbLine
 10
111.900937
 20
149.985
 30
0.0
 11
101.505937
 21
150.35625
 31
0.0
  0
LINE
  5
241
330
233
100
AcDbEntity
  8
100
  6
Continuous
 62
     7
370
    30
100
AcDbLine
 10
101.505937
 20
150.35625
 30
0.0
 11
90.430312
 21
151.59375
 31
0.0
  0
LINE
  5
242
330
233
100
AcDbEntity
  8
100
  6
Continuous
 62
     7
370
    30
100
AcDbLine
 10
90.430312
 20
151.59375
 30
0.0
 11
79.911562
 21
153.635625
 31
0.0
  0
LINE
  5
243
330
233
100
AcDbEntity
  8
100
  6
Continuous
 62
     7
370
    30
100
AcDbLine
 10
79.911562
 20
153.635625
 30
0.0
 11
72.239062
 21
155.615625
 31
0.0
  0
LINE
  5
244
330
233
100
AcDbEntity
  8
100
  6
Continuous
 62
     7
370
    30
100
AcDbLine
 10
72.239062
 20
155.615625
 30
0.0
 11
67.907812
 21
157.905
 31
0.0
  0
LINE
  5
245
330
233
100
AcDbEntity
  8
100
  6
Continuous
 62
     7
370
    30
100
AcDbLine
 10
67.907812
 20
157.905
 30
0.0
 11
64.504687
 21
160.00875
 31
0.0
  0
LINE
  5
246
330
233
100
AcDbEntity
  8
100
  6
Continuous
 62
     7
370
    30
100
AcDbLine
 10
64.504687
 20
160.00875
 30
0.0
 11
63.452812
 21
161.37
 31
0.0
  0
LINE
  5
247
330
233
100
AcDbEntity
  8
100
  6
Continuous
 62
     7
370
    30
100
AcDbLine
 10
63.452812
 20
161.37
 30
0.0
 11
62.895937
 21
163.040625
 31
0.0
  0
ENDBLK
  5
235
330
233
100
AcDbEntity
  8
0
100
AcDbBlockEnd
  0
BLOCK
  5
24A
330
249
100
AcDbEntity
  8
0
100
AcDbBlockBegin
  2
G21
 70
     0
 10
0.0
 20
0.0
 30
0.0
  3
G21
  1

  0
LINE
  5
24C
330
249
100
AcDbEntity
  8
100
  6
Continuous
 62
     7
370
    30
100
AcDbLine
 10
76.755937
 20
189.70875
 30
0.0
 11
79.725937
 21
187.97625
 31
0.0
  0
LINE
  5
24D
330
249
100
AcDbEntity
  8
100
  6
Continuous
 62
     7
370
    30
100
AcDbLine
 10
79.725937
 20
187.97625
 30
0.0
 11
85.542187
 21
186.8625
 31
0.0
  0
LINE
  5
24E
330
249
100
AcDbEntity
  8
100
  6
Continuous
 62
     7
370
    30
100
AcDbLine
 10
85.542187
 20
186.8625
 30
0.0
 11
94.699687
 21
185.3775
 31
0.0
  0
LINE
  5
24F
330
249
100
AcDbEntity
  8
100
  6
Continuous
 62
     7
370
    30
100
AcDbLine
 10
94.699687
 20
185.3775
 30
0.0
 11
108.807187
 21
184.75875
 31
0.0
  0
LINE
  5
250
330
249
100
AcDbEntity
  8
100
  6
Continuous
 62
     7
370
    30
100
AcDbLine
 10
108.807187
 20
184.75875
 30
0.0
 11
123.162187
 21
184.75875
 31
0.0
  0
LINE
  5
251
330
249
100
AcDbEntity
  8
100
  6
Continuous
 62
     7
370
    30
100
AcDbLine
 10
123.162187
 20
184.75875
 30
0.0
 11
137.517187
 21
185.00625
 31
0.0
  0
LINE
  5
252
330
249
100
AcDbEntity
  8
100
  6
Continuous
 62
     7
370
    30
100
AcDbLine
 10
137.517187
 20
185.00625
 30
0.0
 11
150.758437
 21
186.12
 31
0.0
  0
LINE
  5
253
330
249
100
AcDbEntity
  8
100
  6
Continuous
 62
     7
370
    30
100
AcDbLine
 10
150.758437
 20
186.12
 30
0.0
 11
157.935937
 21
187.23375
 31
0.0
  0
LINE
  5
254
330
249
100
AcDbEntity
  8
100
  6
Continuous
 62
     7
370
    30
100
AcDbLine
 10
157.935937
 20
187.23375
 30
0.0
 11
162.390937
 21
188.8425
 31
0.0
  0
LINE
  5
255
330
249
100
AcDbEntity
  8
100
  6
Continuous
 62
     7
370
    30
100
AcDbLine
 10
162.390937
 20
188.8425
 30
0.0
 11
164.247187
 21
190.69875
 31
0.0
  0
ENDBLK
  5
24B
330
249
100
AcDbEntity
  8
0
100
AcDbBlockEnd
  0
BLOCK
  5
258
330
257
100
AcDbEntity
  8
0
100
AcDbBlockBegin
  2
G22
 70
     0
 10
0.0
 20
0.0
 30
0.0
  3
G22
  1

  0
LINE
  5
25A
330
257
100
AcDbEntity
  8
100
  6
Continuous
 62
     7
370
    30
100
AcDbLine
 10
74.354723
 20
133.128544
 30
0.0
 11
74.528437
 21
118.67625
 31
0.0
  0
LINE
  5
25B
330
257
100
AcDbEntity
  8
100
  6
Continuous
 62
     7
370
    30
100
AcDbLine
 10
74.528437
 20
118.67625
 30
0.0
 11
74.652187
 21
108.9
 31
0.0
  0
LINE
  5
25C
330
257
100
AcDbEntity
  8
100
  6
Continuous
 62
     7
370
    30
100
AcDbLine
 10
74.652187
 20
108.9
 30
0.0
 11
74.652187
 21
102.2175
 31
0.0
  0
LINE
  5
25D
330
257
100
AcDbEntity
  8
100
  6
Continuous
 62
     7
370
    30
100
AcDbLine
 10
74.652187
 20
102.2175
 30
0.0
 11
75.023437
 21
94.545
 31
0.0
  0
LINE
  5
25E
330
257
100
AcDbEntity
  8
100
  6
Continuous
 62
     7
370
    30
100
AcDbLine
 10
75.023437
 20
94.545
 30
0.0
 11
74.837812
 21
88.666875
 31
0.0
  0
LINE
  5
25F
330
257
100
AcDbEntity
  8
100
  6
Continuous
 62
     7
370
    30
100
AcDbLine
 10
74.837812
 20
88.666875
 30
0.0
 11
75.147187
 21
80.623125
 31
0.0
  0
LINE
  5
260
330
257
100
AcDbEntity
  8
100
  6
Continuous
 62
     7
370
    30
100
AcDbLine
 10
75.147187
 20
80.623125
 30
0.0
 11
75.518437
 21
74.62125
 31
0.0
  0
ENDBLK
  5
259
330
257
100
AcDbEntity
  8
0
100
AcDbBlockEnd
  0
BLOCK
  5
263
330
262
100
AcDbEntity
  8
0
100
AcDbBlockBegin
  2
G23
 70
     0
 10
0.0
 20
0.0
 30
0.0
  3
G23
  1

  0
LINE
  5
265
330
262
100
AcDbEntity
  8
100
  6
Continuous
 62
     7
370
    30
100
AcDbLine
 10
70.692187
 20
78.4575
 30
0.0
 11
70.011562
 21
86.191875
 31
0.0
  0
LINE
  5
266
330
262
100
AcDbEntity
  8
100
  6
Continuous
 62
     7
370
    30
100
AcDbLine
 10
70.011562
 20
86.191875
 30
0.0
 11
69.825937
 21
96.339375
 31
0.0
  0
LINE
  5
267
330
262
100
AcDbEntity
  8
100
  6
Continuous
 62
     7
370
    30
100
AcDbLine
 10
69.825937
 20
96.339375
 30
0.0
 11
69.764062
 21
110.26125
 31
0.0
  0
LINE
  5
268
330
262
100
AcDbEntity
  8
100
  6
Continuous
 62
     7
370
    30
100
AcDbLine
 10
69.764062
 20
110.26125
 30
0.0
 11
69.825937
 21
123.87375
 31
0.0
  0
LINE
  5
269
330
262
100
AcDbEntity
  8
100
  6
Continuous
 62
     7
370
    30
100
AcDbLine
 10
69.825937
 20
123.87375
 30
0.0
 11
70.042601
 21
134.781197
 31
0.0
  0
ENDBLK
  5
264
330
262
100
AcDbEntity
  8
0
100
AcDbBlockEnd
  0
BLOCK
  5
26C
330
26B
100
AcDbEntity
  8
0
100
AcDbBlockBegin
  2
G24
 70
     0
 10
0.0
 20
0.0
 30
0.0
  3
G24
  1

  0
LINE
  5
26E
330
26B
100
AcDbEntity
  8
100
  6
Continuous
 62
     7
370
    30
100
AcDbLine
 10
65.308555
 20
137.51041
 30
0.0
 11
65.185312
 21
121.089375
 31
0.0
  0
LINE
  5
26F
330
26B
100
AcDbEntity
  8
100
  6
Continuous
 62
     7
370
    30
100
AcDbLine
 10
65.185312
 20
121.089375
 30
0.0
 11
65.123437
 21
107.91
 31
0.0
  0
LINE
  5
270
330
26B
100
AcDbEntity
  8
100
  6
Continuous
 62
     7
370
    30
100
AcDbLine
 10
65.123437
 20
107.91
 30
0.0
 11
64.937812
 21
95.225625
 31
0.0
  0
LINE
  5
271
330
26B
100
AcDbEntity
  8
100
  6
Continuous
 62
     7
370
    30
100
AcDbLine
 10
64.937812
 20
95.225625
 30
0.0
 11
65.061562
 21
90.46125
 31
0.0
  0
LINE
  5
272
330
26B
100
AcDbEntity
  8
100
  6
Continuous
 62
     7
370
    30
100
AcDbLine
 10
65.061562
 20
90.46125
 30
0.0
 11
65.618437
 21
89.595
 31
0.0
  0
LINE
  5
273
330
26B
100
AcDbEntity
  8
100
  6
Continuous
 62
     7
370
    30
100
AcDbLine
 10
65.618437
 20
89.595
 30
0.0
 11
66.051562
 21
87.800625
 31
0.0
  0
LINE
  5
274
330
26B
100
AcDbEntity
  8
100
  6
Continuous
 62
     7
370
    30
100
AcDbLine
 10
66.051562
 20
87.800625
 30
0.0
 11
66.237187
 21
86.315625
 31
0.0
  0
LINE
  5
275
330
26B
100
AcDbEntity
  8
100
  6
Continuous
 62
     7
370
    30
100
AcDbLine
 10
66.237187
 20
86.315625
 30
0.0
 11
67.598437
 21
82.4175
 31
0.0
  0
LINE
  5
276
330
26B
100
AcDbEntity
  8
100
  6
Continuous
 62
     7
370
    30
100
AcDbLine
 10
67.598437
 20
82.4175
 30
0.0
 11
70.692187
 21
78.4575
 31
0.0
  0
LINE
  5
277
330
26B
100
AcDbEntity
  8
100
  6
Continuous
 62
     7
370
    30
100
AcDbLine
 10
70.692187
 20
78.4575
 30
0.0
 11
72.919687
 21
76.10625
 31
0.0
  0
LINE
  5
278
330
26B
100
AcDbEntity
  8
100
  6
Continuous
 62
     7
370
    30
100
AcDbLine
 10
72.919687
 20
76.10625
 30
0.0
 11
77.127187
 21
73.63125
 31
0.0
  0
LINE
  5
279
330
26B
100
AcDbEntity
  8
100
  6
Continuous
 62
     7
370
    30
100
AcDbLine
 10
77.127187
 20
73.63125
 30
0.0
 11
87.645937
 21
68.5575
 31
0.0
  0
LINE
  5
27A
330
26B
100
AcDbEntity
  8
100
  6
Continuous
 62
     7
370
    30
100
AcDbLine
 10
87.645937
 20
68.5575
 30
0.0
 11
97.793437
 21
65.46375
 31
0.0
  0
LINE
  5
27B
330
26B
100
AcDbEntity
  8
100
  6
Continuous
 62
     7
370
    30
100
AcDbLine
 10
97.793437
 20
65.46375
 30
0.0
 11
109.673437
 21
63.855
 31
0.0
  0
LINE
  5
27C
330
26B
100
AcDbEntity
  8
100
  6
Continuous
 62
     7
370
    30
100
AcDbLine
 10
109.673437
 20
63.855
 30
0.0
 11
118.459687
 21
62.6175
 31
0.0
  0
LINE
  5
27D
330
26B
100
AcDbEntity
  8
100
  6
Continuous
 62
     7
370
    30
100
AcDbLine
 10
118.459687
 20
62.6175
 30
0.0
 11
126.255937
 21
62.74125
 31
0.0
  0
LINE
  5
27E
330
26B
100
AcDbEntity
  8
100
  6
Continuous
 62
     7
370
    30
100
AcDbLine
 10
126.255937
 20
62.74125
 30
0.0
 11
133.680937
 21
62.98875
 31
0.0
  0
LINE
  5
27F
330
26B
100
AcDbEntity
  8
100
  6
Continuous
 62
     7
370
    30
100
AcDbLine
 10
133.680937
 20
62.98875
 30
0.0
 11
143.457187
 21
64.47375
 31
0.0
  0
LINE
  5
280
330
26B
100
AcDbEntity
  8
100
  6
Continuous
 62
     7
370
    30
100
AcDbLine
 10
143.457187
 20
64.47375
 30
0.0
 11
153.975937
 21
66.94875
 31
0.0
  0
LINE
  5
281
330
26B
100
AcDbEntity
  8
100
  6
Continuous
 62
     7
370
    30
100
AcDbLine
 10
153.975937
 20
66.94875
 30
0.0
 11
164.370937
 21
71.28
 31
0.0
  0
LINE
  5
282
330
26B
100
AcDbEntity
  8
100
  6
Continuous
 62
     7
370
    30
100
AcDbLine
 10
164.370937
 20
71.28
 30
0.0
 11
165.360937
 21
102.09375
 31
0.0
  0
LINE
  5
283
330
26B
100
AcDbEntity
  8
100
  6
Continuous
 62
     7
370
    30
100
AcDbLine
 10
165.360937
 20
102.09375
 30
0.0
 11
165.618769
 21
131.636016
 31
0.0
  0
ENDBLK
  5
26D
330
26B
100
AcDbEntity
  8
0
100
AcDbBlockEnd
  0
BLOCK
  5
286
330
285
100
AcDbEntity
  8
0
100
AcDbBlockBegin
  2
G25
 70
     0
 10
0.0
 20
0.0
 30
0.0
  3
G25
  1

  0
LINE
  5
288
330
285
100
AcDbEntity
  8
100
  6
Continuous
 62
     7
370
    30
100
AcDbLine
 10
76.879687
 20
58.53375
 30
0.0
 11
79.973437
 21
49.190625
 31
0.0
  0
LINE
  5
289
330
285
100
AcDbEntity
  8
100
  6
Continuous
 62
     7
370
    30
100
AcDbLine
 10
79.973437
 20
49.190625
 30
0.0
 11
82.695937
 21
43.68375
 31
0.0
  0
LINE
  5
28A
330
285
100
AcDbEntity
  8
100
  6
Continuous
 62
     7
370
    30
100
AcDbLine
 10
82.695937
 20
43.68375
 30
0.0
 11
85.789687
 21
39.414375
 31
0.0
  0
LINE
  5
28B
330
285
100
AcDbEntity
  8
100
  6
Continuous
 62
     7
370
    30
100
AcDbLine
 10
85.789687
 20
39.414375
 30
0.0
 11
88.635937
 21
35.701875
 31
0.0
  0
LINE
  5
28C
330
285
100
AcDbEntity
  8
100
  6
Continuous
 62
     7
370
    30
100
AcDbLine
 10
88.635937
 20
35.701875
 30
0.0
 11
91.977187
 21
32.360625
 31
0.0
  0
LINE
  5
28D
330
285
100
AcDbEntity
  8
100
  6
Continuous
 62
     7
370
    30
100
AcDbLine
 10
91.977187
 20
32.360625
 30
0.0
 11
94.637812
 21
30.195
 31
0.0
  0
LINE
  5
28E
330
285
100
AcDbEntity
  8
100
  6
Continuous
 62
     7
370
    30
100
AcDbLine
 10
94.637812
 20
30.195
 30
0.0
 11
96.308437
 21
28.71
 31
0.0
  0
LINE
  5
28F
330
285
100
AcDbEntity
  8
100
  6
Continuous
 62
     7
370
    30
100
AcDbLine
 10
96.308437
 20
28.71
 30
0.0
 11
98.721562
 21
27.225
 31
0.0
  0
LINE
  5
290
330
285
100
AcDbEntity
  8
100
  6
Continuous
 62
     7
370
    30
100
AcDbLine
 10
98.721562
 20
27.225
 30
0.0
 11
105.094687
 21
23.821875
 31
0.0
  0
LINE
  5
291
330
285
100
AcDbEntity
  8
100
  6
Continuous
 62
     7
370
    30
100
AcDbLine
 10
105.094687
 20
23.821875
 30
0.0
 11
109.611562
 21
22.15125
 31
0.0
  0
LINE
  5
292
330
285
100
AcDbEntity
  8
100
  6
Continuous
 62
     7
370
    30
100
AcDbLine
 10
109.611562
 20
22.15125
 30
0.0
 11
112.890937
 21
21.285
 31
0.0
  0
LINE
  5
293
330
285
100
AcDbEntity
  8
100
  6
Continuous
 62
     7
370
    30
100
AcDbLine
 10
112.890937
 20
21.285
 30
0.0
 11
116.727187
 21
20.851875
 31
0.0
  0
LINE
  5
294
330
285
100
AcDbEntity
  8
100
  6
Continuous
 62
     7
370
    30
100
AcDbLine
 10
116.727187
 20
20.851875
 30
0.0
 11
121.182187
 21
20.851875
 31
0.0
  0
LINE
  5
295
330
285
100
AcDbEntity
  8
100
  6
Continuous
 62
     7
370
    30
100
AcDbLine
 10
121.182187
 20
20.851875
 30
0.0
 11
126.008437
 21
20.975625
 31
0.0
  0
ENDBLK
  5
287
330
285
100
AcDbEntity
  8
0
100
AcDbBlockEnd
  0
BLOCK
  5
298
330
297
100
AcDbEntity
  8
0
100
AcDbBlockBegin
  2
G26
 70
     0
 10
0.0
 20
0.0
 30
0.0
  3
G26
  1

  0
LINE
  5
29A
330
297
100
AcDbEntity
  8
100
  6
Continuous
 62
     7
370
    30
100
AcDbLine
 10
105.094687
 20
23.821875
 30
0.0
 11
100.763437
 21
25.36875
 31
0.0
  0
LINE
  5
29B
330
297
100
AcDbEntity
  8
100
  6
Continuous
 62
     7
370
    30
100
AcDbLine
 10
100.763437
 20
25.36875
 30
0.0
 11
96.617812
 21
27.59625
 31
0.0
  0
LINE
  5
29C
330
297
100
AcDbEntity
  8
100
  6
Continuous
 62
     7
370
    30
100
AcDbLine
 10
96.617812
 20
27.59625
 30
0.0
 11
90.244687
 21
31.80375
 31
0.0
  0
LINE
  5
29D
330
297
100
AcDbEntity
  8
100
  6
Continuous
 62
     7
370
    30
100
AcDbLine
 10
90.244687
 20
31.80375
 30
0.0
 11
85.294687
 21
36.3825
 31
0.0
  0
LINE
  5
29E
330
297
100
AcDbEntity
  8
100
  6
Continuous
 62
     7
370
    30
100
AcDbLine
 10
85.294687
 20
36.3825
 30
0.0
 11
82.139062
 21
39.97125
 31
0.0
  0
LINE
  5
29F
330
297
100
AcDbEntity
  8
100
  6
Continuous
 62
     7
370
    30
100
AcDbLine
 10
82.139062
 20
39.97125
 30
0.0
 11
78.921562
 21
44.859375
 31
0.0
  0
LINE
  5
2A0
330
297
100
AcDbEntity
  8
100
  6
Continuous
 62
     7
370
    30
100
AcDbLine
 10
78.921562
 20
44.859375
 30
0.0
 11
75.951562
 21
50.7375
 31
0.0
  0
LINE
  5
2A1
330
297
100
AcDbEntity
  8
100
  6
Continuous
 62
     7
370
    30
100
AcDbLine
 10
75.951562
 20
50.7375
 30
0.0
 11
73.971562
 21
56.55375
 31
0.0
  0
LINE
  5
2A2
330
297
100
AcDbEntity
  8
100
  6
Continuous
 62
     7
370
    30
100
AcDbLine
 10
73.971562
 20
56.55375
 30
0.0
 11
72.857812
 21
61.875
 31
0.0
  0
LINE
  5
2A3
330
297
100
AcDbEntity
  8
100
  6
Continuous
 62
     7
370
    30
100
AcDbLine
 10
72.857812
 20
61.875
 30
0.0
 11
72.424687
 21
66.020625
 31
0.0
  0
LINE
  5
2A4
330
297
100
AcDbEntity
  8
100
  6
Continuous
 62
     7
370
    30
100
AcDbLine
 10
72.424687
 20
66.020625
 30
0.0
 11
72.362812
 21
67.505625
 31
0.0
  0
ENDBLK
  5
299
330
297
100
AcDbEntity
  8
0
100
AcDbBlockEnd
  0
BLOCK
  5
2A7
330
2A6
100
AcDbEntity
  8
0
100
AcDbBlockBegin
  2
G27
 70
     0
 10
0.0
 20
0.0
 30
0.0
  3
G27
  1

  0
LINE
  5
2A9
330
2A6
100
AcDbEntity
  8
100
  6
Continuous
 62
     7
370
    30
100
AcDbLine
 10
66.979687
 20
71.89875
 30
0.0
 11
68.093437
 21
64.040625
 31
0.0
  0
LINE
  5
2AA
330
2A6
100
AcDbEntity
  8
100
  6
Continuous
 62
     7
370
    30
100
AcDbLine
 10
68.093437
 20
64.040625
 30
0.0
 11
69.330937
 21
57.729375
 31
0.0
  0
LINE
  5
2AB
330
2A6
100
AcDbEntity
  8
100
  6
Continuous
 62
     7
370
    30
100
AcDbLine
 10
69.330937
 20
57.729375
 30
0.0
 11
70.630312
 21
52.779375
 31
0.0
  0
LINE
  5
2AC
330
2A6
100
AcDbEntity
  8
100
  6
Continuous
 62
     7
370
    30
100
AcDbLine
 10
70.630312
 20
52.779375
 30
0.0
 11
73.290937
 21
46.15875
 31
0.0
  0
LINE
  5
2AD
330
2A6
100
AcDbEntity
  8
100
  6
Continuous
 62
     7
370
    30
100
AcDbLine
 10
73.290937
 20
46.15875
 30
0.0
 11
76.632187
 21
40.3425
 31
0.0
  0
LINE
  5
2AE
330
2A6
100
AcDbEntity
  8
100
  6
Continuous
 62
     7
370
    30
100
AcDbLine
 10
76.632187
 20
40.3425
 30
0.0
 11
79.973437
 21
35.76375
 31
0.0
  0
LINE
  5
2AF
330
2A6
100
AcDbEntity
  8
100
  6
Continuous
 62
     7
370
    30
100
AcDbLine
 10
79.973437
 20
35.76375
 30
0.0
 11
83.500312
 21
31.68
 31
0.0
  0
LINE
  5
2B0
330
2A6
100
AcDbEntity
  8
100
  6
Continuous
 62
     7
370
    30
100
AcDbLine
 10
83.500312
 20
31.68
 30
0.0
 11
88.079062
 21
27.658125
 31
0.0
  0
LINE
  5
2B1
330
2A6
100
AcDbEntity
  8
100
  6
Continuous
 62
     7
370
    30
100
AcDbLine
 10
88.079062
 20
27.658125
 30
0.0
 11
92.472187
 21
24.440625
 31
0.0
  0
LINE
  5
2B2
330
2A6
100
AcDbEntity
  8
100
  6
Continuous
 62
     7
370
    30
100
AcDbLine
 10
92.472187
 20
24.440625
 30
0.0
 11
96.803437
 21
22.15125
 31
0.0
  0
LINE
  5
2B3
330
2A6
100
AcDbEntity
  8
100
  6
Continuous
 62
     7
370
    30
100
AcDbLine
 10
96.803437
 20
22.15125
 30
0.0
 11
101.072812
 21
20.109375
 31
0.0
  0
LINE
  5
2B4
330
2A6
100
AcDbEntity
  8
100
  6
Continuous
 62
     7
370
    30
100
AcDbLine
 10
101.072812
 20
20.109375
 30
0.0
 11
105.899062
 21
18.624375
 31
0.0
  0
LINE
  5
2B5
330
2A6
100
AcDbEntity
  8
100
  6
Continuous
 62
     7
370
    30
100
AcDbLine
 10
105.899062
 20
18.624375
 30
0.0
 11
108.312187
 21
18.129375
 31
0.0
  0
LINE
  5
2B6
330
2A6
100
AcDbEntity
  8
100
  6
Continuous
 62
     7
370
    30
100
AcDbLine
 10
108.312187
 20
18.129375
 30
0.0
 11
110.415937
 21
18.253125
 31
0.0
  0
LINE
  5
2B7
330
2A6
100
AcDbEntity
  8
100
  6
Continuous
 62
     7
370
    30
100
AcDbLine
 10
110.415937
 20
18.253125
 30
0.0
 11
112.890937
 21
18.81
 31
0.0
  0
LINE
  5
2B8
330
2A6
100
AcDbEntity
  8
100
  6
Continuous
 62
     7
370
    30
100
AcDbLine
 10
112.890937
 20
18.81
 30
0.0
 11
115.180312
 21
19.5525
 31
0.0
  0
LINE
  5
2B9
330
2A6
100
AcDbEntity
  8
100
  6
Continuous
 62
     7
370
    30
100
AcDbLine
 10
115.180312
 20
19.5525
 30
0.0
 11
117.036562
 21
20.109375
 31
0.0
  0
LINE
  5
2BA
330
2A6
100
AcDbEntity
  8
100
  6
Continuous
 62
     7
370
    30
100
AcDbLine
 10
117.036562
 20
20.109375
 30
0.0
 11
119.264062
 21
20.851875
 31
0.0
  0
LINE
  5
2BB
330
2A6
100
AcDbEntity
  8
100
  6
Continuous
 62
     7
370
    30
100
AcDbLine
 10
119.264062
 20
20.851875
 30
0.0
 11
119.820937
 21
18.5625
 31
0.0
  0
LINE
  5
2BC
330
2A6
100
AcDbEntity
  8
100
  6
Continuous
 62
     7
370
    30
100
AcDbLine
 10
119.820937
 20
18.5625
 30
0.0
 11
120.315937
 21
16.70625
 31
0.0
  0
LINE
  5
2BD
330
2A6
100
AcDbEntity
  8
100
  6
Continuous
 62
     7
370
    30
100
AcDbLine
 10
120.315937
 20
16.70625
 30
0.0
 11
121.615312
 21
13.179375
 31
0.0
  0
LINE
  5
2BE
330
2A6
100
AcDbEntity
  8
100
  6
Continuous
 62
     7
370
    30
100
AcDbLine
 10
121.615312
 20
13.179375
 30
0.0
 11
122.729062
 21
11.01375
 31
0.0
  0
LINE
  5
2BF
330
2A6
100
AcDbEntity
  8
100
  6
Continuous
 62
     7
370
    30
100
AcDbLine
 10
122.729062
 20
11.01375
 30
0.0
 11
123.409687
 21
10.209375
 31
0.0
  0
LINE
  5
2C0
330
2A6
100
AcDbEntity
  8
100
  6
Continuous
 62
     7
370
    30
100
AcDbLine
 10
123.409687
 20
10.209375
 30
0.0
 11
124.028437
 21
11.075625
 31
0.0
  0
LINE
  5
2C1
330
2A6
100
AcDbEntity
  8
100
  6
Continuous
 62
     7
370
    30
100
AcDbLine
 10
124.028437
 20
11.075625
 30
0.0
 11
124.770937
 21
13.365
 31
0.0
  0
LINE
  5
2C2
330
2A6
100
AcDbEntity
  8
100
  6
Continuous
 62
     7
370
    30
100
AcDbLine
 10
124.770937
 20
13.365
 30
0.0
 11
125.637187
 21
18.005625
 31
0.0
  0
LINE
  5
2C3
330
2A6
100
AcDbEntity
  8
100
  6
Continuous
 62
     7
370
    30
100
AcDbLine
 10
125.637187
 20
18.005625
 30
0.0
 11
126.070312
 21
21.965625
 31
0.0
  0
LINE
  5
2C4
330
2A6
100
AcDbEntity
  8
100
  6
Continuous
 62
     7
370
    30
100
AcDbLine
 10
126.070312
 20
21.965625
 30
0.0
 11
126.750937
 21
29.390625
 31
0.0
  0
LINE
  5
2C5
330
2A6
100
AcDbEntity
  8
100
  6
Continuous
 62
     7
370
    30
100
AcDbLine
 10
126.750937
 20
29.390625
 30
0.0
 11
126.812812
 21
34.835625
 31
0.0
  0
LINE
  5
2C6
330
2A6
100
AcDbEntity
  8
100
  6
Continuous
 62
     7
370
    30
100
AcDbLine
 10
126.812812
 20
34.835625
 30
0.0
 11
127.307812
 21
43.18875
 31
0.0
  0
LINE
  5
2C7
330
2A6
100
AcDbEntity
  8
100
  6
Continuous
 62
     7
370
    30
100
AcDbLine
 10
127.307812
 20
43.18875
 30
0.0
 11
127.369687
 21
48.7575
 31
0.0
  0
LINE
  5
2C8
330
2A6
100
AcDbEntity
  8
100
  6
Continuous
 62
     7
370
    30
100
AcDbLine
 10
127.369687
 20
48.7575
 30
0.0
 11
127.493437
 21
54.511875
 31
0.0
  0
LINE
  5
2C9
330
2A6
100
AcDbEntity
  8
100
  6
Continuous
 62
     7
370
    30
100
AcDbLine
 10
127.493437
 20
54.511875
 30
0.0
 11
134.423437
 21
54.883125
 31
0.0
  0
LINE
  5
2CA
330
2A6
100
AcDbEntity
  8
100
  6
Continuous
 62
     7
370
    30
100
AcDbLine
 10
134.423437
 20
54.883125
 30
0.0
 11
142.405312
 21
55.81125
 31
0.0
  0
LINE
  5
2CB
330
2A6
100
AcDbEntity
  8
100
  6
Continuous
 62
     7
370
    30
100
AcDbLine
 10
142.405312
 20
55.81125
 30
0.0
 11
150.882187
 21
57.54375
 31
0.0
  0
LINE
  5
2CC
330
2A6
100
AcDbEntity
  8
100
  6
Continuous
 62
     7
370
    30
100
AcDbLine
 10
150.882187
 20
57.54375
 30
0.0
 11
155.894062
 21
58.843125
 31
0.0
  0
LINE
  5
2CD
330
2A6
100
AcDbEntity
  8
100
  6
Continuous
 62
     7
370
    30
100
AcDbLine
 10
155.894062
 20
58.843125
 30
0.0
 11
163.628437
 21
61.813125
 31
0.0
  0
LINE
  5
2CE
330
2A6
100
AcDbEntity
  8
100
  6
Continuous
 62
     7
370
    30
100
AcDbLine
 10
163.628437
 20
61.813125
 30
0.0
 11
167.340937
 21
64.040625
 31
0.0
  0
LINE
  5
2CF
330
2A6
100
AcDbEntity
  8
100
  6
Continuous
 62
     7
370
    30
100
AcDbLine
 10
167.340937
 20
64.040625
 30
0.0
 11
171.115312
 21
66.33
 31
0.0
  0
LINE
  5
2D0
330
2A6
100
AcDbEntity
  8
100
  6
Continuous
 62
     7
370
    30
100
AcDbLine
 10
171.115312
 20
66.33
 30
0.0
 11
176.189062
 21
70.970625
 31
0.0
  0
LINE
  5
2D1
330
2A6
100
AcDbEntity
  8
100
  6
Continuous
 62
     7
370
    30
100
AcDbLine
 10
176.189062
 20
70.970625
 30
0.0
 11
179.468437
 21
75.425625
 31
0.0
  0
LINE
  5
2D2
330
2A6
100
AcDbEntity
  8
100
  6
Continuous
 62
     7
370
    30
100
AcDbLine
 10
179.468437
 20
75.425625
 30
0.0
 11
181.634062
 21
80.31375
 31
0.0
  0
LINE
  5
2D3
330
2A6
100
AcDbEntity
  8
100
  6
Continuous
 62
     7
370
    30
100
AcDbLine
 10
181.634062
 20
80.31375
 30
0.0
 11
181.819687
 21
85.01625
 31
0.0
  0
LINE
  5
2D4
330
2A6
100
AcDbEntity
  8
100
  6
Continuous
 62
     7
370
    30
100
AcDbLine
 10
181.819687
 20
85.01625
 30
0.0
 11
180.582187
 21
89.595
 31
0.0
  0
LINE
  5
2D5
330
2A6
100
AcDbEntity
  8
100
  6
Continuous
 62
     7
370
    30
100
AcDbLine
 10
180.582187
 20
89.595
 30
0.0
 11
178.292812
 21
93.740625
 31
0.0
  0
LINE
  5
2D6
330
2A6
100
AcDbEntity
  8
100
  6
Continuous
 62
     7
370
    30
100
AcDbLine
 10
178.292812
 20
93.740625
 30
0.0
 11
175.199062
 21
97.576875
 31
0.0
  0
LINE
  5
2D7
330
2A6
100
AcDbEntity
  8
100
  6
Continuous
 62
     7
370
    30
100
AcDbLine
 10
175.199062
 20
97.576875
 30
0.0
 11
172.084435
 21
100.301329
 31
0.0
  0
ENDBLK
  5
2A8
330
2A6
100
AcDbEntity
  8
0
100
AcDbBlockEnd
  0
BLOCK
  5
2DA
330
2D9
100
AcDbEntity
  8
0
100
AcDbBlockBegin
  2
G28
 70
     0
 10
0.0
 20
0.0
 30
0.0
  3
G28
  1

  0
LINE
  5
2DC
330
2D9
100
AcDbEntity
  8
100
  6
Continuous
 62
     7
370
    30
100
AcDbLine
 10
115.668501
 20
19.698956
 30
0.0
 11
115.799062
 21
17.20125
 31
0.0
  0
LINE
  5
2DD
330
2D9
100
AcDbEntity
  8
100
  6
Continuous
 62
     7
370
    30
100
AcDbLine
 10
115.799062
 20
17.20125
 30
0.0
 11
116.789062
 21
13.365
 31
0.0
  0
LINE
  5
2DE
330
2D9
100
AcDbEntity
  8
100
  6
Continuous
 62
     7
370
    30
100
AcDbLine
 10
116.789062
 20
13.365
 30
0.0
 11
118.521562
 21
9.466875
 31
0.0
  0
LINE
  5
2DF
330
2D9
100
AcDbEntity
  8
100
  6
Continuous
 62
     7
370
    30
100
AcDbLine
 10
118.521562
 20
9.466875
 30
0.0
 11
120.192187
 21
6.125625
 31
0.0
  0
LINE
  5
2E0
330
2D9
100
AcDbEntity
  8
100
  6
Continuous
 62
     7
370
    30
100
AcDbLine
 10
120.192187
 20
6.125625
 30
0.0
 11
122.110312
 21
4.516875
 31
0.0
  0
LINE
  5
2E1
330
2D9
100
AcDbEntity
  8
100
  6
Continuous
 62
     7
370
    30
100
AcDbLine
 10
122.110312
 20
4.516875
 30
0.0
 11
124.585312
 21
3.83625
 31
0.0
  0
LINE
  5
2E2
330
2D9
100
AcDbEntity
  8
100
  6
Continuous
 62
     7
370
    30
100
AcDbLine
 10
124.585312
 20
3.83625
 30
0.0
 11
126.317812
 21
4.640625
 31
0.0
  0
LINE
  5
2E3
330
2D9
100
AcDbEntity
  8
100
  6
Continuous
 62
     7
370
    30
100
AcDbLine
 10
126.317812
 20
4.640625
 30
0.0
 11
128.359687
 21
7.486875
 31
0.0
  0
LINE
  5
2E4
330
2D9
100
AcDbEntity
  8
100
  6
Continuous
 62
     7
370
    30
100
AcDbLine
 10
128.359687
 20
7.486875
 30
0.0
 11
129.720937
 21
10.580625
 31
0.0
  0
LINE
  5
2E5
330
2D9
100
AcDbEntity
  8
100
  6
Continuous
 62
     7
370
    30
100
AcDbLine
 10
129.720937
 20
10.580625
 30
0.0
 11
130.772812
 21
15.0975
 31
0.0
  0
LINE
  5
2E6
330
2D9
100
AcDbEntity
  8
100
  6
Continuous
 62
     7
370
    30
100
AcDbLine
 10
130.772812
 20
15.0975
 30
0.0
 11
131.577187
 21
21.223125
 31
0.0
  0
LINE
  5
2E7
330
2D9
100
AcDbEntity
  8
100
  6
Continuous
 62
     7
370
    30
100
AcDbLine
 10
131.577187
 20
21.223125
 30
0.0
 11
132.257812
 21
29.019375
 31
0.0
  0
LINE
  5
2E8
330
2D9
100
AcDbEntity
  8
100
  6
Continuous
 62
     7
370
    30
100
AcDbLine
 10
132.257812
 20
29.019375
 30
0.0
 11
132.814687
 21
38.8575
 31
0.0
  0
LINE
  5
2E9
330
2D9
100
AcDbEntity
  8
100
  6
Continuous
 62
     7
370
    30
100
AcDbLine
 10
132.814687
 20
38.8575
 30
0.0
 11
133.247812
 21
50.61375
 31
0.0
  0
LINE
  5
2EA
330
2D9
100
AcDbEntity
  8
100
  6
Continuous
 62
     7
370
    30
100
AcDbLine
 10
133.247812
 20
50.61375
 30
0.0
 11
133.247812
 21
54.6975
 31
0.0
  0
ENDBLK
  5
2DB
330
2D9
100
AcDbEntity
  8
0
100
AcDbBlockEnd
  0
BLOCK
  5
2ED
330
2EC
100
AcDbEntity
  8
0
100
AcDbBlockBegin
  2
G29
 70
     0
 10
0.0
 20
0.0
 30
0.0
  3
G29
  1

  0
LINE
  5
2EF
330
2EC
100
AcDbEntity
  8
100
  6
Continuous
 62
     7
370
    30
100
AcDbLine
 10
135.165937
 20
21.16125
 30
0.0
 11
138.878437
 21
22.955625
 31
0.0
  0
LINE
  5
2F0
330
2EC
100
AcDbEntity
  8
100
  6
Continuous
 62
     7
370
    30
100
AcDbLine
 10
138.878437
 20
22.955625
 30
0.0
 11
142.405312
 21
25.183125
 31
0.0
  0
LINE
  5
2F1
330
2EC
100
AcDbEntity
  8
100
  6
Continuous
 62
     7
370
    30
100
AcDbLine
 10
142.405312
 20
25.183125
 30
0.0
 11
147.974062
 21
29.205
 31
0.0
  0
LINE
  5
2F2
330
2EC
100
AcDbEntity
  8
100
  6
Continuous
 62
     7
370
    30
100
AcDbLine
 10
147.974062
 20
29.205
 30
0.0
 11
152.614687
 21
33.226875
 31
0.0
  0
LINE
  5
2F3
330
2EC
100
AcDbEntity
  8
100
  6
Continuous
 62
     7
370
    30
100
AcDbLine
 10
152.614687
 20
33.226875
 30
0.0
 11
157.255312
 21
38.424375
 31
0.0
  0
LINE
  5
2F4
330
2EC
100
AcDbEntity
  8
100
  6
Continuous
 62
     7
370
    30
100
AcDbLine
 10
157.255312
 20
38.424375
 30
0.0
 11
162.205312
 21
45.478125
 31
0.0
  0
LINE
  5
2F5
330
2EC
100
AcDbEntity
  8
100
  6
Continuous
 62
     7
370
    30
100
AcDbLine
 10
162.205312
 20
45.478125
 30
0.0
 11
165.855937
 21
52.531875
 31
0.0
  0
LINE
  5
2F6
330
2EC
100
AcDbEntity
  8
100
  6
Continuous
 62
     7
370
    30
100
AcDbLine
 10
165.855937
 20
52.531875
 30
0.0
 11
167.897812
 21
58.348125
 31
0.0
  0
LINE
  5
2F7
330
2EC
100
AcDbEntity
  8
100
  6
Continuous
 62
     7
370
    30
100
AcDbLine
 10
167.897812
 20
58.348125
 30
0.0
 11
169.197187
 21
62.865
 31
0.0
  0
LINE
  5
2F8
330
2EC
100
AcDbEntity
  8
100
  6
Continuous
 62
     7
370
    30
100
AcDbLine
 10
169.197187
 20
62.865
 30
0.0
 11
169.506562
 21
65.401875
 31
0.0
  0
ENDBLK
  5
2EE
330
2EC
100
AcDbEntity
  8
0
100
AcDbBlockEnd
  0
BLOCK
  5
2FB
330
2FA
100
AcDbEntity
  8
0
100
AcDbBlockBegin
  2
G30
 70
     0
 10
0.0
 20
0.0
 30
0.0
  3
G30
  1

  0
LINE
  5
2FD
330
2FA
100
AcDbEntity
  8
100
  6
Continuous
 62
     7
370
    30
100
AcDbLine
 10
164.185312
 20
62.060625
 30
0.0
 11
163.628437
 21
58.41
 31
0.0
  0
LINE
  5
2FE
330
2FA
100
AcDbEntity
  8
100
  6
Continuous
 62
     7
370
    30
100
AcDbLine
 10
163.628437
 20
58.41
 30
0.0
 11
162.638437
 21
54.016875
 31
0.0
  0
LINE
  5
2FF
330
2FA
100
AcDbEntity
  8
100
  6
Continuous
 62
     7
370
    30
100
AcDbLine
 10
162.638437
 20
54.016875
 30
0.0
 11
161.091562
 21
49.995
 31
0.0
  0
LINE
  5
300
330
2FA
100
AcDbEntity
  8
100
  6
Continuous
 62
     7
370
    30
100
AcDbLine
 10
161.091562
 20
49.995
 30
0.0
 11
159.297187
 21
45.66375
 31
0.0
  0
LINE
  5
301
330
2FA
100
AcDbEntity
  8
100
  6
Continuous
 62
     7
370
    30
100
AcDbLine
 10
159.297187
 20
45.66375
 30
0.0
 11
157.317187
 21
41.95125
 31
0.0
  0
LINE
  5
302
330
2FA
100
AcDbEntity
  8
100
  6
Continuous
 62
     7
370
    30
100
AcDbLine
 10
157.317187
 20
41.95125
 30
0.0
 11
154.965937
 21
38.424375
 31
0.0
  0
LINE
  5
303
330
2FA
100
AcDbEntity
  8
100
  6
Continuous
 62
     7
370
    30
100
AcDbLine
 10
154.965937
 20
38.424375
 30
0.0
 11
152.119687
 21
35.083125
 31
0.0
  0
LINE
  5
304
330
2FA
100
AcDbEntity
  8
100
  6
Continuous
 62
     7
370
    30
100
AcDbLine
 10
152.119687
 20
35.083125
 30
0.0
 11
149.025937
 21
31.741875
 31
0.0
  0
LINE
  5
305
330
2FA
100
AcDbEntity
  8
100
  6
Continuous
 62
     7
370
    30
100
AcDbLine
 10
149.025937
 20
31.741875
 30
0.0
 11
145.375312
 21
28.71
 31
0.0
  0
LINE
  5
306
330
2FA
100
AcDbEntity
  8
100
  6
Continuous
 62
     7
370
    30
100
AcDbLine
 10
145.375312
 20
28.71
 30
0.0
 11
142.034062
 21
26.544375
 31
0.0
  0
LINE
  5
307
330
2FA
100
AcDbEntity
  8
100
  6
Continuous
 62
     7
370
    30
100
AcDbLine
 10
142.034062
 20
26.544375
 30
0.0
 11
137.640937
 21
24.193125
 31
0.0
  0
LINE
  5
308
330
2FA
100
AcDbEntity
  8
100
  6
Continuous
 62
     7
370
    30
100
AcDbLine
 10
137.640937
 20
24.193125
 30
0.0
 11
133.062187
 21
22.5225
 31
0.0
  0
LINE
  5
309
330
2FA
100
AcDbEntity
  8
100
  6
Continuous
 62
     7
370
    30
100
AcDbLine
 10
133.062187
 20
22.5225
 30
0.0
 11
131.654581
 21
22.109627
 31
0.0
  0
ENDBLK
  5
2FC
330
2FA
100
AcDbEntity
  8
0
100
AcDbBlockEnd
  0
BLOCK
  5
30C
330
30B
100
AcDbEntity
  8
0
100
AcDbBlockBegin
  2
G31
 70
     0
 10
0.0
 20
0.0
 30
0.0
  3
G31
  1

  0
LINE
  5
30E
330
30B
100
AcDbEntity
  8
100
  6
Continuous
 62
     7
370
    30
100
AcDbLine
 10
167.155312
 20
132.103125
 30
0.0
 11
167.712187
 21
111.74625
 31
0.0
  0
LINE
  5
30F
330
30B
100
AcDbEntity
  8
100
  6
Continuous
 62
     7
370
    30
100
AcDbLine
 10
167.712187
 20
111.74625
 30
0.0
 11
168.083437
 21
95.41125
 31
0.0
  0
LINE
  5
310
330
30B
100
AcDbEntity
  8
100
  6
Continuous
 62
     7
370
    30
100
AcDbLine
 10
168.083437
 20
95.41125
 30
0.0
 11
167.217187
 21
83.9025
 31
0.0
  0
LINE
  5
311
330
30B
100
AcDbEntity
  8
100
  6
Continuous
 62
     7
370
    30
100
AcDbLine
 10
167.217187
 20
83.9025
 30
0.0
 11
166.474687
 21
74.25
 31
0.0
  0
LINE
  5
312
330
30B
100
AcDbEntity
  8
100
  6
Continuous
 62
     7
370
    30
100
AcDbLine
 10
166.474687
 20
74.25
 30
0.0
 11
166.227187
 21
71.89875
 31
0.0
  0
ENDBLK
  5
30D
330
30B
100
AcDbEntity
  8
0
100
AcDbBlockEnd
  0
BLOCK
  5
315
330
314
100
AcDbEntity
  8
0
100
AcDbBlockBegin
  2
G32
 70
     0
 10
0.0
 20
0.0
 30
0.0
  3
G32
  1

  0
LINE
  5
317
330
314
100
AcDbEntity
  8
100
  6
Continuous
 62
     7
370
    30
100
AcDbLine
 10
170.805937
 20
76.23
 30
0.0
 11
172.167187
 21
92.44125
 31
0.0
  0
LINE
  5
318
330
314
100
AcDbEntity
  8
100
  6
Continuous
 62
     7
370
    30
100
AcDbLine
 10
172.167187
 20
92.44125
 30
0.0
 11
172.043437
 21
97.2675
 31
0.0
  0
LINE
  5
319
330
314
100
AcDbEntity
  8
100
  6
Continuous
 62
     7
370
    30
100
AcDbLine
 10
172.043437
 20
97.2675
 30
0.0
 11
172.167187
 21
106.425
 31
0.0
  0
LINE
  5
31A
330
314
100
AcDbEntity
  8
100
  6
Continuous
 62
     7
370
    30
100
AcDbLine
 10
172.167187
 20
106.425
 30
0.0
 11
172.043437
 21
134.02125
 31
0.0
  0
ENDBLK
  5
316
330
314
100
AcDbEntity
  8
0
100
AcDbBlockEnd
  0
BLOCK
  5
31D
330
31C
100
AcDbEntity
  8
0
100
AcDbBlockBegin
  2
G33
 70
     0
 10
0.0
 20
0.0
 30
0.0
  3
G33
  1

  0
LINE
  5
31F
330
31C
100
AcDbEntity
  8
100
  6
Continuous
 62
     7
370
    30
100
AcDbLine
 10
127.493437
 20
54.511875
 30
0.0
 11
116.541562
 21
54.57375
 31
0.0
  0
LINE
  5
320
330
31C
100
AcDbEntity
  8
100
  6
Continuous
 62
     7
370
    30
100
AcDbLine
 10
116.541562
 20
54.57375
 30
0.0
 11
108.869062
 21
55.1925
 31
0.0
  0
LINE
  5
321
330
31C
100
AcDbEntity
  8
100
  6
Continuous
 62
     7
370
    30
100
AcDbLine
 10
108.869062
 20
55.1925
 30
0.0
 11
98.659687
 21
56.986875
 31
0.0
  0
LINE
  5
322
330
31C
100
AcDbEntity
  8
100
  6
Continuous
 62
     7
370
    30
100
AcDbLine
 10
98.659687
 20
56.986875
 30
0.0
 11
89.316562
 21
59.461875
 31
0.0
  0
LINE
  5
323
330
31C
100
AcDbEntity
  8
100
  6
Continuous
 62
     7
370
    30
100
AcDbLine
 10
89.316562
 20
59.461875
 30
0.0
 11
80.592187
 21
62.926875
 31
0.0
  0
LINE
  5
324
330
31C
100
AcDbEntity
  8
100
  6
Continuous
 62
     7
370
    30
100
AcDbLine
 10
80.592187
 20
62.926875
 30
0.0
 11
75.085312
 21
66.0825
 31
0.0
  0
LINE
  5
325
330
31C
100
AcDbEntity
  8
100
  6
Continuous
 62
     7
370
    30
100
AcDbLine
 10
75.085312
 20
66.0825
 30
0.0
 11
70.754062
 21
68.68125
 31
0.0
  0
LINE
  5
326
330
31C
100
AcDbEntity
  8
100
  6
Continuous
 62
     7
370
    30
100
AcDbLine
 10
70.754062
 20
68.68125
 30
0.0
 11
66.670312
 21
72.455625
 31
0.0
  0
LINE
  5
327
330
31C
100
AcDbEntity
  8
100
  6
Continuous
 62
     7
370
    30
100
AcDbLine
 10
66.670312
 20
72.455625
 30
0.0
 11
63.019687
 21
77.405625
 31
0.0
  0
LINE
  5
328
330
31C
100
AcDbEntity
  8
100
  6
Continuous
 62
     7
370
    30
100
AcDbLine
 10
63.019687
 20
77.405625
 30
0.0
 11
60.792187
 21
82.355625
 31
0.0
  0
LINE
  5
329
330
31C
100
AcDbEntity
  8
100
  6
Continuous
 62
     7
370
    30
100
AcDbLine
 10
60.792187
 20
82.355625
 30
0.0
 11
60.235312
 21
86.74875
 31
0.0
  0
LINE
  5
32A
330
31C
100
AcDbEntity
  8
100
  6
Continuous
 62
     7
370
    30
100
AcDbLine
 10
60.235312
 20
86.74875
 30
0.0
 11
60.730312
 21
91.3275
 31
0.0
  0
LINE
  5
32B
330
31C
100
AcDbEntity
  8
100
  6
Continuous
 62
     7
370
    30
100
AcDbLine
 10
60.730312
 20
91.3275
 30
0.0
 11
62.339062
 21
94.91625
 31
0.0
  0
LINE
  5
32C
330
31C
100
AcDbEntity
  8
100
  6
Continuous
 62
     7
370
    30
100
AcDbLine
 10
62.339062
 20
94.91625
 30
0.0
 11
64.984888
 21
98.442436
 31
0.0
  0
ENDBLK
  5
31E
330
31C
100
AcDbEntity
  8
0
100
AcDbBlockEnd
  0
BLOCK
  5
32F
330
32E
100
AcDbEntity
  8
0
100
AcDbBlockBegin
  2
G34
 70
     0
 10
0.0
 20
0.0
 30
0.0
  3
G34
  1

  0
LINE
  5
331
330
32E
100
AcDbEntity
  8
100
  6
Continuous
 62
     7
370
    30
100
AcDbLine
 10
164.370937
 20
71.28
 30
0.0
 11
168.825937
 21
73.63125
 31
0.0
  0
LINE
  5
332
330
32E
100
AcDbEntity
  8
100
  6
Continuous
 62
     7
370
    30
100
AcDbLine
 10
168.825937
 20
73.63125
 30
0.0
 11
172.167187
 21
76.84875
 31
0.0
  0
LINE
  5
333
330
32E
100
AcDbEntity
  8
100
  6
Continuous
 62
     7
370
    30
100
AcDbLine
 10
172.167187
 20
76.84875
 30
0.0
 11
175.384687
 21
80.80875
 31
0.0
  0
LINE
  5
334
330
32E
100
AcDbEntity
  8
100
  6
Continuous
 62
     7
370
    30
100
AcDbLine
 10
175.384687
 20
80.80875
 30
0.0
 11
176.003437
 21
85.14
 31
0.0
  0
LINE
  5
335
330
32E
100
AcDbEntity
  8
100
  6
Continuous
 62
     7
370
    30
100
AcDbLine
 10
176.003437
 20
85.14
 30
0.0
 11
174.518437
 21
90.585
 31
0.0
  0
LINE
  5
336
330
32E
100
AcDbEntity
  8
100
  6
Continuous
 62
     7
370
    30
100
AcDbLine
 10
174.518437
 20
90.585
 30
0.0
 11
172.167187
 21
92.44125
 31
0.0
  0
ENDBLK
  5
330
330
32E
100
AcDbEntity
  8
0
100
AcDbBlockEnd
  0
BLOCK
  5
339
330
338
100
AcDbEntity
  8
0
100
AcDbBlockBegin
  2
G35
 70
     0
 10
0.0
 20
0.0
 30
0.0
  3
G35
  1

  0
LINE
  5
33B
330
338
100
AcDbEntity
  8
100
  6
Continuous
 62
     7
370
    30
100
AcDbLine
 10
128.603664
 20
126.038274
 30
0.0
 11
128.359687
 21
98.13375
 31
0.0
  0
LINE
  5
33C
330
338
100
AcDbEntity
  8
100
  6
Continuous
 62
     7
370
    30
100
AcDbLine
 10
128.359687
 20
98.13375
 30
0.0
 11
127.623918
 21
62.786849
 31
0.0
  0
ENDBLK
  5
33A
330
338
100
AcDbEntity
  8
0
100
AcDbBlockEnd
  0
BLOCK
  5
33F
330
33E
100
AcDbEntity
  8
0
100
AcDbBlockBegin
  2
G36
 70
     0
 10
0.0
 20
0.0
 30
0.0
  3
G36
  1

  0
LINE
  5
341
330
33E
100
AcDbEntity
  8
100
  6
Continuous
 62
     7
370
    30
100
AcDbLine
 10
133.680937
 20
62.98875
 30
0.0
 11
133.804687
 21
89.71875
 31
0.0
  0
LINE
  5
342
330
33E
100
AcDbEntity
  8
100
  6
Continuous
 62
     7
370
    30
100
AcDbLine
 10
133.804687
 20
89.71875
 30
0.0
 11
134.291398
 21
126.367998
 31
0.0
  0
ENDBLK
  5
340
330
33E
100
AcDbEntity
  8
0
100
AcDbBlockEnd
  0
ENDSEC
  0
SECTION
  2
ENTITIES
  0
INSERT
  5
344
330
1F
100
AcDbEntity
  8
0
100
AcDbBlockReference
  2
G1
 10
0.0
 20
0.0
 30
0.0
  0
LINE
  5
345
330
1F
100
AcDbEntity
  8
101
  6
Continuous
 62
     7
370
    30
100
AcDbLine
 10
133.804687
 20
89.71875
 30
0.0
 11
134.291398
 21
126.367998
 31
0.0
  0
LINE
  5
346
330
1F
100
AcDbEntity
  8
101
  6
Continuous
 62
     7
370
    30
100
AcDbLine
 10
133.680937
 20
62.98875
 30
0.0
 11
133.804687
 21
89.71875
 31
0.0
  0
LINE
  5
347
330
1F
100
AcDbEntity
  8
101
  6
Continuous
 62
     7
370
    30
100
AcDbLine
 10
128.359687
 20
98.13375
 30
0.0
 11
127.623918
 21
62.786849
 31
0.0
  0
LINE
  5
348
330
1F
100
AcDbEntity
  8
101
  6
Continuous
 62
     7
370
    30
100
AcDbLine
 10
128.603664
 20
126.038274
 30
0.0
 11
128.359687
 21
98.13375
 31
0.0
  0
LINE
  5
349
330
1F
100
AcDbEntity
  8
101
  6
Continuous
 62
     7
370
    30
100
AcDbLine
 10
174.518437
 20
90.585
 30
0.0
 11
172.167187
 21
92.44125
 31
0.0
  0
LINE
  5
34A
330
1F
100
AcDbEntity
  8
101
  6
Continuous
 62
     7
370
    30
100
AcDbLine
 10
176.003437
 20
85.14
 30
0.0
 11
174.518437
 21
90.585
 31
0.0
  0
LINE
  5
34B
330
1F
100
AcDbEntity
  8
101
  6
Continuous
 62
     7
370
    30
100
AcDbLine
 10
175.384687
 20
80.80875
 30
0.0
 11
176.003437
 21
85.14
 31
0.0
  0
LINE
  5
34C
330
1F
100
AcDbEntity
  8
101
  6
Continuous
 62
     7
370
    30
100
AcDbLine
 10
172.167187
 20
76.84875
 30
0.0
 11
175.384687
 21
80.80875
 31
0.0
  0
LINE
  5
34D
330
1F
100
AcDbEntity
  8
101
  6
Continuous
 62
     7
370
    30
100
AcDbLine
 10
168.825937
 20
73.63125
 30
0.0
 11
172.167187
 21
76.84875
 31
0.0
  0
LINE
  5
34E
330
1F
100
AcDbEntity
  8
101
  6
Continuous
 62
     7
370
    30
100
AcDbLine
 10
164.370937
 20
71.28
 30
0.0
 11
168.825937
 21
73.63125
 31
0.0
  0
LINE
  5
34F
330
1F
100
AcDbEntity
  8
101
  6
Continuous
 62
     7
370
    30
100
AcDbLine
 10
153.975937
 20
66.94875
 30
0.0
 11
164.370937
 21
71.28
 31
0.0
  0
LINE
  5
350
330
1F
100
AcDbEntity
  8
101
  6
Continuous
 62
     7
370
    30
100
AcDbLine
 10
143.457187
 20
64.47375
 30
0.0
 11
153.975937
 21
66.94875
 31
0.0
  0
LINE
  5
351
330
1F
100
AcDbEntity
  8
101
  6
Continuous
 62
     7
370
    30
100
AcDbLine
 10
133.680937
 20
62.98875
 30
0.0
 11
143.457187
 21
64.47375
 31
0.0
  0
LINE
  5
352
330
1F
100
AcDbEntity
  8
101
  6
Continuous
 62
     7
370
    30
100
AcDbLine
 10
126.255937
 20
62.74125
 30
0.0
 11
133.680937
 21
62.98875
 31
0.0
  0
LINE
  5
353
330
1F
100
AcDbEntity
  8
101
  6
Continuous
 62
     7
370
    30
100
AcDbLine
 10
118.459687
 20
62.6175
 30
0.0
 11
126.255937
 21
62.74125
 31
0.0
  0
LINE
  5
354
330
1F
100
AcDbEntity
  8
101
  6
Continuous
 62
     7
370
    30
100
AcDbLine
 10
109.673437
 20
63.855
 30
0.0
 11
118.459687
 21
62.6175
 31
0.0
  0
LINE
  5
355
330
1F
100
AcDbEntity
  8
101
  6
Continuous
 62
     7
370
    30
100
AcDbLine
 10
97.793437
 20
65.46375
 30
0.0
 11
109.673437
 21
63.855
 31
0.0
  0
LINE
  5
356
330
1F
100
AcDbEntity
  8
101
  6
Continuous
 62
     7
370
    30
100
AcDbLine
 10
87.645937
 20
68.5575
 30
0.0
 11
97.793437
 21
65.46375
 31
0.0
  0
LINE
  5
357
330
1F
100
AcDbEntity
  8
101
  6
Continuous
 62
     7
370
    30
100
AcDbLine
 10
77.127187
 20
73.63125
 30
0.0
 11
87.645937
 21
68.5575
 31
0.0
  0
LINE
  5
358
330
1F
100
AcDbEntity
  8
101
  6
Continuous
 62
     7
370
    30
100
AcDbLine
 10
72.919687
 20
76.10625
 30
0.0
 11
77.127187
 21
73.63125
 31
0.0
  0
LINE
  5
359
330
1F
100
AcDbEntity
  8
101
  6
Continuous
 62
     7
370
    30
100
AcDbLine
 10
70.692187
 20
78.4575
 30
0.0
 11
72.919687
 21
76.10625
 31
0.0
  0
LINE
  5
35A
330
1F
100
AcDbEntity
  8
101
  6
Continuous
 62
     7
370
    30
100
AcDbLine
 10
67.598437
 20
82.4175
 30
0.0
 11
70.692187
 21
78.4575
 31
0.0
  0
LINE
  5
35B
330
1F
100
AcDbEntity
  8
101
  6
Continuous
 62
     7
370
    30
100
AcDbLine
 10
66.237187
 20
86.315625
 30
0.0
 11
67.598437
 21
82.4175
 31
0.0
  0
LINE
  5
35C
330
1F
100
AcDbEntity
  8
101
  6
Continuous
 62
     7
370
    30
100
AcDbLine
 10
62.339062
 20
94.91625
 30
0.0
 11
64.984888
 21
98.442436
 31
0.0
  0
LINE
  5
35D
330
1F
100
AcDbEntity
  8
101
  6
Continuous
 62
     7
370
    30
100
AcDbLine
 10
60.730312
 20
91.3275
 30
0.0
 11
62.339062
 21
94.91625
 31
0.0
  0
LINE
  5
35E
330
1F
100
AcDbEntity
  8
101
  6
Continuous
 62
     7
370
    30
100
AcDbLine
 10
60.235312
 20
86.74875
 30
0.0
 11
60.730312
 21
91.3275
 31
0.0
  0
LINE
  5
35F
330
1F
100
AcDbEntity
  8
101
  6
Continuous
 62
     7
370
    30
100
AcDbLine
 10
60.792187
 20
82.355625
 30
0.0
 11
60.235312
 21
86.74875
 31
0.0
  0
LINE
  5
360
330
1F
100
AcDbEntity
  8
101
  6
Continuous
 62
     7
370
    30
100
AcDbLine
 10
63.019687
 20
77.405625
 30
0.0
 11
60.792187
 21
82.355625
 31
0.0
  0
LINE
  5
361
330
1F
100
AcDbEntity
  8
101
  6
Continuous
 62
     7
370
    30
100
AcDbLine
 10
66.670312
 20
72.455625
 30
0.0
 11
63.019687
 21
77.405625
 31
0.0
  0
LINE
  5
362
330
1F
100
AcDbEntity
  8
101
  6
Continuous
 62
     7
370
    30
100
AcDbLine
 10
70.754062
 20
68.68125
 30
0.0
 11
66.670312
 21
72.455625
 31
0.0
  0
LINE
  5
363
330
1F
100
AcDbEntity
  8
101
  6
Continuous
 62
     7
370
    30
100
AcDbLine
 10
75.085312
 20
66.0825
 30
0.0
 11
70.754062
 21
68.68125
 31
0.0
  0
LINE
  5
364
330
1F
100
AcDbEntity
  8
101
  6
Continuous
 62
     7
370
    30
100
AcDbLine
 10
80.592187
 20
62.926875
 30
0.0
 11
75.085312
 21
66.0825
 31
0.0
  0
LINE
  5
365
330
1F
100
AcDbEntity
  8
101
  6
Continuous
 62
     7
370
    30
100
AcDbLine
 10
89.316562
 20
59.461875
 30
0.0
 11
80.592187
 21
62.926875
 31
0.0
  0
LINE
  5
366
330
1F
100
AcDbEntity
  8
101
  6
Continuous
 62
     7
370
    30
100
AcDbLine
 10
98.659687
 20
56.986875
 30
0.0
 11
89.316562
 21
59.461875
 31
0.0
  0
LINE
  5
367
330
1F
100
AcDbEntity
  8
101
  6
Continuous
 62
     7
370
    30
100
AcDbLine
 10
108.869062
 20
55.1925
 30
0.0
 11
98.659687
 21
56.986875
 31
0.0
  0
LINE
  5
368
330
1F
100
AcDbEntity
  8
101
  6
Continuous
 62
     7
370
    30
100
AcDbLine
 10
116.541562
 20
54.57375
 30
0.0
 11
108.869062
 21
55.1925
 31
0.0
  0
LINE
  5
369
330
1F
100
AcDbEntity
  8
101
  6
Continuous
 62
     7
370
    30
100
AcDbLine
 10
127.493437
 20
54.511875
 30
0.0
 11
116.541562
 21
54.57375
 31
0.0
  0
LINE
  5
36A
330
1F
100
AcDbEntity
  8
101
  6
Continuous
 62
     7
370
    30
100
AcDbLine
 10
134.423437
 20
54.883125
 30
0.0
 11
127.493437
 21
54.511875
 31
0.0
  0
LINE
  5
36B
330
1F
100
AcDbEntity
  8
101
  6
Continuous
 62
     7
370
    30
100
AcDbLine
 10
142.405312
 20
55.81125
 30
0.0
 11
134.423437
 21
54.883125
 31
0.0
  0
LINE
  5
36C
330
1F
100
AcDbEntity
  8
101
  6
Continuous
 62
     7
370
    30
100
AcDbLine
 10
150.882187
 20
57.54375
 30
0.0
 11
142.405312
 21
55.81125
 31
0.0
  0
LINE
  5
36D
330
1F
100
AcDbEntity
  8
101
  6
Continuous
 62
     7
370
    30
100
AcDbLine
 10
155.894062
 20
58.843125
 30
0.0
 11
150.882187
 21
57.54375
 31
0.0
  0
LINE
  5
36E
330
1F
100
AcDbEntity
  8
101
  6
Continuous
 62
     7
370
    30
100
AcDbLine
 10
163.628437
 20
61.813125
 30
0.0
 11
155.894062
 21
58.843125
 31
0.0
  0
LINE
  5
36F
330
1F
100
AcDbEntity
  8
101
  6
Continuous
 62
     7
370
    30
100
AcDbLine
 10
167.340937
 20
64.040625
 30
0.0
 11
163.628437
 21
61.813125
 31
0.0
  0
LINE
  5
370
330
1F
100
AcDbEntity
  8
101
  6
Continuous
 62
     7
370
    30
100
AcDbLine
 10
171.115312
 20
66.33
 30
0.0
 11
167.340937
 21
64.040625
 31
0.0
  0
LINE
  5
371
330
1F
100
AcDbEntity
  8
101
  6
Continuous
 62
     7
370
    30
100
AcDbLine
 10
176.189062
 20
70.970625
 30
0.0
 11
171.115312
 21
66.33
 31
0.0
  0
LINE
  5
372
330
1F
100
AcDbEntity
  8
101
  6
Continuous
 62
     7
370
    30
100
AcDbLine
 10
179.468437
 20
75.425625
 30
0.0
 11
176.189062
 21
70.970625
 31
0.0
  0
LINE
  5
373
330
1F
100
AcDbEntity
  8
101
  6
Continuous
 62
     7
370
    30
100
AcDbLine
 10
181.634062
 20
80.31375
 30
0.0
 11
179.468437
 21
75.425625
 31
0.0
  0
LINE
  5
374
330
1F
100
AcDbEntity
  8
101
  6
Continuous
 62
     7
370
    30
100
AcDbLine
 10
181.819687
 20
85.01625
 30
0.0
 11
181.634062
 21
80.31375
 31
0.0
  0
LINE
  5
375
330
1F
100
AcDbEntity
  8
101
  6
Continuous
 62
     7
370
    30
100
AcDbLine
 10
180.582187
 20
89.595
 30
0.0
 11
181.819687
 21
85.01625
 31
0.0
  0
LINE
  5
376
330
1F
100
AcDbEntity
  8
101
  6
Continuous
 62
     7
370
    30
100
AcDbLine
 10
178.292812
 20
93.740625
 30
0.0
 11
180.582187
 21
89.595
 31
0.0
  0
LINE
  5
377
330
1F
100
AcDbEntity
  8
101
  6
Continuous
 62
     7
370
    30
100
AcDbLine
 10
175.199062
 20
97.576875
 30
0.0
 11
178.292812
 21
93.740625
 31
0.0
  0
LINE
  5
378
330
1F
100
AcDbEntity
  8
101
  6
Continuous
 62
     7
370
    30
100
AcDbLine
 10
172.084435
 20
100.301329
 30
0.0
 11
175.199062
 21
97.576875
 31
0.0
  0
LINE
  5
379
330
1F
100
AcDbEntity
  8
101
  6
Continuous
 62
     7
370
    30
100
AcDbLine
 10
165.237939
 20
98.265428
 30
0.0
 11
168.052452
 21
96.774608
 31
0.0
  0
LINE
  5
37A
330
1F
100
AcDbEntity
  8
101
  6
Continuous
 62
     7
370
    30
100
AcDbLine
 10
165.383635
 20
104.694462
 30
0.0
 11
167.903211
 21
103.341216
 31
0.0
  0
LINE
  5
37B
330
1F
100
AcDbEntity
  8
101
  6
Continuous
 62
     7
370
    30
100
AcDbLine
 10
172.167187
 20
106.425
 30
0.0
 11
172.043437
 21
134.02125
 31
0.0
  0
LINE
  5
37C
330
1F
100
AcDbEntity
  8
101
  6
Continuous
 62
     7
370
    30
100
AcDbLine
 10
172.043437
 20
97.2675
 30
0.0
 11
172.167187
 21
106.425
 31
0.0
  0
LINE
  5
37D
330
1F
100
AcDbEntity
  8
101
  6
Continuous
 62
     7
370
    30
100
AcDbLine
 10
172.167187
 20
92.44125
 30
0.0
 11
172.043437
 21
97.2675
 31
0.0
  0
LINE
  5
37E
330
1F
100
AcDbEntity
  8
101
  6
Continuous
 62
     7
370
    30
100
AcDbLine
 10
170.805937
 20
76.23
 30
0.0
 11
172.167187
 21
92.44125
 31
0.0
  0
LINE
  5
37F
330
1F
100
AcDbEntity
  8
101
  6
Continuous
 62
     7
370
    30
100
AcDbLine
 10
166.474687
 20
74.25
 30
0.0
 11
166.227187
 21
71.89875
 31
0.0
  0
LINE
  5
380
330
1F
100
AcDbEntity
  8
101
  6
Continuous
 62
     7
370
    30
100
AcDbLine
 10
167.217187
 20
83.9025
 30
0.0
 11
166.474687
 21
74.25
 31
0.0
  0
LINE
  5
381
330
1F
100
AcDbEntity
  8
101
  6
Continuous
 62
     7
370
    30
100
AcDbLine
 10
168.083437
 20
95.41125
 30
0.0
 11
167.217187
 21
83.9025
 31
0.0
  0
LINE
  5
382
330
1F
100
AcDbEntity
  8
101
  6
Continuous
 62
     7
370
    30
100
AcDbLine
 10
167.712187
 20
111.74625
 30
0.0
 11
168.083437
 21
95.41125
 31
0.0
  0
LINE
  5
383
330
1F
100
AcDbEntity
  8
101
  6
Continuous
 62
     7
370
    30
100
AcDbLine
 10
167.155312
 20
132.103125
 30
0.0
 11
167.712187
 21
111.74625
 31
0.0
  0
LINE
  5
384
330
1F
100
AcDbEntity
  8
101
  6
Continuous
 62
     7
370
    30
100
AcDbLine
 10
165.360937
 20
102.09375
 30
0.0
 11
165.618769
 21
131.636016
 31
0.0
  0
LINE
  5
385
330
1F
100
AcDbEntity
  8
101
  6
Continuous
 62
     7
370
    30
100
AcDbLine
 10
164.370937
 20
71.28
 30
0.0
 11
165.360937
 21
102.09375
 31
0.0
  0
LINE
  5
386
330
1F
100
AcDbEntity
  8
101
  6
Continuous
 62
     7
370
    30
100
AcDbLine
 10
133.062187
 20
22.5225
 30
0.0
 11
131.654581
 21
22.109627
 31
0.0
  0
LINE
  5
387
330
1F
100
AcDbEntity
  8
101
  6
Continuous
 62
     7
370
    30
100
AcDbLine
 10
137.640937
 20
24.193125
 30
0.0
 11
133.062187
 21
22.5225
 31
0.0
  0
LINE
  5
388
330
1F
100
AcDbEntity
  8
101
  6
Continuous
 62
     7
370
    30
100
AcDbLine
 10
142.034062
 20
26.544375
 30
0.0
 11
137.640937
 21
24.193125
 31
0.0
  0
LINE
  5
389
330
1F
100
AcDbEntity
  8
101
  6
Continuous
 62
     7
370
    30
100
AcDbLine
 10
145.375312
 20
28.71
 30
0.0
 11
142.034062
 21
26.544375
 31
0.0
  0
LINE
  5
38A
330
1F
100
AcDbEntity
  8
101
  6
Continuous
 62
     7
370
    30
100
AcDbLine
 10
149.025937
 20
31.741875
 30
0.0
 11
145.375312
 21
28.71
 31
0.0
  0
LINE
  5
38B
330
1F
100
AcDbEntity
  8
101
  6
Continuous
 62
     7
370
    30
100
AcDbLine
 10
152.119687
 20
35.083125
 30
0.0
 11
149.025937
 21
31.741875
 31
0.0
  0
LINE
  5
38C
330
1F
100
AcDbEntity
  8
101
  6
Continuous
 62
     7
370
    30
100
AcDbLine
 10
154.965937
 20
38.424375
 30
0.0
 11
152.119687
 21
35.083125
 31
0.0
  0
LINE
  5
38D
330
1F
100
AcDbEntity
  8
101
  6
Continuous
 62
     7
370
    30
100
AcDbLine
 10
157.317187
 20
41.95125
 30
0.0
 11
154.965937
 21
38.424375
 31
0.0
  0
LINE
  5
38E
330
1F
100
AcDbEntity
  8
101
  6
Continuous
 62
     7
370
    30
100
AcDbLine
 10
159.297187
 20
45.66375
 30
0.0
 11
157.317187
 21
41.95125
 31
0.0
  0
LINE
  5
38F
330
1F
100
AcDbEntity
  8
101
  6
Continuous
 62
     7
370
    30
100
AcDbLine
 10
161.091562
 20
49.995
 30
0.0
 11
159.297187
 21
45.66375
 31
0.0
  0
LINE
  5
390
330
1F
100
AcDbEntity
  8
101
  6
Continuous
 62
     7
370
    30
100
AcDbLine
 10
162.638437
 20
54.016875
 30
0.0
 11
161.091562
 21
49.995
 31
0.0
  0
LINE
  5
391
330
1F
100
AcDbEntity
  8
101
  6
Continuous
 62
     7
370
    30
100
AcDbLine
 10
163.628437
 20
58.41
 30
0.0
 11
162.638437
 21
54.016875
 31
0.0
  0
LINE
  5
392
330
1F
100
AcDbEntity
  8
101
  6
Continuous
 62
     7
370
    30
100
AcDbLine
 10
164.185312
 20
62.060625
 30
0.0
 11
163.628437
 21
58.41
 31
0.0
  0
LINE
  5
393
330
1F
100
AcDbEntity
  8
101
  6
Continuous
 62
     7
370
    30
100
AcDbLine
 10
169.197187
 20
62.865
 30
0.0
 11
169.506562
 21
65.401875
 31
0.0
  0
LINE
  5
394
330
1F
100
AcDbEntity
  8
101
  6
Continuous
 62
     7
370
    30
100
AcDbLine
 10
167.897812
 20
58.348125
 30
0.0
 11
169.197187
 21
62.865
 31
0.0
  0
LINE
  5
395
330
1F
100
AcDbEntity
  8
101
  6
Continuous
 62
     7
370
    30
100
AcDbLine
 10
165.855937
 20
52.531875
 30
0.0
 11
167.897812
 21
58.348125
 31
0.0
  0
LINE
  5
396
330
1F
100
AcDbEntity
  8
101
  6
Continuous
 62
     7
370
    30
100
AcDbLine
 10
162.205312
 20
45.478125
 30
0.0
 11
165.855937
 21
52.531875
 31
0.0
  0
LINE
  5
397
330
1F
100
AcDbEntity
  8
101
  6
Continuous
 62
     7
370
    30
100
AcDbLine
 10
157.255312
 20
38.424375
 30
0.0
 11
162.205312
 21
45.478125
 31
0.0
  0
LINE
  5
398
330
1F
100
AcDbEntity
  8
101
  6
Continuous
 62
     7
370
    30
100
AcDbLine
 10
152.614687
 20
33.226875
 30
0.0
 11
157.255312
 21
38.424375
 31
0.0
  0
LINE
  5
399
330
1F
100
AcDbEntity
  8
101
  6
Continuous
 62
     7
370
    30
100
AcDbLine
 10
147.974062
 20
29.205
 30
0.0
 11
152.614687
 21
33.226875
 31
0.0
  0
LINE
  5
39A
330
1F
100
AcDbEntity
  8
101
  6
Continuous
 62
     7
370
    30
100
AcDbLine
 10
142.405312
 20
25.183125
 30
0.0
 11
147.974062
 21
29.205
 31
0.0
  0
LINE
  5
39B
330
1F
100
AcDbEntity
  8
101
  6
Continuous
 62
     7
370
    30
100
AcDbLine
 10
138.878437
 20
22.955625
 30
0.0
 11
142.405312
 21
25.183125
 31
0.0
  0
LINE
  5
39C
330
1F
100
AcDbEntity
  8
101
  6
Continuous
 62
     7
370
    30
100
AcDbLine
 10
135.165937
 20
21.16125
 30
0.0
 11
138.878437
 21
22.955625
 31
0.0
  0
LINE
  5
39D
330
1F
100
AcDbEntity
  8
101
  6
Continuous
 62
     7
370
    30
100
AcDbLine
 10
131.409455
 20
19.945776
 30
0.0
 11
135.165937
 21
21.16125
 31
0.0
  0
LINE
  5
39E
330
1F
100
AcDbEntity
  8
101
  6
Continuous
 62
     7
370
    30
100
AcDbLine
 10
122.910378
 20
20.896188
 30
0.0
 11
125.845965
 21
19.91445
 31
0.0
  0
LINE
  5
39F
330
1F
100
AcDbEntity
  8
101
  6
Continuous
 62
     7
370
    30
100
AcDbLine
 10
119.820937
 20
18.5625
 30
0.0
 11
119.264062
 21
20.851875
 31
0.0
  0
LINE
  5
3A0
330
1F
100
AcDbEntity
  8
101
  6
Continuous
 62
     7
370
    30
100
AcDbLine
 10
120.315937
 20
16.70625
 30
0.0
 11
119.820937
 21
18.5625
 31
0.0
  0
LINE
  5
3A1
330
1F
100
AcDbEntity
  8
101
  6
Continuous
 62
     7
370
    30
100
AcDbLine
 10
121.615312
 20
13.179375
 30
0.0
 11
120.315937
 21
16.70625
 31
0.0
  0
LINE
  5
3A2
330
1F
100
AcDbEntity
  8
101
  6
Continuous
 62
     7
370
    30
100
AcDbLine
 10
122.729062
 20
11.01375
 30
0.0
 11
121.615312
 21
13.179375
 31
0.0
  0
LINE
  5
3A3
330
1F
100
AcDbEntity
  8
101
  6
Continuous
 62
     7
370
    30
100
AcDbLine
 10
123.409687
 20
10.209375
 30
0.0
 11
122.729062
 21
11.01375
 31
0.0
  0
LINE
  5
3A4
330
1F
100
AcDbEntity
  8
101
  6
Continuous
 62
     7
370
    30
100
AcDbLine
 10
124.028437
 20
11.075625
 30
0.0
 11
123.409687
 21
10.209375
 31
0.0
  0
LINE
  5
3A5
330
1F
100
AcDbEntity
  8
101
  6
Continuous
 62
     7
370
    30
100
AcDbLine
 10
124.770937
 20
13.365
 30
0.0
 11
124.028437
 21
11.075625
 31
0.0
  0
LINE
  5
3A6
330
1F
100
AcDbEntity
  8
101
  6
Continuous
 62
     7
370
    30
100
AcDbLine
 10
125.637187
 20
18.005625
 30
0.0
 11
124.770937
 21
13.365
 31
0.0
  0
LINE
  5
3A7
330
1F
100
AcDbEntity
  8
101
  6
Continuous
 62
     7
370
    30
100
AcDbLine
 10
126.070312
 20
21.965625
 30
0.0
 11
125.637187
 21
18.005625
 31
0.0
  0
LINE
  5
3A8
330
1F
100
AcDbEntity
  8
101
  6
Continuous
 62
     7
370
    30
100
AcDbLine
 10
126.750937
 20
29.390625
 30
0.0
 11
126.070312
 21
21.965625
 31
0.0
  0
LINE
  5
3A9
330
1F
100
AcDbEntity
  8
101
  6
Continuous
 62
     7
370
    30
100
AcDbLine
 10
126.812812
 20
34.835625
 30
0.0
 11
126.750937
 21
29.390625
 31
0.0
  0
LINE
  5
3AA
330
1F
100
AcDbEntity
  8
101
  6
Continuous
 62
     7
370
    30
100
AcDbLine
 10
127.307812
 20
43.18875
 30
0.0
 11
126.812812
 21
34.835625
 31
0.0
  0
LINE
  5
3AB
330
1F
100
AcDbEntity
  8
101
  6
Continuous
 62
     7
370
    30
100
AcDbLine
 10
127.369687
 20
48.7575
 30
0.0
 11
127.307812
 21
43.18875
 31
0.0
  0
LINE
  5
3AC
330
1F
100
AcDbEntity
  8
101
  6
Continuous
 62
     7
370
    30
100
AcDbLine
 10
127.493437
 20
54.511875
 30
0.0
 11
127.369687
 21
48.7575
 31
0.0
  0
LINE
  5
3AD
330
1F
100
AcDbEntity
  8
101
  6
Continuous
 62
     7
370
    30
100
AcDbLine
 10
133.247812
 20
50.61375
 30
0.0
 11
133.247812
 21
54.6975
 31
0.0
  0
LINE
  5
3AE
330
1F
100
AcDbEntity
  8
101
  6
Continuous
 62
     7
370
    30
100
AcDbLine
 10
132.814687
 20
38.8575
 30
0.0
 11
133.247812
 21
50.61375
 31
0.0
  0
LINE
  5
3AF
330
1F
100
AcDbEntity
  8
101
  6
Continuous
 62
     7
370
    30
100
AcDbLine
 10
132.257812
 20
29.019375
 30
0.0
 11
132.814687
 21
38.8575
 31
0.0
  0
LINE
  5
3B0
330
1F
100
AcDbEntity
  8
101
  6
Continuous
 62
     7
370
    30
100
AcDbLine
 10
131.577187
 20
21.223125
 30
0.0
 11
132.257812
 21
29.019375
 31
0.0
  0
LINE
  5
3B1
330
1F
100
AcDbEntity
  8
101
  6
Continuous
 62
     7
370
    30
100
AcDbLine
 10
130.772812
 20
15.0975
 30
0.0
 11
131.577187
 21
21.223125
 31
0.0
  0
LINE
  5
3B2
330
1F
100
AcDbEntity
  8
101
  6
Continuous
 62
     7
370
    30
100
AcDbLine
 10
129.720937
 20
10.580625
 30
0.0
 11
130.772812
 21
15.0975
 31
0.0
  0
LINE
  5
3B3
330
1F
100
AcDbEntity
  8
101
  6
Continuous
 62
     7
370
    30
100
AcDbLine
 10
128.359687
 20
7.486875
 30
0.0
 11
129.720937
 21
10.580625
 31
0.0
  0
LINE
  5
3B4
330
1F
100
AcDbEntity
  8
101
  6
Continuous
 62
     7
370
    30
100
AcDbLine
 10
126.317812
 20
4.640625
 30
0.0
 11
128.359687
 21
7.486875
 31
0.0
  0
LINE
  5
3B5
330
1F
100
AcDbEntity
  8
101
  6
Continuous
 62
     7
370
    30
100
AcDbLine
 10
124.585312
 20
3.83625
 30
0.0
 11
126.317812
 21
4.640625
 31
0.0
  0
LINE
  5
3B6
330
1F
100
AcDbEntity
  8
101
  6
Continuous
 62
     7
370
    30
100
AcDbLine
 10
122.110312
 20
4.516875
 30
0.0
 11
124.585312
 21
3.83625
 31
0.0
  0
LINE
  5
3B7
330
1F
100
AcDbEntity
  8
101
  6
Continuous
 62
     7
370
    30
100
AcDbLine
 10
120.192187
 20
6.125625
 30
0.0
 11
122.110312
 21
4.516875
 31
0.0
  0
LINE
  5
3B8
330
1F
100
AcDbEntity
  8
101
  6
Continuous
 62
     7
370
    30
100
AcDbLine
 10
118.521562
 20
9.466875
 30
0.0
 11
120.192187
 21
6.125625
 31
0.0
  0
LINE
  5
3B9
330
1F
100
AcDbEntity
  8
101
  6
Continuous
 62
     7
370
    30
100
AcDbLine
 10
116.789062
 20
13.365
 30
0.0
 11
118.521562
 21
9.466875
 31
0.0
  0
LINE
  5
3BA
330
1F
100
AcDbEntity
  8
101
  6
Continuous
 62
     7
370
    30
100
AcDbLine
 10
115.799062
 20
17.20125
 30
0.0
 11
116.789062
 21
13.365
 31
0.0
  0
LINE
  5
3BB
330
1F
100
AcDbEntity
  8
101
  6
Continuous
 62
     7
370
    30
100
AcDbLine
 10
115.668501
 20
19.698956
 30
0.0
 11
115.799062
 21
17.20125
 31
0.0
  0
LINE
  5
3BC
330
1F
100
AcDbEntity
  8
101
  6
Continuous
 62
     7
370
    30
100
AcDbLine
 10
117.036562
 20
20.109375
 30
0.0
 11
119.264062
 21
20.851875
 31
0.0
  0
LINE
  5
3BD
330
1F
100
AcDbEntity
  8
101
  6
Continuous
 62
     7
370
    30
100
AcDbLine
 10
115.180312
 20
19.5525
 30
0.0
 11
117.036562
 21
20.109375
 31
0.0
  0
LINE
  5
3BE
330
1F
100
AcDbEntity
  8
101
  6
Continuous
 62
     7
370
    30
100
AcDbLine
 10
112.890937
 20
18.81
 30
0.0
 11
115.180312
 21
19.5525
 31
0.0
  0
LINE
  5
3BF
330
1F
100
AcDbEntity
  8
101
  6
Continuous
 62
     7
370
    30
100
AcDbLine
 10
110.415937
 20
18.253125
 30
0.0
 11
112.890937
 21
18.81
 31
0.0
  0
LINE
  5
3C0
330
1F
100
AcDbEntity
  8
101
  6
Continuous
 62
     7
370
    30
100
AcDbLine
 10
108.312187
 20
18.129375
 30
0.0
 11
110.415937
 21
18.253125
 31
0.0
  0
LINE
  5
3C1
330
1F
100
AcDbEntity
  8
101
  6
Continuous
 62
     7
370
    30
100
AcDbLine
 10
105.899062
 20
18.624375
 30
0.0
 11
108.312187
 21
18.129375
 31
0.0
  0
LINE
  5
3C2
330
1F
100
AcDbEntity
  8
101
  6
Continuous
 62
     7
370
    30
100
AcDbLine
 10
101.072812
 20
20.109375
 30
0.0
 11
105.899062
 21
18.624375
 31
0.0
  0
LINE
  5
3C3
330
1F
100
AcDbEntity
  8
101
  6
Continuous
 62
     7
370
    30
100
AcDbLine
 10
96.803437
 20
22.15125
 30
0.0
 11
101.072812
 21
20.109375
 31
0.0
  0
LINE
  5
3C4
330
1F
100
AcDbEntity
  8
101
  6
Continuous
 62
     7
370
    30
100
AcDbLine
 10
92.472187
 20
24.440625
 30
0.0
 11
96.803437
 21
22.15125
 31
0.0
  0
LINE
  5
3C5
330
1F
100
AcDbEntity
  8
101
  6
Continuous
 62
     7
370
    30
100
AcDbLine
 10
88.079062
 20
27.658125
 30
0.0
 11
92.472187
 21
24.440625
 31
0.0
  0
LINE
  5
3C6
330
1F
100
AcDbEntity
  8
101
  6
Continuous
 62
     7
370
    30
100
AcDbLine
 10
83.500312
 20
31.68
 30
0.0
 11
88.079062
 21
27.658125
 31
0.0
  0
LINE
  5
3C7
330
1F
100
AcDbEntity
  8
101
  6
Continuous
 62
     7
370
    30
100
AcDbLine
 10
79.973437
 20
35.76375
 30
0.0
 11
83.500312
 21
31.68
 31
0.0
  0
LINE
  5
3C8
330
1F
100
AcDbEntity
  8
101
  6
Continuous
 62
     7
370
    30
100
AcDbLine
 10
76.632187
 20
40.3425
 30
0.0
 11
79.973437
 21
35.76375
 31
0.0
  0
LINE
  5
3C9
330
1F
100
AcDbEntity
  8
101
  6
Continuous
 62
     7
370
    30
100
AcDbLine
 10
73.290937
 20
46.15875
 30
0.0
 11
76.632187
 21
40.3425
 31
0.0
  0
LINE
  5
3CA
330
1F
100
AcDbEntity
  8
101
  6
Continuous
 62
     7
370
    30
100
AcDbLine
 10
70.630312
 20
52.779375
 30
0.0
 11
73.290937
 21
46.15875
 31
0.0
  0
LINE
  5
3CB
330
1F
100
AcDbEntity
  8
101
  6
Continuous
 62
     7
370
    30
100
AcDbLine
 10
69.330937
 20
57.729375
 30
0.0
 11
70.630312
 21
52.779375
 31
0.0
  0
LINE
  5
3CC
330
1F
100
AcDbEntity
  8
101
  6
Continuous
 62
     7
370
    30
100
AcDbLine
 10
68.093437
 20
64.040625
 30
0.0
 11
69.330937
 21
57.729375
 31
0.0
  0
LINE
  5
3CD
330
1F
100
AcDbEntity
  8
101
  6
Continuous
 62
     7
370
    30
100
AcDbLine
 10
66.979687
 20
71.89875
 30
0.0
 11
68.093437
 21
64.040625
 31
0.0
  0
LINE
  5
3CE
330
1F
100
AcDbEntity
  8
101
  6
Continuous
 62
     7
370
    30
100
AcDbLine
 10
72.424687
 20
66.020625
 30
0.0
 11
72.362812
 21
67.505625
 31
0.0
  0
LINE
  5
3CF
330
1F
100
AcDbEntity
  8
101
  6
Continuous
 62
     7
370
    30
100
AcDbLine
 10
72.857812
 20
61.875
 30
0.0
 11
72.424687
 21
66.020625
 31
0.0
  0
LINE
  5
3D0
330
1F
100
AcDbEntity
  8
101
  6
Continuous
 62
     7
370
    30
100
AcDbLine
 10
73.971562
 20
56.55375
 30
0.0
 11
72.857812
 21
61.875
 31
0.0
  0
LINE
  5
3D1
330
1F
100
AcDbEntity
  8
101
  6
Continuous
 62
     7
370
    30
100
AcDbLine
 10
75.951562
 20
50.7375
 30
0.0
 11
73.971562
 21
56.55375
 31
0.0
  0
LINE
  5
3D2
330
1F
100
AcDbEntity
  8
101
  6
Continuous
 62
     7
370
    30
100
AcDbLine
 10
78.921562
 20
44.859375
 30
0.0
 11
75.951562
 21
50.7375
 31
0.0
  0
LINE
  5
3D3
330
1F
100
AcDbEntity
  8
101
  6
Continuous
 62
     7
370
    30
100
AcDbLine
 10
82.139062
 20
39.97125
 30
0.0
 11
78.921562
 21
44.859375
 31
0.0
  0
LINE
  5
3D4
330
1F
100
AcDbEntity
  8
101
  6
Continuous
 62
     7
370
    30
100
AcDbLine
 10
85.294687
 20
36.3825
 30
0.0
 11
82.139062
 21
39.97125
 31
0.0
  0
LINE
  5
3D5
330
1F
100
AcDbEntity
  8
101
  6
Continuous
 62
     7
370
    30
100
AcDbLine
 10
90.244687
 20
31.80375
 30
0.0
 11
85.294687
 21
36.3825
 31
0.0
  0
LINE
  5
3D6
330
1F
100
AcDbEntity
  8
101
  6
Continuous
 62
     7
370
    30
100
AcDbLine
 10
96.617812
 20
27.59625
 30
0.0
 11
90.244687
 21
31.80375
 31
0.0
  0
LINE
  5
3D7
330
1F
100
AcDbEntity
  8
101
  6
Continuous
 62
     7
370
    30
100
AcDbLine
 10
100.763437
 20
25.36875
 30
0.0
 11
96.617812
 21
27.59625
 31
0.0
  0
LINE
  5
3D8
330
1F
100
AcDbEntity
  8
101
  6
Continuous
 62
     7
370
    30
100
AcDbLine
 10
105.094687
 20
23.821875
 30
0.0
 11
100.763437
 21
25.36875
 31
0.0
  0
LINE
  5
3D9
330
1F
100
AcDbEntity
  8
101
  6
Continuous
 62
     7
370
    30
100
AcDbLine
 10
121.182187
 20
20.851875
 30
0.0
 11
126.008437
 21
20.975625
 31
0.0
  0
LINE
  5
3DA
330
1F
100
AcDbEntity
  8
101
  6
Continuous
 62
     7
370
    30
100
AcDbLine
 10
116.727187
 20
20.851875
 30
0.0
 11
121.182187
 21
20.851875
 31
0.0
  0
LINE
  5
3DB
330
1F
100
AcDbEntity
  8
101
  6
Continuous
 62
     7
370
    30
100
AcDbLine
 10
112.890937
 20
21.285
 30
0.0
 11
116.727187
 21
20.851875
 31
0.0
  0
LINE
  5
3DC
330
1F
100
AcDbEntity
  8
101
  6
Continuous
 62
     7
370
    30
100
AcDbLine
 10
109.611562
 20
22.15125
 30
0.0
 11
112.890937
 21
21.285
 31
0.0
  0
LINE
  5
3DD
330
1F
100
AcDbEntity
  8
101
  6
Continuous
 62
     7
370
    30
100
AcDbLine
 10
105.094687
 20
23.821875
 30
0.0
 11
109.611562
 21
22.15125
 31
0.0
  0
LINE
  5
3DE
330
1F
100
AcDbEntity
  8
101
  6
Continuous
 62
     7
370
    30
100
AcDbLine
 10
98.721562
 20
27.225
 30
0.0
 11
105.094687
 21
23.821875
 31
0.0
  0
LINE
  5
3DF
330
1F
100
AcDbEntity
  8
101
  6
Continuous
 62
     7
370
    30
100
AcDbLine
 10
96.308437
 20
28.71
 30
0.0
 11
98.721562
 21
27.225
 31
0.0
  0
LINE
  5
3E0
330
1F
100
AcDbEntity
  8
101
  6
Continuous
 62
     7
370
    30
100
AcDbLine
 10
94.637812
 20
30.195
 30
0.0
 11
96.308437
 21
28.71
 31
0.0
  0
LINE
  5
3E1
330
1F
100
AcDbEntity
  8
101
  6
Continuous
 62
     7
370
    30
100
AcDbLine
 10
91.977187
 20
32.360625
 30
0.0
 11
94.637812
 21
30.195
 31
0.0
  0
LINE
  5
3E2
330
1F
100
AcDbEntity
  8
101
  6
Continuous
 62
     7
370
    30
100
AcDbLine
 10
88.635937
 20
35.701875
 30
0.0
 11
91.977187
 21
32.360625
 31
0.0
  0
LINE
  5
3E3
330
1F
100
AcDbEntity
  8
101
  6
Continuous
 62
     7
370
    30
100
AcDbLine
 10
85.789687
 20
39.414375
 30
0.0
 11
88.635937
 21
35.701875
 31
0.0
  0
LINE
  5
3E4
330
1F
100
AcDbEntity
  8
101
  6
Continuous
 62
     7
370
    30
100
AcDbLine
 10
82.695937
 20
43.68375
 30
0.0
 11
85.789687
 21
39.414375
 31
0.0
  0
LINE
  5
3E5
330
1F
100
AcDbEntity
  8
101
  6
Continuous
 62
     7
370
    30
100
AcDbLine
 10
79.973437
 20
49.190625
 30
0.0
 11
82.695937
 21
43.68375
 31
0.0
  0
LINE
  5
3E6
330
1F
100
AcDbEntity
  8
101
  6
Continuous
 62
     7
370
    30
100
AcDbLine
 10
76.879687
 20
58.53375
 30
0.0
 11
79.973437
 21
49.190625
 31
0.0
  0
LINE
  5
3E7
330
1F
100
AcDbEntity
  8
101
  6
Continuous
 62
     7
370
    30
100
AcDbLine
 10
75.889687
 20
65.46375
 30
0.0
 11
76.879687
 21
58.53375
 31
0.0
  0
LINE
  5
3E8
330
1F
100
AcDbEntity
  8
101
  6
Continuous
 62
     7
370
    30
100
AcDbLine
 10
73.476562
 20
99.61875
 30
0.0
 11
74.732835
 21
100.550777
 31
0.0
  0
LINE
  5
3E9
330
1F
100
AcDbEntity
  8
101
  6
Continuous
 62
     7
370
    30
100
AcDbLine
 10
69.825937
 20
96.339375
 30
0.0
 11
73.476562
 21
99.61875
 31
0.0
  0
LINE
  5
3EA
330
1F
100
AcDbEntity
  8
101
  6
Continuous
 62
     7
370
    30
100
AcDbLine
 10
69.794864
 20
103.330837
 30
0.0
 11
74.652187
 21
106.610625
 31
0.0
  0
LINE
  5
3EB
330
1F
100
AcDbEntity
  8
101
  6
Continuous
 62
     7
370
    30
100
AcDbLine
 10
66.051562
 20
87.800625
 30
0.0
 11
66.237187
 21
86.315625
 31
0.0
  0
LINE
  5
3EC
330
1F
100
AcDbEntity
  8
101
  6
Continuous
 62
     7
370
    30
100
AcDbLine
 10
65.618437
 20
89.595
 30
0.0
 11
66.051562
 21
87.800625
 31
0.0
  0
LINE
  5
3ED
330
1F
100
AcDbEntity
  8
101
  6
Continuous
 62
     7
370
    30
100
AcDbLine
 10
65.061562
 20
90.46125
 30
0.0
 11
65.618437
 21
89.595
 31
0.0
  0
LINE
  5
3EE
330
1F
100
AcDbEntity
  8
101
  6
Continuous
 62
     7
370
    30
100
AcDbLine
 10
64.937812
 20
95.225625
 30
0.0
 11
65.061562
 21
90.46125
 31
0.0
  0
LINE
  5
3EF
330
1F
100
AcDbEntity
  8
101
  6
Continuous
 62
     7
370
    30
100
AcDbLine
 10
65.123437
 20
107.91
 30
0.0
 11
64.937812
 21
95.225625
 31
0.0
  0
LINE
  5
3F0
330
1F
100
AcDbEntity
  8
101
  6
Continuous
 62
     7
370
    30
100
AcDbLine
 10
65.185312
 20
121.089375
 30
0.0
 11
65.123437
 21
107.91
 31
0.0
  0
LINE
  5
3F1
330
1F
100
AcDbEntity
  8
101
  6
Continuous
 62
     7
370
    30
100
AcDbLine
 10
65.308555
 20
137.51041
 30
0.0
 11
65.185312
 21
121.089375
 31
0.0
  0
LINE
  5
3F2
330
1F
100
AcDbEntity
  8
101
  6
Continuous
 62
     7
370
    30
100
AcDbLine
 10
69.825937
 20
123.87375
 30
0.0
 11
70.042601
 21
134.781197
 31
0.0
  0
LINE
  5
3F3
330
1F
100
AcDbEntity
  8
101
  6
Continuous
 62
     7
370
    30
100
AcDbLine
 10
69.764062
 20
110.26125
 30
0.0
 11
69.825937
 21
123.87375
 31
0.0
  0
LINE
  5
3F4
330
1F
100
AcDbEntity
  8
101
  6
Continuous
 62
     7
370
    30
100
AcDbLine
 10
69.825937
 20
96.339375
 30
0.0
 11
69.764062
 21
110.26125
 31
0.0
  0
LINE
  5
3F5
330
1F
100
AcDbEntity
  8
101
  6
Continuous
 62
     7
370
    30
100
AcDbLine
 10
70.011562
 20
86.191875
 30
0.0
 11
69.825937
 21
96.339375
 31
0.0
  0
LINE
  5
3F6
330
1F
100
AcDbEntity
  8
101
  6
Continuous
 62
     7
370
    30
100
AcDbLine
 10
70.692187
 20
78.4575
 30
0.0
 11
70.011562
 21
86.191875
 31
0.0
  0
LINE
  5
3F7
330
1F
100
AcDbEntity
  8
101
  6
Continuous
 62
     7
370
    30
100
AcDbLine
 10
75.147187
 20
80.623125
 30
0.0
 11
75.518437
 21
74.62125
 31
0.0
  0
LINE
  5
3F8
330
1F
100
AcDbEntity
  8
101
  6
Continuous
 62
     7
370
    30
100
AcDbLine
 10
74.837812
 20
88.666875
 30
0.0
 11
75.147187
 21
80.623125
 31
0.0
  0
LINE
  5
3F9
330
1F
100
AcDbEntity
  8
101
  6
Continuous
 62
     7
370
    30
100
AcDbLine
 10
75.023437
 20
94.545
 30
0.0
 11
74.837812
 21
88.666875
 31
0.0
  0
LINE
  5
3FA
330
1F
100
AcDbEntity
  8
101
  6
Continuous
 62
     7
370
    30
100
AcDbLine
 10
74.652187
 20
102.2175
 30
0.0
 11
75.023437
 21
94.545
 31
0.0
  0
LINE
  5
3FB
330
1F
100
AcDbEntity
  8
101
  6
Continuous
 62
     7
370
    30
100
AcDbLine
 10
74.652187
 20
108.9
 30
0.0
 11
74.652187
 21
102.2175
 31
0.0
  0
LINE
  5
3FC
330
1F
100
AcDbEntity
  8
101
  6
Continuous
 62
     7
370
    30
100
AcDbLine
 10
74.528437
 20
118.67625
 30
0.0
 11
74.652187
 21
108.9
 31
0.0
  0
LINE
  5
3FD
330
1F
100
AcDbEntity
  8
101
  6
Continuous
 62
     7
370
    30
100
AcDbLine
 10
74.354723
 20
133.128544
 30
0.0
 11
74.528437
 21
118.67625
 31
0.0
  0
LINE
  5
3FE
330
1F
100
AcDbEntity
  8
101
  6
Continuous
 62
     7
370
    30
100
AcDbLine
 10
162.390937
 20
188.8425
 30
0.0
 11
164.247187
 21
190.69875
 31
0.0
  0
LINE
  5
3FF
330
1F
100
AcDbEntity
  8
101
  6
Continuous
 62
     7
370
    30
100
AcDbLine
 10
157.935937
 20
187.23375
 30
0.0
 11
162.390937
 21
188.8425
 31
0.0
  0
LINE
  5
400
330
1F
100
AcDbEntity
  8
101
  6
Continuous
 62
     7
370
    30
100
AcDbLine
 10
150.758437
 20
186.12
 30
0.0
 11
157.935937
 21
187.23375
 31
0.0
  0
LINE
  5
401
330
1F
100
AcDbEntity
  8
101
  6
Continuous
 62
     7
370
    30
100
AcDbLine
 10
137.517187
 20
185.00625
 30
0.0
 11
150.758437
 21
186.12
 31
0.0
  0
LINE
  5
402
330
1F
100
AcDbEntity
  8
101
  6
Continuous
 62
     7
370
    30
100
AcDbLine
 10
123.162187
 20
184.75875
 30
0.0
 11
137.517187
 21
185.00625
 31
0.0
  0
LINE
  5
403
330
1F
100
AcDbEntity
  8
101
  6
Continuous
 62
     7
370
    30
100
AcDbLine
 10
108.807187
 20
184.75875
 30
0.0
 11
123.162187
 21
184.75875
 31
0.0
  0
LINE
  5
404
330
1F
100
AcDbEntity
  8
101
  6
Continuous
 62
     7
370
    30
100
AcDbLine
 10
94.699687
 20
185.3775
 30
0.0
 11
108.807187
 21
184.75875
 31
0.0
  0
LINE
  5
405
330
1F
100
AcDbEntity
  8
101
  6
Continuous
 62
     7
370
    30
100
AcDbLine
 10
85.542187
 20
186.8625
 30
0.0
 11
94.699687
 21
185.3775
 31
0.0
  0
LINE
  5
406
330
1F
100
AcDbEntity
  8
101
  6
Continuous
 62
     7
370
    30
100
AcDbLine
 10
79.725937
 20
187.97625
 30
0.0
 11
85.542187
 21
186.8625
 31
0.0
  0
LINE
  5
407
330
1F
100
AcDbEntity
  8
101
  6
Continuous
 62
     7
370
    30
100
AcDbLine
 10
76.755937
 20
189.70875
 30
0.0
 11
79.725937
 21
187.97625
 31
0.0
  0
LINE
  5
408
330
1F
100
AcDbEntity
  8
101
  6
Continuous
 62
     7
370
    30
100
AcDbLine
 10
63.452812
 20
161.37
 30
0.0
 11
62.895937
 21
163.040625
 31
0.0
  0
LINE
  5
409
330
1F
100
AcDbEntity
  8
101
  6
Continuous
 62
     7
370
    30
100
AcDbLine
 10
64.504687
 20
160.00875
 30
0.0
 11
63.452812
 21
161.37
 31
0.0
  0
LINE
  5
40A
330
1F
100
AcDbEntity
  8
101
  6
Continuous
 62
     7
370
    30
100
AcDbLine
 10
67.907812
 20
157.905
 30
0.0
 11
64.504687
 21
160.00875
 31
0.0
  0
LINE
  5
40B
330
1F
100
AcDbEntity
  8
101
  6
Continuous
 62
     7
370
    30
100
AcDbLine
 10
72.239062
 20
155.615625
 30
0.0
 11
67.907812
 21
157.905
 31
0.0
  0
LINE
  5
40C
330
1F
100
AcDbEntity
  8
101
  6
Continuous
 62
     7
370
    30
100
AcDbLine
 10
79.911562
 20
153.635625
 30
0.0
 11
72.239062
 21
155.615625
 31
0.0
  0
LINE
  5
40D
330
1F
100
AcDbEntity
  8
101
  6
Continuous
 62
     7
370
    30
100
AcDbLine
 10
90.430312
 20
151.59375
 30
0.0
 11
79.911562
 21
153.635625
 31
0.0
  0
LINE
  5
40E
330
1F
100
AcDbEntity
  8
101
  6
Continuous
 62
     7
370
    30
100
AcDbLine
 10
101.505937
 20
150.35625
 30
0.0
 11
90.430312
 21
151.59375
 31
0.0
  0
LINE
  5
40F
330
1F
100
AcDbEntity
  8
101
  6
Continuous
 62
     7
370
    30
100
AcDbLine
 10
111.900937
 20
149.985
 30
0.0
 11
101.505937
 21
150.35625
 31
0.0
  0
LINE
  5
410
330
1F
100
AcDbEntity
  8
101
  6
Continuous
 62
     7
370
    30
100
AcDbLine
 10
121.739062
 20
149.61375
 30
0.0
 11
111.900937
 21
149.985
 31
0.0
  0
LINE
  5
411
330
1F
100
AcDbEntity
  8
101
  6
Continuous
 62
     7
370
    30
100
AcDbLine
 10
133.990312
 20
150.046875
 30
0.0
 11
121.739062
 21
149.61375
 31
0.0
  0
LINE
  5
412
330
1F
100
AcDbEntity
  8
101
  6
Continuous
 62
     7
370
    30
100
AcDbLine
 10
143.828437
 20
150.60375
 30
0.0
 11
133.990312
 21
150.046875
 31
0.0
  0
LINE
  5
413
330
1F
100
AcDbEntity
  8
101
  6
Continuous
 62
     7
370
    30
100
AcDbLine
 10
151.995937
 20
151.408125
 30
0.0
 11
143.828437
 21
150.60375
 31
0.0
  0
LINE
  5
414
330
1F
100
AcDbEntity
  8
101
  6
Continuous
 62
     7
370
    30
100
AcDbLine
 10
160.658437
 20
152.645625
 30
0.0
 11
151.995937
 21
151.408125
 31
0.0
  0
LINE
  5
415
330
1F
100
AcDbEntity
  8
101
  6
Continuous
 62
     7
370
    30
100
AcDbLine
 10
168.145312
 20
154.501875
 30
0.0
 11
160.658437
 21
152.645625
 31
0.0
  0
LINE
  5
416
330
1F
100
AcDbEntity
  8
101
  6
Continuous
 62
     7
370
    30
100
AcDbLine
 10
173.899687
 20
156.54375
 30
0.0
 11
168.145312
 21
154.501875
 31
0.0
  0
LINE
  5
417
330
1F
100
AcDbEntity
  8
101
  6
Continuous
 62
     7
370
    30
100
AcDbLine
 10
176.560312
 20
158.4
 30
0.0
 11
173.899687
 21
156.54375
 31
0.0
  0
LINE
  5
418
330
1F
100
AcDbEntity
  8
101
  6
Continuous
 62
     7
370
    30
100
AcDbLine
 10
177.550312
 20
160.565625
 30
0.0
 11
176.560312
 21
158.4
 31
0.0
  0
LINE
  5
419
330
1F
100
AcDbEntity
  8
101
  6
Continuous
 62
     7
370
    30
100
AcDbLine
 10
177.426562
 20
162.298125
 30
0.0
 11
177.550312
 21
160.565625
 31
0.0
  0
LINE
  5
41A
330
1F
100
AcDbEntity
  8
101
  6
Continuous
 62
     7
370
    30
100
AcDbLine
 10
167.217187
 20
164.21625
 30
0.0
 11
169.939687
 21
165.70125
 31
0.0
  0
LINE
  5
41B
330
1F
100
AcDbEntity
  8
101
  6
Continuous
 62
     7
370
    30
100
AcDbLine
 10
161.772187
 20
161.6175
 30
0.0
 11
167.217187
 21
164.21625
 31
0.0
  0
LINE
  5
41C
330
1F
100
AcDbEntity
  8
101
  6
Continuous
 62
     7
370
    30
100
AcDbLine
 10
151.872187
 20
160.00875
 30
0.0
 11
161.772187
 21
161.6175
 31
0.0
  0
LINE
  5
41D
330
1F
100
AcDbEntity
  8
101
  6
Continuous
 62
     7
370
    30
100
AcDbLine
 10
136.527187
 20
158.52375
 30
0.0
 11
151.872187
 21
160.00875
 31
0.0
  0
LINE
  5
41E
330
1F
100
AcDbEntity
  8
101
  6
Continuous
 62
     7
370
    30
100
AcDbLine
 10
114.499687
 20
158.52375
 30
0.0
 11
136.527187
 21
158.52375
 31
0.0
  0
LINE
  5
41F
330
1F
100
AcDbEntity
  8
101
  6
Continuous
 62
     7
370
    30
100
AcDbLine
 10
99.030937
 20
159.26625
 30
0.0
 11
114.499687
 21
158.52375
 31
0.0
  0
LINE
  5
420
330
1F
100
AcDbEntity
  8
101
  6
Continuous
 62
     7
370
    30
100
AcDbLine
 10
85.294687
 20
160.50375
 30
0.0
 11
99.030937
 21
159.26625
 31
0.0
  0
LINE
  5
421
330
1F
100
AcDbEntity
  8
101
  6
Continuous
 62
     7
370
    30
100
AcDbLine
 10
74.280937
 20
163.22625
 30
0.0
 11
85.294687
 21
160.50375
 31
0.0
  0
LINE
  5
422
330
1F
100
AcDbEntity
  8
101
  6
Continuous
 62
     7
370
    30
100
AcDbLine
 10
69.207187
 20
166.32
 30
0.0
 11
74.280937
 21
163.22625
 31
0.0
  0
LINE
  5
423
330
1F
100
AcDbEntity
  8
101
  6
Continuous
 62
     7
370
    30
100
AcDbLine
 10
180.025312
 20
156.54375
 30
0.0
 11
180.582187
 21
158.214375
 31
0.0
  0
LINE
  5
424
330
1F
100
AcDbEntity
  8
101
  6
Continuous
 62
     7
370
    30
100
AcDbLine
 10
177.797812
 20
154.254375
 30
0.0
 11
180.025312
 21
156.54375
 31
0.0
  0
LINE
  5
425
330
1F
100
AcDbEntity
  8
101
  6
Continuous
 62
     7
370
    30
100
AcDbLine
 10
174.085312
 20
152.33625
 30
0.0
 11
177.797812
 21
154.254375
 31
0.0
  0
LINE
  5
426
330
1F
100
AcDbEntity
  8
101
  6
Continuous
 62
     7
370
    30
100
AcDbLine
 10
167.835937
 20
150.418125
 30
0.0
 11
174.085312
 21
152.33625
 31
0.0
  0
LINE
  5
427
330
1F
100
AcDbEntity
  8
101
  6
Continuous
 62
     7
370
    30
100
AcDbLine
 10
158.554687
 20
148.5
 30
0.0
 11
167.835937
 21
150.418125
 31
0.0
  0
LINE
  5
428
330
1F
100
AcDbEntity
  8
101
  6
Continuous
 62
     7
370
    30
100
AcDbLine
 10
150.882187
 20
147.448125
 30
0.0
 11
158.554687
 21
148.5
 31
0.0
  0
LINE
  5
429
330
1F
100
AcDbEntity
  8
101
  6
Continuous
 62
     7
370
    30
100
AcDbLine
 10
139.249687
 20
146.829375
 30
0.0
 11
150.882187
 21
147.448125
 31
0.0
  0
LINE
  5
42A
330
1F
100
AcDbEntity
  8
101
  6
Continuous
 62
     7
370
    30
100
AcDbLine
 10
128.235937
 20
146.334375
 30
0.0
 11
139.249687
 21
146.829375
 31
0.0
  0
LINE
  5
42B
330
1F
100
AcDbEntity
  8
101
  6
Continuous
 62
     7
370
    30
100
AcDbLine
 10
118.274062
 20
146.581875
 30
0.0
 11
128.235937
 21
146.334375
 31
0.0
  0
LINE
  5
42C
330
1F
100
AcDbEntity
  8
101
  6
Continuous
 62
     7
370
    30
100
AcDbLine
 10
104.661562
 20
146.7675
 30
0.0
 11
118.274062
 21
146.581875
 31
0.0
  0
LINE
  5
42D
330
1F
100
AcDbEntity
  8
101
  6
Continuous
 62
     7
370
    30
100
AcDbLine
 10
94.885312
 20
147.63375
 30
0.0
 11
104.661562
 21
146.7675
 31
0.0
  0
LINE
  5
42E
330
1F
100
AcDbEntity
  8
101
  6
Continuous
 62
     7
370
    30
100
AcDbLine
 10
84.057187
 20
149.180625
 30
0.0
 11
94.885312
 21
147.63375
 31
0.0
  0
LINE
  5
42F
330
1F
100
AcDbEntity
  8
101
  6
Continuous
 62
     7
370
    30
100
AcDbLine
 10
75.580312
 20
151.09875
 30
0.0
 11
84.057187
 21
149.180625
 31
0.0
  0
LINE
  5
430
330
1F
100
AcDbEntity
  8
101
  6
Continuous
 62
     7
370
    30
100
AcDbLine
 10
70.382812
 20
152.274375
 30
0.0
 11
75.580312
 21
151.09875
 31
0.0
  0
LINE
  5
431
330
1F
100
AcDbEntity
  8
101
  6
Continuous
 62
     7
370
    30
100
AcDbLine
 10
65.123437
 20
154.56375
 30
0.0
 11
70.382812
 21
152.274375
 31
0.0
  0
LINE
  5
432
330
1F
100
AcDbEntity
  8
101
  6
Continuous
 62
     7
370
    30
100
AcDbLine
 10
61.596562
 20
156.915
 30
0.0
 11
65.123437
 21
154.56375
 31
0.0
  0
LINE
  5
433
330
1F
100
AcDbEntity
  8
101
  6
Continuous
 62
     7
370
    30
100
AcDbLine
 10
59.996376
 20
158.829398
 30
0.0
 11
61.596562
 21
156.915
 31
0.0
  0
LINE
  5
434
330
1F
100
AcDbEntity
  8
101
  6
Continuous
 62
     7
370
    30
100
AcDbLine
 10
60.111562
 20
143.7975
 30
0.0
 11
59.987813
 21
159.946875
 31
0.0
  0
LINE
  5
435
330
1F
100
AcDbEntity
  8
101
  6
Continuous
 62
     7
370
    30
100
AcDbLine
 10
60.544687
 20
141.94125
 30
0.0
 11
60.111562
 21
143.7975
 31
0.0
  0
LINE
  5
436
330
1F
100
AcDbEntity
  8
101
  6
Continuous
 62
     7
370
    30
100
AcDbLine
 10
63.6075
 20
138.72375
 30
0.0
 11
60.544687
 21
141.94125
 31
0.0
  0
LINE
  5
437
330
1F
100
AcDbEntity
  8
101
  6
Continuous
 62
     7
370
    30
100
AcDbLine
 10
68.031562
 20
135.568125
 30
0.0
 11
63.6075
 21
138.72375
 31
0.0
  0
LINE
  5
438
330
1F
100
AcDbEntity
  8
101
  6
Continuous
 62
     7
370
    30
100
AcDbLine
 10
73.724062
 20
133.340625
 30
0.0
 11
68.031562
 21
135.568125
 31
0.0
  0
LINE
  5
439
330
1F
100
AcDbEntity
  8
101
  6
Continuous
 62
     7
370
    30
100
AcDbLine
 10
80.715937
 20
130.989375
 30
0.0
 11
73.724062
 21
133.340625
 31
0.0
  0
LINE
  5
43A
330
1F
100
AcDbEntity
  8
101
  6
Continuous
 62
     7
370
    30
100
AcDbLine
 10
91.172812
 20
128.7
 30
0.0
 11
80.715937
 21
130.989375
 31
0.0
  0
LINE
  5
43B
330
1F
100
AcDbEntity
  8
101
  6
Continuous
 62
     7
370
    30
100
AcDbLine
 10
101.877187
 20
127.09125
 30
0.0
 11
91.172812
 21
128.7
 31
0.0
  0
LINE
  5
43C
330
1F
100
AcDbEntity
  8
101
  6
Continuous
 62
     7
370
    30
100
AcDbLine
 10
109.240312
 20
126.534375
 30
0.0
 11
101.877187
 21
127.09125
 31
0.0
  0
LINE
  5
43D
330
1F
100
AcDbEntity
  8
101
  6
Continuous
 62
     7
370
    30
100
AcDbLine
 10
118.645312
 20
125.9775
 30
0.0
 11
109.240312
 21
126.534375
 31
0.0
  0
LINE
  5
43E
330
1F
100
AcDbEntity
  8
101
  6
Continuous
 62
     7
370
    30
100
AcDbLine
 10
127.555312
 20
125.9775
 30
0.0
 11
118.645312
 21
125.9775
 31
0.0
  0
LINE
  5
43F
330
1F
100
AcDbEntity
  8
101
  6
Continuous
 62
     7
370
    30
100
AcDbLine
 10
136.094062
 20
126.4725
 30
0.0
 11
127.555312
 21
125.9775
 31
0.0
  0
LINE
  5
440
330
1F
100
AcDbEntity
  8
101
  6
Continuous
 62
     7
370
    30
100
AcDbLine
 10
142.900312
 20
127.029375
 30
0.0
 11
136.094062
 21
126.4725
 31
0.0
  0
LINE
  5
441
330
1F
100
AcDbEntity
  8
101
  6
Continuous
 62
     7
370
    30
100
AcDbLine
 10
151.005937
 20
128.205
 30
0.0
 11
142.900312
 21
127.029375
 31
0.0
  0
LINE
  5
442
330
1F
100
AcDbEntity
  8
101
  6
Continuous
 62
     7
370
    30
100
AcDbLine
 10
159.420937
 20
129.751875
 30
0.0
 11
151.005937
 21
128.205
 31
0.0
  0
LINE
  5
443
330
1F
100
AcDbEntity
  8
101
  6
Continuous
 62
     7
370
    30
100
AcDbLine
 10
167.155312
 20
132.103125
 30
0.0
 11
159.420937
 21
129.751875
 31
0.0
  0
LINE
  5
444
330
1F
100
AcDbEntity
  8
101
  6
Continuous
 62
     7
370
    30
100
AcDbLine
 10
172.043437
 20
134.02125
 30
0.0
 11
167.155312
 21
132.103125
 31
0.0
  0
LINE
  5
445
330
1F
100
AcDbEntity
  8
101
  6
Continuous
 62
     7
370
    30
100
AcDbLine
 10
176.312812
 20
136.62
 30
0.0
 11
172.043437
 21
134.02125
 31
0.0
  0
LINE
  5
446
330
1F
100
AcDbEntity
  8
101
  6
Continuous
 62
     7
370
    30
100
AcDbLine
 10
179.159062
 20
139.156875
 30
0.0
 11
176.312812
 21
136.62
 31
0.0
  0
LINE
  5
447
330
1F
100
AcDbEntity
  8
101
  6
Continuous
 62
     7
370
    30
100
AcDbLine
 10
180.458437
 20
141.384375
 30
0.0
 11
179.159062
 21
139.156875
 31
0.0
  0
LINE
  5
448
330
1F
100
AcDbEntity
  8
101
  6
Continuous
 62
     7
370
    30
100
AcDbLine
 10
180.582187
 20
156.79125
 30
0.0
 11
180.458437
 21
141.384375
 31
0.0
  0
LINE
  5
449
330
1F
100
AcDbEntity
  8
101
  6
Continuous
 62
     7
370
    30
100
AcDbLine
 10
180.582187
 20
159.575625
 30
0.0
 11
180.582187
 21
156.79125
 31
0.0
  0
LINE
  5
44A
330
1F
100
AcDbEntity
  8
101
  6
Continuous
 62
     7
370
    30
100
AcDbLine
 10
179.592187
 20
161.926875
 30
0.0
 11
180.582187
 21
159.575625
 31
0.0
  0
LINE
  5
44B
330
1F
100
AcDbEntity
  8
101
  6
Continuous
 62
     7
370
    30
100
AcDbLine
 10
177.240938
 20
164.401875
 30
0.0
 11
179.592187
 21
161.926875
 31
0.0
  0
LINE
  5
44C
330
1F
100
AcDbEntity
  8
101
  6
Continuous
 62
     7
370
    30
100
AcDbLine
 10
174.642188
 20
166.134375
 30
0.0
 11
177.240938
 21
164.401875
 31
0.0
  0
LINE
  5
44D
330
1F
100
AcDbEntity
  8
101
  6
Continuous
 62
     7
370
    30
100
AcDbLine
 10
171.053438
 20
167.92875
 30
0.0
 11
174.642188
 21
166.134375
 31
0.0
  0
LINE
  5
44E
330
1F
100
AcDbEntity
  8
101
  6
Continuous
 62
     7
370
    30
100
AcDbLine
 10
170.496563
 20
186.181875
 30
0.0
 11
171.053438
 21
167.92875
 31
0.0
  0
LINE
  5
44F
330
1F
100
AcDbEntity
  8
101
  6
Continuous
 62
     7
370
    30
100
AcDbLine
 10
170.063438
 20
188.038125
 30
0.0
 11
170.496563
 21
186.181875
 31
0.0
  0
LINE
  5
450
330
1F
100
AcDbEntity
  8
101
  6
Continuous
 62
     7
370
    30
100
AcDbLine
 10
168.207188
 20
190.45125
 30
0.0
 11
170.063438
 21
188.038125
 31
0.0
  0
LINE
  5
451
330
1F
100
AcDbEntity
  8
101
  6
Continuous
 62
     7
370
    30
100
AcDbLine
 10
165.794063
 20
192.245625
 30
0.0
 11
168.207188
 21
190.45125
 31
0.0
  0
LINE
  5
452
330
1F
100
AcDbEntity
  8
101
  6
Continuous
 62
     7
370
    30
100
AcDbLine
 10
162.947813
 20
193.483125
 30
0.0
 11
165.794063
 21
192.245625
 31
0.0
  0
LINE
  5
453
330
1F
100
AcDbEntity
  8
101
  6
Continuous
 62
     7
370
    30
100
AcDbLine
 10
157.502813
 20
194.844375
 30
0.0
 11
162.947813
 21
193.483125
 31
0.0
  0
LINE
  5
454
330
1F
100
AcDbEntity
  8
101
  6
Continuous
 62
     7
370
    30
100
AcDbLine
 10
151.439063
 20
195.64875
 30
0.0
 11
157.502813
 21
194.844375
 31
0.0
  0
LINE
  5
455
330
1F
100
AcDbEntity
  8
101
  6
Continuous
 62
     7
370
    30
100
AcDbLine
 10
143.828438
 20
196.329375
 30
0.0
 11
151.439063
 21
195.64875
 31
0.0
  0
LINE
  5
456
330
1F
100
AcDbEntity
  8
101
  6
Continuous
 62
     7
370
    30
100
AcDbLine
 10
133.619063
 20
196.948125
 30
0.0
 11
143.828438
 21
196.329375
 31
0.0
  0
LINE
  5
457
330
1F
100
AcDbEntity
  8
101
  6
Continuous
 62
     7
370
    30
100
AcDbLine
 10
122.914688
 20
197.13375
 30
0.0
 11
133.619063
 21
196.948125
 31
0.0
  0
LINE
  5
458
330
1F
100
AcDbEntity
  8
101
  6
Continuous
 62
     7
370
    30
100
AcDbLine
 10
112.767188
 20
196.948125
 30
0.0
 11
122.914688
 21
197.13375
 31
0.0
  0
LINE
  5
459
330
1F
100
AcDbEntity
  8
101
  6
Continuous
 62
     7
370
    30
100
AcDbLine
 10
101.629688
 20
196.515
 30
0.0
 11
112.767188
 21
196.948125
 31
0.0
  0
LINE
  5
45A
330
1F
100
AcDbEntity
  8
101
  6
Continuous
 62
     7
370
    30
100
AcDbLine
 10
88.450313
 20
195.463125
 30
0.0
 11
101.629688
 21
196.515
 31
0.0
  0
LINE
  5
45B
330
1F
100
AcDbEntity
  8
101
  6
Continuous
 62
     7
370
    30
100
AcDbLine
 10
82.510313
 20
194.596875
 30
0.0
 11
88.450313
 21
195.463125
 31
0.0
  0
LINE
  5
45C
330
1F
100
AcDbEntity
  8
101
  6
Continuous
 62
     7
370
    30
100
AcDbLine
 10
79.416563
 20
194.101875
 30
0.0
 11
82.510313
 21
194.596875
 31
0.0
  0
LINE
  5
45D
330
1F
100
AcDbEntity
  8
101
  6
Continuous
 62
     7
370
    30
100
AcDbLine
 10
75.209063
 20
192.616875
 30
0.0
 11
79.416563
 21
194.101875
 31
0.0
  0
LINE
  5
45E
330
1F
100
AcDbEntity
  8
101
  6
Continuous
 62
     7
370
    30
100
AcDbLine
 10
71.187188
 20
189.95625
 30
0.0
 11
75.209063
 21
192.616875
 31
0.0
  0
LINE
  5
45F
330
1F
100
AcDbEntity
  8
101
  6
Continuous
 62
     7
370
    30
100
AcDbLine
 10
69.145313
 20
187.790625
 30
0.0
 11
71.187188
 21
189.95625
 31
0.0
  0
LINE
  5
460
330
1F
100
AcDbEntity
  8
101
  6
Continuous
 62
     7
370
    30
100
AcDbLine
 10
67.598438
 20
185.25375
 30
0.0
 11
69.145313
 21
187.790625
 31
0.0
  0
LINE
  5
461
330
1F
100
AcDbEntity
  8
101
  6
Continuous
 62
     7
370
    30
100
AcDbLine
 10
66.979688
 20
181.78875
 30
0.0
 11
67.598438
 21
185.25375
 31
0.0
  0
LINE
  5
462
330
1F
100
AcDbEntity
  8
101
  6
Continuous
 62
     7
370
    30
100
AcDbLine
 10
66.917813
 20
178.385625
 30
0.0
 11
66.979688
 21
181.78875
 31
0.0
  0
LINE
  5
463
330
1F
100
AcDbEntity
  8
101
  6
Continuous
 62
     7
370
    30
100
AcDbLine
 10
66.917813
 20
174.61125
 30
0.0
 11
66.917813
 21
178.385625
 31
0.0
  0
LINE
  5
464
330
1F
100
AcDbEntity
  8
101
  6
Continuous
 62
     7
370
    30
100
AcDbLine
 10
67.041563
 20
170.341875
 30
0.0
 11
66.917813
 21
174.61125
 31
0.0
  0
LINE
  5
465
330
1F
100
AcDbEntity
  8
101
  6
Continuous
 62
     7
370
    30
100
AcDbLine
 10
70.011563
 20
187.48125
 30
0.0
 11
71.496563
 21
189.151875
 31
0.0
  0
LINE
  5
466
330
1F
100
AcDbEntity
  8
101
  6
Continuous
 62
     7
370
    30
100
AcDbLine
 10
69.392813
 20
184.573125
 30
0.0
 11
70.011563
 21
187.48125
 31
0.0
  0
LINE
  5
467
330
1F
100
AcDbEntity
  8
101
  6
Continuous
 62
     7
370
    30
100
AcDbLine
 10
69.516563
 20
179.870625
 30
0.0
 11
69.392813
 21
184.573125
 31
0.0
  0
LINE
  5
468
330
1F
100
AcDbEntity
  8
101
  6
Continuous
 62
     7
370
    30
100
AcDbLine
 10
69.516563
 20
173.806875
 30
0.0
 11
69.516563
 21
179.870625
 31
0.0
  0
LINE
  5
469
330
1F
100
AcDbEntity
  8
101
  6
Continuous
 62
     7
370
    30
100
AcDbLine
 10
69.640313
 20
169.723125
 30
0.0
 11
69.516563
 21
173.806875
 31
0.0
  0
LINE
  5
46A
330
1F
100
AcDbEntity
  8
101
  6
Continuous
 62
     7
370
    30
100
AcDbLine
 10
68.897813
 20
168.361875
 30
0.0
 11
69.640313
 21
169.723125
 31
0.0
  0
LINE
  5
46B
330
1F
100
AcDbEntity
  8
101
  6
Continuous
 62
     7
370
    30
100
AcDbLine
 10
67.041563
 20
167.248125
 30
0.0
 11
68.897813
 21
168.361875
 31
0.0
  0
LINE
  5
46C
330
1F
100
AcDbEntity
  8
101
  6
Continuous
 62
     7
370
    30
100
AcDbLine
 10
64.071563
 20
166.010625
 30
0.0
 11
67.041563
 21
167.248125
 31
0.0
  0
LINE
  5
46D
330
1F
100
AcDbEntity
  8
101
  6
Continuous
 62
     7
370
    30
100
AcDbLine
 10
62.339063
 20
164.401875
 30
0.0
 11
64.071563
 21
166.010625
 31
0.0
  0
LINE
  5
46E
330
1F
100
AcDbEntity
  8
101
  6
Continuous
 62
     7
370
    30
100
AcDbLine
 10
60.730313
 20
162.298125
 30
0.0
 11
62.339063
 21
164.401875
 31
0.0
  0
LINE
  5
46F
330
1F
100
AcDbEntity
  8
101
  6
Continuous
 62
     7
370
    30
100
AcDbLine
 10
59.987813
 20
159.946875
 30
0.0
 11
60.730313
 21
162.298125
 31
0.0
  0
LINE
  5
470
330
1F
100
AcDbEntity
  8
101
  6
Continuous
 62
     7
370
    30
100
AcDbLine
 10
70.011563
 20
193.854375
 30
0.0
 11
75.704063
 21
193.606875
 31
0.0
  0
LINE
  5
471
330
1F
100
AcDbEntity
  8
101
  6
Continuous
 62
     7
370
    30
100
AcDbLine
 10
68.526563
 20
196.081875
 30
0.0
 11
70.011563
 21
193.854375
 31
0.0
  0
LINE
  5
472
330
1F
100
AcDbEntity
  8
101
  6
Continuous
 62
     7
370
    30
100
AcDbLine
 10
66.175313
 20
193.483125
 30
0.0
 11
70.011563
 21
193.854375
 31
0.0
  0
LINE
  5
473
330
1F
100
AcDbEntity
  8
101
  6
Continuous
 62
     7
370
    30
100
AcDbLine
 10
56.770313
 20
192.493125
 30
0.0
 11
66.175313
 21
193.483125
 31
0.0
  0
LINE
  5
474
330
1F
100
AcDbEntity
  8
101
  6
Continuous
 62
     7
370
    30
100
AcDbLine
 10
47.736563
 20
191.874375
 30
0.0
 11
56.770313
 21
192.493125
 31
0.0
  0
LINE
  5
475
330
1F
100
AcDbEntity
  8
101
  6
Continuous
 62
     7
370
    30
100
AcDbLine
 10
42.910313
 20
175.168125
 30
0.0
 11
42.788623
 21
169.661319
 31
0.0
  0
LINE
  5
476
330
1F
100
AcDbEntity
  8
101
  6
Continuous
 62
     7
370
    30
100
AcDbLine
 10
42.910313
 20
187.171875
 30
0.0
 11
42.910313
 21
175.168125
 31
0.0
  0
LINE
  5
477
330
1F
100
AcDbEntity
  8
101
  6
Continuous
 62
     7
370
    30
100
AcDbLine
 10
43.900313
 20
188.780625
 30
0.0
 11
42.910313
 21
187.171875
 31
0.0
  0
LINE
  5
478
330
1F
100
AcDbEntity
  8
101
  6
Continuous
 62
     7
370
    30
100
AcDbLine
 10
63.576563
 20
167.619375
 30
0.0
 11
64.071563
 21
166.010625
 31
0.0
  0
LINE
  5
479
330
1F
100
AcDbEntity
  8
101
  6
Continuous
 62
     7
370
    30
100
AcDbLine
 10
60.111563
 20
168.114375
 30
0.0
 11
63.576563
 21
167.619375
 31
0.0
  0
LINE
  5
47A
330
1F
100
AcDbEntity
  8
101
  6
Continuous
 62
     7
370
    30
100
AcDbLine
 10
53.924063
 20
168.856875
 30
0.0
 11
60.111563
 21
168.114375
 31
0.0
  0
LINE
  5
47B
330
1F
100
AcDbEntity
  8
101
  6
Continuous
 62
     7
370
    30
100
AcDbLine
 10
46.499063
 20
169.599375
 30
0.0
 11
53.924063
 21
168.856875
 31
0.0
  0
LINE
  5
47C
330
1F
100
AcDbEntity
  8
101
  6
Continuous
 62
     7
370
    30
100
AcDbLine
 10
44.642813
 20
169.723125
 30
0.0
 11
46.499063
 21
169.599375
 31
0.0
  0
LINE
  5
47D
330
1F
100
AcDbEntity
  8
101
  6
Continuous
 62
     7
370
    30
100
AcDbLine
 10
40.930313
 20
169.599375
 30
0.0
 11
44.642813
 21
169.723125
 31
0.0
  0
LINE
  5
47E
330
1F
100
AcDbEntity
  8
101
  6
Continuous
 62
     7
370
    30
100
AcDbLine
 10
67.660313
 20
187.914375
 30
0.0
 11
69.145313
 21
187.790625
 31
0.0
  0
LINE
  5
47F
330
1F
100
AcDbEntity
  8
101
  6
Continuous
 62
     7
370
    30
100
AcDbLine
 10
61.596563
 20
188.285625
 30
0.0
 11
67.660313
 21
187.914375
 31
0.0
  0
LINE
  5
480
330
1F
100
AcDbEntity
  8
101
  6
Continuous
 62
     7
370
    30
100
AcDbLine
 10
55.656563
 20
188.780625
 30
0.0
 11
61.596563
 21
188.285625
 31
0.0
  0
LINE
  5
481
330
1F
100
AcDbEntity
  8
101
  6
Continuous
 62
     7
370
    30
100
AcDbLine
 10
50.706563
 20
189.028125
 30
0.0
 11
55.656563
 21
188.780625
 31
0.0
  0
LINE
  5
482
330
1F
100
AcDbEntity
  8
101
  6
Continuous
 62
     7
370
    30
100
AcDbLine
 10
46.127813
 20
189.523125
 30
0.0
 11
50.706563
 21
189.028125
 31
0.0
  0
LINE
  5
483
330
1F
100
AcDbEntity
  8
101
  6
Continuous
 62
     7
370
    30
100
AcDbLine
 10
45.014063
 20
190.884375
 30
0.0
 11
46.127813
 21
189.523125
 31
0.0
  0
LINE
  5
484
330
1F
100
AcDbEntity
  8
101
  6
Continuous
 62
     7
370
    30
100
AcDbLine
 10
79.787813
 20
201.34125
 30
0.0
 11
79.255866
 21
201.203585
 31
0.0
  0
LINE
  5
485
330
1F
100
AcDbEntity
  8
101
  6
Continuous
 62
     7
370
    30
100
AcDbLine
 10
80.282813
 20
201.7125
 30
0.0
 11
79.787813
 21
201.34125
 31
0.0
  0
LINE
  5
486
330
1F
100
AcDbEntity
  8
101
  6
Continuous
 62
     7
370
    30
100
AcDbLine
 10
80.685
 20
202.485937
 30
0.0
 11
80.282813
 21
201.7125
 31
0.0
  0
LINE
  5
487
330
1F
100
AcDbEntity
  8
101
  6
Continuous
 62
     7
370
    30
100
AcDbLine
 10
80.870625
 20
203.352187
 30
0.0
 11
80.685
 21
202.485937
 31
0.0
  0
LINE
  5
488
330
1F
100
AcDbEntity
  8
101
  6
Continuous
 62
     7
370
    30
100
AcDbLine
 10
80.777813
 20
204.496875
 30
0.0
 11
80.870625
 21
203.352187
 31
0.0
  0
LINE
  5
489
330
1F
100
AcDbEntity
  8
101
  6
Continuous
 62
     7
370
    30
100
AcDbLine
 10
80.406563
 20
205.394062
 30
0.0
 11
80.777813
 21
204.496875
 31
0.0
  0
LINE
  5
48A
330
1F
100
AcDbEntity
  8
101
  6
Continuous
 62
     7
370
    30
100
AcDbLine
 10
79.695
 20
205.765312
 30
0.0
 11
80.406563
 21
205.394062
 31
0.0
  0
LINE
  5
48B
330
1F
100
AcDbEntity
  8
101
  6
Continuous
 62
     7
370
    30
100
AcDbLine
 10
78.921563
 20
205.858125
 30
0.0
 11
79.695
 21
205.765312
 31
0.0
  0
LINE
  5
48C
330
1F
100
AcDbEntity
  8
101
  6
Continuous
 62
     7
370
    30
100
AcDbLine
 10
78.58125
 20
205.455937
 30
0.0
 11
78.921563
 21
205.858125
 31
0.0
  0
LINE
  5
48D
330
1F
100
AcDbEntity
  8
101
  6
Continuous
 62
     7
370
    30
100
AcDbLine
 10
78.395625
 20
204.249375
 30
0.0
 11
78.58125
 21
205.455937
 31
0.0
  0
LINE
  5
48E
330
1F
100
AcDbEntity
  8
101
  6
Continuous
 62
     7
370
    30
100
AcDbLine
 10
78.364688
 20
203.290312
 30
0.0
 11
78.395625
 21
204.249375
 31
0.0
  0
LINE
  5
48F
330
1F
100
AcDbEntity
  8
101
  6
Continuous
 62
     7
370
    30
100
AcDbLine
 10
78.58125
 20
202.176562
 30
0.0
 11
78.364688
 21
203.290312
 31
0.0
  0
LINE
  5
490
330
1F
100
AcDbEntity
  8
101
  6
Continuous
 62
     7
370
    30
100
AcDbLine
 10
79.107188
 20
201.34125
 30
0.0
 11
78.58125
 21
202.176562
 31
0.0
  0
LINE
  5
491
330
1F
100
AcDbEntity
  8
101
  6
Continuous
 62
     7
370
    30
100
AcDbLine
 10
79.9425
 20
200.567812
 30
0.0
 11
79.107188
 21
201.34125
 31
0.0
  0
LINE
  5
492
330
1F
100
AcDbEntity
  8
101
  6
Continuous
 62
     7
370
    30
100
AcDbLine
 10
80.994375
 20
200.289375
 30
0.0
 11
79.9425
 21
200.567812
 31
0.0
  0
LINE
  5
493
330
1F
100
AcDbEntity
  8
101
  6
Continuous
 62
     7
370
    30
100
AcDbLine
 10
82.015313
 20
200.289375
 30
0.0
 11
80.994375
 21
200.289375
 31
0.0
  0
LINE
  5
494
330
1F
100
AcDbEntity
  8
101
  6
Continuous
 62
     7
370
    30
100
AcDbLine
 10
82.510313
 20
200.908125
 30
0.0
 11
82.015313
 21
200.289375
 31
0.0
  0
LINE
  5
495
330
1F
100
AcDbEntity
  8
101
  6
Continuous
 62
     7
370
    30
100
AcDbLine
 10
82.757813
 20
201.805312
 30
0.0
 11
82.510313
 21
200.908125
 31
0.0
  0
LINE
  5
496
330
1F
100
AcDbEntity
  8
101
  6
Continuous
 62
     7
370
    30
100
AcDbLine
 10
83.098125
 20
202.733437
 30
0.0
 11
82.757813
 21
201.805312
 31
0.0
  0
LINE
  5
497
330
1F
100
AcDbEntity
  8
101
  6
Continuous
 62
     7
370
    30
100
AcDbLine
 10
83.098125
 20
203.56875
 30
0.0
 11
83.098125
 21
202.733437
 31
0.0
  0
LINE
  5
498
330
1F
100
AcDbEntity
  8
101
  6
Continuous
 62
     7
370
    30
100
AcDbLine
 10
83.005313
 20
204.342187
 30
0.0
 11
83.098125
 21
203.56875
 31
0.0
  0
LINE
  5
499
330
1F
100
AcDbEntity
  8
101
  6
Continuous
 62
     7
370
    30
100
AcDbLine
 10
82.974375
 20
204.93
 30
0.0
 11
83.005313
 21
204.342187
 31
0.0
  0
LINE
  5
49A
330
1F
100
AcDbEntity
  8
101
  6
Continuous
 62
     7
370
    30
100
AcDbLine
 10
82.819688
 20
205.425
 30
0.0
 11
82.974375
 21
204.93
 31
0.0
  0
LINE
  5
49B
330
1F
100
AcDbEntity
  8
101
  6
Continuous
 62
     7
370
    30
100
AcDbLine
 10
82.54125
 20
206.29125
 30
0.0
 11
82.819688
 21
205.425
 31
0.0
  0
LINE
  5
49C
330
1F
100
AcDbEntity
  8
101
  6
Continuous
 62
     7
370
    30
100
AcDbLine
 10
81.675
 20
206.91
 30
0.0
 11
82.54125
 21
206.29125
 31
0.0
  0
LINE
  5
49D
330
1F
100
AcDbEntity
  8
101
  6
Continuous
 62
     7
370
    30
100
AcDbLine
 10
80.746875
 20
207.002812
 30
0.0
 11
81.675
 21
206.91
 31
0.0
  0
LINE
  5
49E
330
1F
100
AcDbEntity
  8
101
  6
Continuous
 62
     7
370
    30
100
AcDbLine
 10
79.849688
 20
206.755312
 30
0.0
 11
80.746875
 21
207.002812
 31
0.0
  0
LINE
  5
49F
330
1F
100
AcDbEntity
  8
101
  6
Continuous
 62
     7
370
    30
100
AcDbLine
 10
78.921563
 20
205.858125
 30
0.0
 11
79.849688
 21
206.755312
 31
0.0
  0
LINE
  5
4A0
330
1F
100
AcDbEntity
  8
101
  6
Continuous
 62
     7
370
    30
100
AcDbLine
 10
26.4825
 20
194.813438
 30
0.0
 11
25.637859
 21
195.592682
 31
0.0
  0
LINE
  5
4A1
330
1F
100
AcDbEntity
  8
101
  6
Continuous
 62
     7
370
    30
100
AcDbLine
 10
27.194063
 20
194.442188
 30
0.0
 11
26.4825
 21
194.813438
 31
0.0
  0
LINE
  5
4A2
330
1F
100
AcDbEntity
  8
101
  6
Continuous
 62
     7
370
    30
100
AcDbLine
 10
28.060313
 20
194.504063
 30
0.0
 11
27.194063
 21
194.442188
 31
0.0
  0
LINE
  5
4A3
330
1F
100
AcDbEntity
  8
101
  6
Continuous
 62
     7
370
    30
100
AcDbLine
 10
29.050313
 20
194.875313
 30
0.0
 11
28.060313
 21
194.504063
 31
0.0
  0
LINE
  5
4A4
330
1F
100
AcDbEntity
  8
101
  6
Continuous
 62
     7
370
    30
100
AcDbLine
 10
29.607188
 20
195.710625
 30
0.0
 11
29.050313
 21
194.875313
 31
0.0
  0
LINE
  5
4A5
330
1F
100
AcDbEntity
  8
101
  6
Continuous
 62
     7
370
    30
100
AcDbLine
 10
29.885625
 20
196.793438
 30
0.0
 11
29.607188
 21
195.710625
 31
0.0
  0
LINE
  5
4A6
330
1F
100
AcDbEntity
  8
101
  6
Continuous
 62
     7
370
    30
100
AcDbLine
 10
29.854688
 20
198.185625
 30
0.0
 11
29.885625
 21
196.793438
 31
0.0
  0
LINE
  5
4A7
330
1F
100
AcDbEntity
  8
101
  6
Continuous
 62
     7
370
    30
100
AcDbLine
 10
29.359688
 20
199.36125
 30
0.0
 11
29.854688
 21
198.185625
 31
0.0
  0
LINE
  5
4A8
330
1F
100
AcDbEntity
  8
101
  6
Continuous
 62
     7
370
    30
100
AcDbLine
 10
28.71
 20
199.918125
 30
0.0
 11
29.359688
 21
199.36125
 31
0.0
  0
LINE
  5
4A9
330
1F
100
AcDbEntity
  8
101
  6
Continuous
 62
     7
370
    30
100
AcDbLine
 10
27.812813
 20
200.010938
 30
0.0
 11
28.71
 21
199.918125
 31
0.0
  0
LINE
  5
4AA
330
1F
100
AcDbEntity
  8
101
  6
Continuous
 62
     7
370
    30
100
AcDbLine
 10
26.760938
 20
199.763438
 30
0.0
 11
27.812813
 21
200.010938
 31
0.0
  0
LINE
  5
4AB
330
1F
100
AcDbEntity
  8
101
  6
Continuous
 62
     7
370
    30
100
AcDbLine
 10
25.905879
 20
199.285744
 30
0.0
 11
26.760938
 21
199.763438
 31
0.0
  0
LINE
  5
4AC
330
1F
100
AcDbEntity
  8
101
  6
Continuous
 62
     7
370
    30
100
AcDbLine
 10
25.430625
 20
197.2575
 30
0.0
 11
25.678125
 21
198.61875
 31
0.0
  0
LINE
  5
4AD
330
1F
100
AcDbEntity
  8
101
  6
Continuous
 62
     7
370
    30
100
AcDbLine
 10
25.399688
 20
196.2675
 30
0.0
 11
25.430625
 21
197.2575
 31
0.0
  0
LINE
  5
4AE
330
1F
100
AcDbEntity
  8
101
  6
Continuous
 62
     7
370
    30
100
AcDbLine
 10
25.770938
 20
195.215625
 30
0.0
 11
25.399688
 21
196.2675
 31
0.0
  0
LINE
  5
4AF
330
1F
100
AcDbEntity
  8
101
  6
Continuous
 62
     7
370
    30
100
AcDbLine
 10
26.35875
 20
194.318438
 30
0.0
 11
25.770938
 21
195.215625
 31
0.0
  0
LINE
  5
4B0
330
1F
100
AcDbEntity
  8
101
  6
Continuous
 62
     7
370
    30
100
AcDbLine
 10
27.286875
 20
193.606875
 30
0.0
 11
26.35875
 21
194.318438
 31
0.0
  0
LINE
  5
4B1
330
1F
100
AcDbEntity
  8
101
  6
Continuous
 62
     7
370
    30
100
AcDbLine
 10
28.431563
 20
192.988125
 30
0.0
 11
27.286875
 21
193.606875
 31
0.0
  0
LINE
  5
4B2
330
1F
100
AcDbEntity
  8
101
  6
Continuous
 62
     7
370
    30
100
AcDbLine
 10
29.7
 20
192.895313
 30
0.0
 11
28.431563
 21
192.988125
 31
0.0
  0
LINE
  5
4B3
330
1F
100
AcDbEntity
  8
101
  6
Continuous
 62
     7
370
    30
100
AcDbLine
 10
30.844688
 20
193.328438
 30
0.0
 11
29.7
 21
192.895313
 31
0.0
  0
LINE
  5
4B4
330
1F
100
AcDbEntity
  8
101
  6
Continuous
 62
     7
370
    30
100
AcDbLine
 10
31.55625
 20
194.442188
 30
0.0
 11
30.844688
 21
193.328438
 31
0.0
  0
LINE
  5
4B5
330
1F
100
AcDbEntity
  8
101
  6
Continuous
 62
     7
370
    30
100
AcDbLine
 10
32.05125
 20
195.64875
 30
0.0
 11
31.55625
 21
194.442188
 31
0.0
  0
LINE
  5
4B6
330
1F
100
AcDbEntity
  8
101
  6
Continuous
 62
     7
370
    30
100
AcDbLine
 10
32.329688
 20
197.01
 30
0.0
 11
32.05125
 21
195.64875
 31
0.0
  0
LINE
  5
4B7
330
1F
100
AcDbEntity
  8
101
  6
Continuous
 62
     7
370
    30
100
AcDbLine
 10
32.236875
 20
198.433125
 30
0.0
 11
32.329688
 21
197.01
 31
0.0
  0
LINE
  5
4B8
330
1F
100
AcDbEntity
  8
101
  6
Continuous
 62
     7
370
    30
100
AcDbLine
 10
31.896563
 20
199.825313
 30
0.0
 11
32.236875
 21
198.433125
 31
0.0
  0
LINE
  5
4B9
330
1F
100
AcDbEntity
  8
101
  6
Continuous
 62
     7
370
    30
100
AcDbLine
 10
31.30875
 20
200.691563
 30
0.0
 11
31.896563
 21
199.825313
 31
0.0
  0
LINE
  5
4BA
330
1F
100
AcDbEntity
  8
101
  6
Continuous
 62
     7
370
    30
100
AcDbLine
 10
30.287813
 20
201.34125
 30
0.0
 11
31.30875
 21
200.691563
 31
0.0
  0
LINE
  5
4BB
330
1F
100
AcDbEntity
  8
101
  6
Continuous
 62
     7
370
    30
100
AcDbLine
 10
29.390625
 20
201.434063
 30
0.0
 11
30.287813
 21
201.34125
 31
0.0
  0
LINE
  5
4BC
330
1F
100
AcDbEntity
  8
101
  6
Continuous
 62
     7
370
    30
100
AcDbLine
 10
28.215
 20
201.34125
 30
0.0
 11
29.390625
 21
201.434063
 31
0.0
  0
LINE
  5
4BD
330
1F
100
AcDbEntity
  8
101
  6
Continuous
 62
     7
370
    30
100
AcDbLine
 10
27.039375
 20
200.877188
 30
0.0
 11
28.215
 21
201.34125
 31
0.0
  0
LINE
  5
4BE
330
1F
100
AcDbEntity
  8
101
  6
Continuous
 62
     7
370
    30
100
AcDbLine
 10
26.11125
 20
199.887188
 30
0.0
 11
27.039375
 21
200.877188
 31
0.0
  0
LINE
  5
4BF
330
1F
100
AcDbEntity
  8
101
  6
Continuous
 62
     7
370
    30
100
AcDbLine
 10
25.678125
 20
198.61875
 30
0.0
 11
26.11125
 21
199.887188
 31
0.0
  0
LINE
  5
4C0
330
1F
100
AcDbEntity
  8
101
  6
Continuous
 62
     7
370
    30
100
AcDbLine
 10
56.368125
 20
132.257813
 30
0.0
 11
55.525286
 21
132.473861
 31
0.0
  0
LINE
  5
4C1
330
1F
100
AcDbEntity
  8
101
  6
Continuous
 62
     7
370
    30
100
AcDbLine
 10
57.079688
 20
132.350625
 30
0.0
 11
56.368125
 21
132.257813
 31
0.0
  0
LINE
  5
4C2
330
1F
100
AcDbEntity
  8
101
  6
Continuous
 62
     7
370
    30
100
AcDbLine
 10
57.853125
 20
132.9075
 30
0.0
 11
57.079688
 21
132.350625
 31
0.0
  0
LINE
  5
4C3
330
1F
100
AcDbEntity
  8
101
  6
Continuous
 62
     7
370
    30
100
AcDbLine
 10
58.440938
 20
133.866563
 30
0.0
 11
57.853125
 21
132.9075
 31
0.0
  0
LINE
  5
4C4
330
1F
100
AcDbEntity
  8
101
  6
Continuous
 62
     7
370
    30
100
AcDbLine
 10
58.750313
 20
135.042188
 30
0.0
 11
58.440938
 21
133.866563
 31
0.0
  0
LINE
  5
4C5
330
1F
100
AcDbEntity
  8
101
  6
Continuous
 62
     7
370
    30
100
AcDbLine
 10
58.688438
 20
136.341563
 30
0.0
 11
58.750313
 21
135.042188
 31
0.0
  0
LINE
  5
4C6
330
1F
100
AcDbEntity
  8
101
  6
Continuous
 62
     7
370
    30
100
AcDbLine
 10
58.28625
 20
137.115
 30
0.0
 11
58.688438
 21
136.341563
 31
0.0
  0
LINE
  5
4C7
330
1F
100
AcDbEntity
  8
101
  6
Continuous
 62
     7
370
    30
100
AcDbLine
 10
57.729375
 20
137.671875
 30
0.0
 11
58.28625
 21
137.115
 31
0.0
  0
LINE
  5
4C8
330
1F
100
AcDbEntity
  8
101
  6
Continuous
 62
     7
370
    30
100
AcDbLine
 10
56.782199
 20
137.537738
 30
0.0
 11
57.729375
 21
137.671875
 31
0.0
  0
LINE
  5
4C9
330
1F
100
AcDbEntity
  8
101
  6
Continuous
 62
     7
370
    30
100
AcDbLine
 10
56.151563
 20
136.681875
 30
0.0
 11
57.017813
 21
137.8575
 31
0.0
  0
LINE
  5
4CA
330
1F
100
AcDbEntity
  8
101
  6
Continuous
 62
     7
370
    30
100
AcDbLine
 10
55.625625
 20
135.3825
 30
0.0
 11
56.151563
 21
136.681875
 31
0.0
  0
LINE
  5
4CB
330
1F
100
AcDbEntity
  8
101
  6
Continuous
 62
     7
370
    30
100
AcDbLine
 10
55.347188
 20
133.742813
 30
0.0
 11
55.625625
 21
135.3825
 31
0.0
  0
LINE
  5
4CC
330
1F
100
AcDbEntity
  8
101
  6
Continuous
 62
     7
370
    30
100
AcDbLine
 10
55.594688
 20
131.979375
 30
0.0
 11
55.347188
 21
133.742813
 31
0.0
  0
LINE
  5
4CD
330
1F
100
AcDbEntity
  8
101
  6
Continuous
 62
     7
370
    30
100
AcDbLine
 10
56.30625
 20
130.9275
 30
0.0
 11
55.594688
 21
131.979375
 31
0.0
  0
LINE
  5
4CE
330
1F
100
AcDbEntity
  8
101
  6
Continuous
 62
     7
370
    30
100
AcDbLine
 10
57.079688
 20
130.525313
 30
0.0
 11
56.30625
 21
130.9275
 31
0.0
  0
LINE
  5
4CF
330
1F
100
AcDbEntity
  8
101
  6
Continuous
 62
     7
370
    30
100
AcDbLine
 10
58.224375
 20
130.494375
 30
0.0
 11
57.079688
 21
130.525313
 31
0.0
  0
LINE
  5
4D0
330
1F
100
AcDbEntity
  8
101
  6
Continuous
 62
     7
370
    30
100
AcDbLine
 10
59.214375
 20
131.113125
 30
0.0
 11
58.224375
 21
130.494375
 31
0.0
  0
LINE
  5
4D1
330
1F
100
AcDbEntity
  8
101
  6
Continuous
 62
     7
370
    30
100
AcDbLine
 10
60.235313
 20
132.319688
 30
0.0
 11
59.214375
 21
131.113125
 31
0.0
  0
LINE
  5
4D2
330
1F
100
AcDbEntity
  8
101
  6
Continuous
 62
     7
370
    30
100
AcDbLine
 10
60.885
 20
133.77375
 30
0.0
 11
60.235313
 21
132.319688
 31
0.0
  0
LINE
  5
4D3
330
1F
100
AcDbEntity
  8
101
  6
Continuous
 62
     7
370
    30
100
AcDbLine
 10
61.1325
 20
135.63
 30
0.0
 11
60.885
 21
133.77375
 31
0.0
  0
LINE
  5
4D4
330
1F
100
AcDbEntity
  8
101
  6
Continuous
 62
     7
370
    30
100
AcDbLine
 10
60.854063
 20
137.424375
 30
0.0
 11
61.1325
 21
135.63
 31
0.0
  0
LINE
  5
4D5
330
1F
100
AcDbEntity
  8
101
  6
Continuous
 62
     7
370
    30
100
AcDbLine
 10
60.01875
 20
138.661875
 30
0.0
 11
60.854063
 21
137.424375
 31
0.0
  0
LINE
  5
4D6
330
1F
100
AcDbEntity
  8
101
  6
Continuous
 62
     7
370
    30
100
AcDbLine
 10
58.935938
 20
138.940313
 30
0.0
 11
60.01875
 21
138.661875
 31
0.0
  0
LINE
  5
4D7
330
1F
100
AcDbEntity
  8
101
  6
Continuous
 62
     7
370
    30
100
AcDbLine
 10
57.915
 20
138.661875
 30
0.0
 11
58.935938
 21
138.940313
 31
0.0
  0
LINE
  5
4D8
330
1F
100
AcDbEntity
  8
101
  6
Continuous
 62
     7
370
    30
100
AcDbLine
 10
57.017813
 20
137.8575
 30
0.0
 11
57.915
 21
138.661875
 31
0.0
  0
LINE
  5
4D9
330
1F
100
AcDbEntity
  8
101
  6
Continuous
 62
     7
370
    30
100
AcDbLine
 10
51.572813
 20
129.535313
 30
0.0
 11
52.532817
 21
128.898817
 31
0.0
  0
LINE
  5
4DA
330
1F
100
AcDbEntity
  8
101
  6
Continuous
 62
     7
370
    30
100
AcDbLine
 10
50.520938
 20
130.741875
 30
0.0
 11
51.572813
 21
129.535313
 31
0.0
  0
LINE
  5
4DB
330
1F
100
AcDbEntity
  8
101
  6
Continuous
 62
     7
370
    30
100
AcDbLine
 10
48.88125
 20
133.835625
 30
0.0
 11
50.520938
 21
130.741875
 31
0.0
  0
LINE
  5
4DC
330
1F
100
AcDbEntity
  8
101
  6
Continuous
 62
     7
370
    30
100
AcDbLine
 10
46.560938
 20
139.125938
 30
0.0
 11
48.88125
 21
133.835625
 31
0.0
  0
LINE
  5
4DD
330
1F
100
AcDbEntity
  8
101
  6
Continuous
 62
     7
370
    30
100
AcDbLine
 10
43.68375
 20
144.973125
 30
0.0
 11
46.560938
 21
139.125938
 31
0.0
  0
LINE
  5
4DE
330
1F
100
AcDbEntity
  8
101
  6
Continuous
 62
     7
370
    30
100
AcDbLine
 10
40.775625
 20
151.408125
 30
0.0
 11
43.68375
 21
144.973125
 31
0.0
  0
LINE
  5
4DF
330
1F
100
AcDbEntity
  8
101
  6
Continuous
 62
     7
370
    30
100
AcDbLine
 10
38.517188
 20
156.203438
 30
0.0
 11
40.775625
 21
151.408125
 31
0.0
  0
LINE
  5
4E0
330
1F
100
AcDbEntity
  8
101
  6
Continuous
 62
     7
370
    30
100
AcDbLine
 10
35.578125
 20
162.329063
 30
0.0
 11
38.517188
 21
156.203438
 31
0.0
  0
LINE
  5
4E1
330
1F
100
AcDbEntity
  8
101
  6
Continuous
 62
     7
370
    30
100
AcDbLine
 10
33.690938
 20
166.289063
 30
0.0
 11
35.578125
 21
162.329063
 31
0.0
  0
LINE
  5
4E2
330
1F
100
AcDbEntity
  8
101
  6
Continuous
 62
     7
370
    30
100
AcDbLine
 10
31.4325
 20
171.424688
 30
0.0
 11
33.690938
 21
166.289063
 31
0.0
  0
LINE
  5
4E3
330
1F
100
AcDbEntity
  8
101
  6
Continuous
 62
     7
370
    30
100
AcDbLine
 10
29.32875
 20
176.09625
 30
0.0
 11
31.4325
 21
171.424688
 31
0.0
  0
LINE
  5
4E4
330
1F
100
AcDbEntity
  8
101
  6
Continuous
 62
     7
370
    30
100
AcDbLine
 10
26.668125
 20
181.572188
 30
0.0
 11
29.32875
 21
176.09625
 31
0.0
  0
LINE
  5
4E5
330
1F
100
AcDbEntity
  8
101
  6
Continuous
 62
     7
370
    30
100
AcDbLine
 10
24.224063
 20
186.769688
 30
0.0
 11
26.668125
 21
181.572188
 31
0.0
  0
LINE
  5
4E6
330
1F
100
AcDbEntity
  8
101
  6
Continuous
 62
     7
370
    30
100
AcDbLine
 10
21.470625
 20
192.524063
 30
0.0
 11
24.224063
 21
186.769688
 31
0.0
  0
LINE
  5
4E7
330
1F
100
AcDbEntity
  8
101
  6
Continuous
 62
     7
370
    30
100
AcDbLine
 10
20.66625
 20
194.65875
 30
0.0
 11
21.470625
 21
192.524063
 31
0.0
  0
LINE
  5
4E8
330
1F
100
AcDbEntity
  8
101
  6
Continuous
 62
     7
370
    30
100
AcDbLine
 10
20.449688
 20
197.01
 30
0.0
 11
20.66625
 21
194.65875
 31
0.0
  0
LINE
  5
4E9
330
1F
100
AcDbEntity
  8
101
  6
Continuous
 62
     7
370
    30
100
AcDbLine
 10
20.759063
 20
199.144688
 30
0.0
 11
20.449688
 21
197.01
 31
0.0
  0
LINE
  5
4EA
330
1F
100
AcDbEntity
  8
101
  6
Continuous
 62
     7
370
    30
100
AcDbLine
 10
21.5325
 20
200.784375
 30
0.0
 11
20.759063
 21
199.144688
 31
0.0
  0
LINE
  5
4EB
330
1F
100
AcDbEntity
  8
101
  6
Continuous
 62
     7
370
    30
100
AcDbLine
 10
22.275
 20
202.08375
 30
0.0
 11
21.5325
 21
200.784375
 31
0.0
  0
LINE
  5
4EC
330
1F
100
AcDbEntity
  8
101
  6
Continuous
 62
     7
370
    30
100
AcDbLine
 10
23.543438
 20
203.445
 30
0.0
 11
22.275
 21
202.08375
 31
0.0
  0
LINE
  5
4ED
330
1F
100
AcDbEntity
  8
101
  6
Continuous
 62
     7
370
    30
100
AcDbLine
 10
25.183125
 20
204.342188
 30
0.0
 11
23.543438
 21
203.445
 31
0.0
  0
LINE
  5
4EE
330
1F
100
AcDbEntity
  8
101
  6
Continuous
 62
     7
370
    30
100
AcDbLine
 10
26.60625
 20
204.6825
 30
0.0
 11
25.183125
 21
204.342188
 31
0.0
  0
LINE
  5
4EF
330
1F
100
AcDbEntity
  8
101
  6
Continuous
 62
     7
370
    30
100
AcDbLine
 10
40.899375
 20
198.278438
 30
0.0
 11
40.3425
 21
198.928125
 31
0.0
  0
LINE
  5
4F0
330
1F
100
AcDbEntity
  8
101
  6
Continuous
 62
     7
370
    30
100
AcDbLine
 10
42.69375
 20
198.216563
 30
0.0
 11
40.899375
 21
198.278438
 31
0.0
  0
LINE
  5
4F1
330
1F
100
AcDbEntity
  8
101
  6
Continuous
 62
     7
370
    30
100
AcDbLine
 10
50.675625
 20
198.959062
 30
0.0
 11
42.69375
 21
198.216563
 31
0.0
  0
LINE
  5
4F2
330
1F
100
AcDbEntity
  8
101
  6
Continuous
 62
     7
370
    30
100
AcDbLine
 10
62.803125
 20
200.258437
 30
0.0
 11
50.675625
 21
198.959062
 31
0.0
  0
LINE
  5
4F3
330
1F
100
AcDbEntity
  8
101
  6
Continuous
 62
     7
370
    30
100
AcDbLine
 10
67.44375
 20
200.629687
 30
0.0
 11
62.803125
 21
200.258437
 31
0.0
  0
LINE
  5
4F4
330
1F
100
AcDbEntity
  8
101
  6
Continuous
 62
     7
370
    30
100
AcDbLine
 10
69.733125
 20
201.062813
 30
0.0
 11
67.44375
 21
200.629687
 31
0.0
  0
LINE
  5
4F5
330
1F
100
AcDbEntity
  8
101
  6
Continuous
 62
     7
370
    30
100
AcDbLine
 10
70.41375
 20
201.248437
 30
0.0
 11
69.733125
 21
201.062813
 31
0.0
  0
LINE
  5
4F6
330
1F
100
AcDbEntity
  8
101
  6
Continuous
 62
     7
370
    30
100
AcDbLine
 10
73.13625
 20
203.599687
 30
0.0
 11
70.41375
 21
201.248437
 31
0.0
  0
LINE
  5
4F7
330
1F
100
AcDbEntity
  8
101
  6
Continuous
 62
     7
370
    30
100
AcDbLine
 10
76.260938
 20
206.445937
 30
0.0
 11
73.13625
 21
203.599687
 31
0.0
  0
LINE
  5
4F8
330
1F
100
AcDbEntity
  8
101
  6
Continuous
 62
     7
370
    30
100
AcDbLine
 10
78.364688
 20
208.333125
 30
0.0
 11
76.260938
 21
206.445937
 31
0.0
  0
LINE
  5
4F9
330
1F
100
AcDbEntity
  8
101
  6
Continuous
 62
     7
370
    30
100
AcDbLine
 10
79.695
 20
209.075625
 30
0.0
 11
78.364688
 21
208.333125
 31
0.0
  0
LINE
  5
4FA
330
1F
100
AcDbEntity
  8
101
  6
Continuous
 62
     7
370
    30
100
AcDbLine
 10
66.484688
 20
201.186562
 30
0.0
 11
64.029768
 21
201.236115
 31
0.0
  0
LINE
  5
4FB
330
1F
100
AcDbEntity
  8
101
  6
Continuous
 62
     7
370
    30
100
AcDbLine
 10
67.722188
 20
201.58875
 30
0.0
 11
66.484688
 21
201.186562
 31
0.0
  0
LINE
  5
4FC
330
1F
100
AcDbEntity
  8
101
  6
Continuous
 62
     7
370
    30
100
AcDbLine
 10
69.083438
 20
202.640625
 30
0.0
 11
67.722188
 21
201.58875
 31
0.0
  0
LINE
  5
4FD
330
1F
100
AcDbEntity
  8
101
  6
Continuous
 62
     7
370
    30
100
AcDbLine
 10
71.28
 20
204.651562
 30
0.0
 11
69.083438
 21
202.640625
 31
0.0
  0
LINE
  5
4FE
330
1F
100
AcDbEntity
  8
101
  6
Continuous
 62
     7
370
    30
100
AcDbLine
 10
74.404688
 20
207.188437
 30
0.0
 11
71.28
 21
204.651562
 31
0.0
  0
LINE
  5
4FF
330
1F
100
AcDbEntity
  8
101
  6
Continuous
 62
     7
370
    30
100
AcDbLine
 10
76.601117
 20
209.021346
 30
0.0
 11
74.404688
 21
207.188437
 31
0.0
  0
LINE
  5
500
330
1F
100
AcDbEntity
  8
101
  6
Continuous
 62
     7
370
    30
100
AcDbLine
 10
82.603125
 20
197.01
 30
0.0
 11
81.9225
 21
194.65875
 31
0.0
  0
LINE
  5
501
330
1F
100
AcDbEntity
  8
101
  6
Continuous
 62
     7
370
    30
100
AcDbLine
 10
83.53125
 20
200.10375
 30
0.0
 11
82.603125
 21
197.01
 31
0.0
  0
LINE
  5
502
330
1F
100
AcDbEntity
  8
101
  6
Continuous
 62
     7
370
    30
100
AcDbLine
 10
84.211875
 20
204.373125
 30
0.0
 11
83.53125
 21
200.10375
 31
0.0
  0
LINE
  5
503
330
1F
100
AcDbEntity
  8
101
  6
Continuous
 62
     7
370
    30
100
AcDbLine
 10
83.469375
 20
206.600625
 30
0.0
 11
84.211875
 21
204.373125
 31
0.0
  0
LINE
  5
504
330
1F
100
AcDbEntity
  8
101
  6
Continuous
 62
     7
370
    30
100
AcDbLine
 10
81.860625
 20
208.580625
 30
0.0
 11
83.469375
 21
206.600625
 31
0.0
  0
LINE
  5
505
330
1F
100
AcDbEntity
  8
101
  6
Continuous
 62
     7
370
    30
100
AcDbLine
 10
79.695
 20
209.075625
 30
0.0
 11
81.860625
 21
208.580625
 31
0.0
  0
LINE
  5
506
330
1F
100
AcDbEntity
  8
101
  6
Continuous
 62
     7
370
    30
100
AcDbLine
 10
76.168125
 20
209.01375
 30
0.0
 11
79.695
 21
209.075625
 31
0.0
  0
LINE
  5
507
330
1F
100
AcDbEntity
  8
101
  6
Continuous
 62
     7
370
    30
100
AcDbLine
 10
74.683125
 20
208.951875
 30
0.0
 11
76.168125
 21
209.01375
 31
0.0
  0
LINE
  5
508
330
1F
100
AcDbEntity
  8
101
  6
Continuous
 62
     7
370
    30
100
AcDbLine
 10
71.960625
 20
206.78625
 30
0.0
 11
74.683125
 21
208.951875
 31
0.0
  0
LINE
  5
509
330
1F
100
AcDbEntity
  8
101
  6
Continuous
 62
     7
370
    30
100
AcDbLine
 10
67.381875
 20
202.82625
 30
0.0
 11
71.960625
 21
206.78625
 31
0.0
  0
LINE
  5
50A
330
1F
100
AcDbEntity
  8
101
  6
Continuous
 62
     7
370
    30
100
AcDbLine
 10
65.773125
 20
201.898125
 30
0.0
 11
67.381875
 21
202.82625
 31
0.0
  0
LINE
  5
50B
330
1F
100
AcDbEntity
  8
101
  6
Continuous
 62
     7
370
    30
100
AcDbLine
 10
64.47375
 20
201.279375
 30
0.0
 11
65.773125
 21
201.898125
 31
0.0
  0
LINE
  5
50C
330
1F
100
AcDbEntity
  8
101
  6
Continuous
 62
     7
370
    30
100
AcDbLine
 10
40.3425
 20
198.928125
 30
0.0
 11
64.47375
 21
201.279375
 31
0.0
  0
LINE
  5
50D
330
1F
100
AcDbEntity
  8
101
  6
Continuous
 62
     7
370
    30
100
AcDbLine
 10
29.638125
 20
204.373125
 30
0.0
 11
40.3425
 21
198.928125
 31
0.0
  0
LINE
  5
50E
330
1F
100
AcDbEntity
  8
101
  6
Continuous
 62
     7
370
    30
100
AcDbLine
 10
26.60625
 20
204.6825
 30
0.0
 11
29.638125
 21
204.373125
 31
0.0
  0
LINE
  5
50F
330
1F
100
AcDbEntity
  8
101
  6
Continuous
 62
     7
370
    30
100
AcDbLine
 10
23.88375
 20
205.05375
 30
0.0
 11
26.60625
 21
204.6825
 31
0.0
  0
LINE
  5
510
330
1F
100
AcDbEntity
  8
101
  6
Continuous
 62
     7
370
    30
100
AcDbLine
 10
62.679375
 20
135.815625
 30
0.0
 11
63.6075
 21
138.72375
 31
0.0
  0
LINE
  5
511
330
1F
100
AcDbEntity
  8
101
  6
Continuous
 62
     7
370
    30
100
AcDbLine
 10
61.813125
 20
132.9075
 30
0.0
 11
62.679375
 21
135.815625
 31
0.0
  0
LINE
  5
512
330
1F
100
AcDbEntity
  8
101
  6
Continuous
 62
     7
370
    30
100
AcDbLine
 10
60.39
 20
129.999375
 30
0.0
 11
61.813125
 21
132.9075
 31
0.0
  0
LINE
  5
513
330
1F
100
AcDbEntity
  8
101
  6
Continuous
 62
     7
370
    30
100
AcDbLine
 10
58.41
 20
128.761875
 30
0.0
 11
60.39
 21
129.999375
 31
0.0
  0
LINE
  5
514
330
1F
100
AcDbEntity
  8
101
  6
Continuous
 62
     7
370
    30
100
AcDbLine
 10
56.80125
 20
128.638125
 30
0.0
 11
58.41
 21
128.761875
 31
0.0
  0
LINE
  5
515
330
1F
100
AcDbEntity
  8
101
  6
Continuous
 62
     7
370
    30
100
AcDbLine
 10
53.58375
 20
128.82375
 30
0.0
 11
56.80125
 21
128.638125
 31
0.0
  0
LINE
  5
516
330
1F
100
AcDbEntity
  8
101
  6
Continuous
 62
     7
370
    30
100
AcDbLine
 10
51.85125
 20
128.9475
 30
0.0
 11
53.58375
 21
128.82375
 31
0.0
  0
LINE
  5
517
330
1F
100
AcDbEntity
  8
101
  6
Continuous
 62
     7
370
    30
100
AcDbLine
 10
50.799375
 20
129.628125
 30
0.0
 11
51.85125
 21
128.9475
 31
0.0
  0
LINE
  5
518
330
1F
100
AcDbEntity
  8
101
  6
Continuous
 62
     7
370
    30
100
AcDbLine
 10
49.5
 20
129.81375
 30
0.0
 11
50.799375
 21
129.628125
 31
0.0
  0
LINE
  5
519
330
1F
100
AcDbEntity
  8
101
  6
Continuous
 62
     7
370
    30
100
AcDbLine
 10
48.2625
 20
130.185
 30
0.0
 11
49.5
 21
129.81375
 31
0.0
  0
LINE
  5
51A
330
1F
100
AcDbEntity
  8
101
  6
Continuous
 62
     7
370
    30
100
AcDbLine
 10
46.40625
 20
133.8975
 30
0.0
 11
48.2625
 21
130.185
 31
0.0
  0
LINE
  5
51B
330
1F
100
AcDbEntity
  8
101
  6
Continuous
 62
     7
370
    30
100
AcDbLine
 10
43.250625
 20
140.70375
 30
0.0
 11
46.40625
 21
133.8975
 31
0.0
  0
LINE
  5
51C
330
1F
100
AcDbEntity
  8
101
  6
Continuous
 62
     7
370
    30
100
AcDbLine
 10
34.340625
 20
159.946875
 30
0.0
 11
43.250625
 21
140.70375
 31
0.0
  0
LINE
  5
51D
330
1F
100
AcDbEntity
  8
101
  6
Continuous
 62
     7
370
    30
100
AcDbLine
 10
24.9975
 20
180.613125
 30
0.0
 11
34.340625
 21
159.946875
 31
0.0
  0
LINE
  5
51E
330
1F
100
AcDbEntity
  8
101
  6
Continuous
 62
     7
370
    30
100
AcDbLine
 10
19.5525
 20
191.93625
 30
0.0
 11
24.9975
 21
180.613125
 31
0.0
  0
LINE
  5
51F
330
1F
100
AcDbEntity
  8
101
  6
Continuous
 62
     7
370
    30
100
AcDbLine
 10
17.94375
 20
196.515
 30
0.0
 11
19.5525
 21
191.93625
 31
0.0
  0
LINE
  5
520
330
1F
100
AcDbEntity
  8
101
  6
Continuous
 62
     7
370
    30
100
AcDbLine
 10
18.315
 20
200.35125
 30
0.0
 11
17.94375
 21
196.515
 31
0.0
  0
LINE
  5
521
330
1F
100
AcDbEntity
  8
101
  6
Continuous
 62
     7
370
    30
100
AcDbLine
 10
20.295
 20
203.32125
 30
0.0
 11
18.315
 21
200.35125
 31
0.0
  0
LINE
  5
522
330
1F
100
AcDbEntity
  8
101
  6
Continuous
 62
     7
370
    30
100
AcDbLine
 10
23.88375
 20
205.05375
 30
0.0
 11
20.295
 21
203.32125
 31
0.0
  0
MTEXT
  5
523
330
1F
100
AcDbEntity
  8
100
  6
Continuous
 62
     7
370
     9
100
AcDbMText
 10
-12.68969696969705
 20
-79.90909090909092
 30
0.0
 40
25.0
 41
293.4182016041797
 46
25.0
 71
     7
 72
     1
  1
{\fＭＳ ゴシック;\W0.714286;松本船舶電機製作所}
 73
     1
 44
1.0
  0
MTEXT
  5
524
330
1F
100
AcDbEntity
  8
100
  6
Continuous
 62
     7
370
     9
100
AcDbMText
 10
12.97666666666657
 20
271.5807575757576
 30
0.0
 40
25.0
 41
217.5698899897461
 46
25.0
 71
     7
 72
     1
  1
{\fＭＳ ゴシック;\W0.714286;[白熱ランプ付]}
 73
     1
 44
1.0
  0
MTEXT
  5
525
330
1F
100
AcDbEntity
  8
1
  6
DOT
 62
     7
370
     9
100
AcDbMText
 10
31.91495244414952
 20
337.3733687237337
 30
0.0
 40
25.0
 41
136.4219270566463
 46
25.0
 71
     7
 72
     1
  1
{\fＭＳ ゴシック;\W0.714286;（ZR-FR-S）}
 73
     1
 44
1.0
  0
MTEXT
  5
526
330
1F
100
AcDbEntity
  8
100
  6
Continuous
 62
     7
370
     9
100
AcDbMText
 10
-16.72030303030306
 20
302.8686363636364
 30
0.0
 40
25.0
 41
325.1142465000312
 46
25.0
 71
     7
 72
     1
  1
{\fＭＳ ゴシック;\W0.714286;ゼロフランジシルバー}
 73
     1
 44
1.0
  0
ENDSEC
  0
SECTION
  2
OBJECTS
  0
DICTIONARY
  5
C
330
0
100
AcDbDictionary
281
     1
  3
ACAD_DETAILVIEWSTYLE
350
52E
  3
ACAD_GROUP
350
D
  3
ACAD_LAYOUT
350
1A
  3
ACAD_MATERIAL
350
43
  3
ACAD_MLEADERSTYLE
350
6B
  3
ACAD_MLINESTYLE
350
17
  3
ACAD_PLOTSETTINGS
350
19
  3
ACAD_PLOTSTYLENAME
350
E
  3
ACAD_SCALELIST
350
47
  3
ACAD_SECTIONVIEWSTYLE
350
52F
  3
ACAD_TABLESTYLE
350
69
  3
ACAD_VISUALSTYLE
350
2A
  3
ACDB_RECOMPOSE_DATA
350
52B
  3
AcDbVariableDictionary
350
527
  0
SUN
  5
6D
330
29
100
AcDbSun
 90
        1
290
     0
 63
     7
421
 16777215
 40
1.0
291
     1
 91
  2455826
 92
 54000000
292
     0
 70
     2
 71
   256
280
     1
  0
DICTIONARY
  5
52E
102
{ACAD_REACTORS
330
C
102
}
330
C
100
AcDbDictionary
281
     1
  0
DICTIONARY
  5
D
102
{ACAD_REACTORS
330
C
102
}
330
C
100
AcDbDictionary
281
     1
  0
DICTIONARY
  5
1A
102
{ACAD_REACTORS
330
C
102
}
330
C
100
AcDbDictionary
281
     1
  3
Layout1
350
1E
  3
Layout2
350
26
  3
Model
350
22
  0
DICTIONARY
  5
43
102
{ACAD_REACTORS
330
C
102
}
330
C
100
AcDbDictionary
281
     1
  3
ByBlock
350
45
  3
ByLayer
350
44
  3
Global
350
46
  0
DICTIONARY
  5
6B
102
{ACAD_REACTORS
330
C
102
}
330
C
100
AcDbDictionary
281
     1
  3
Standard
350
6C
  0
DICTIONARY
  5
17
102
{ACAD_REACTORS
330
C
102
}
330
C
100
AcDbDictionary
281
     1
  3
Standard
350
18
  0
DICTIONARY
  5
19
102
{ACAD_REACTORS
330
C
102
}
330
C
100
AcDbDictionary
281
     1
  0
ACDBDICTIONARYWDFLT
  5
E
102
{ACAD_REACTORS
330
C
102
}
330
C
100
AcDbDictionary
281
     1
  3
Normal
350
F
100
AcDbDictionaryWithDefault
340
F
  0
DICTIONARY
  5
47
102
{ACAD_REACTORS
330
C
102
}
330
C
100
AcDbDictionary
281
     1
  3
A0
350
48
  3
A1
350
49
  3
A2
350
4A
  3
A3
350
4B
  3
A4
350
4C
  3
A5
350
4D
  3
A6
350
4E
  3
A7
350
4F
  3
A8
350
50
  3
A9
350
51
  3
B0
350
52
  3
B1
350
53
  3
B2
350
54
  3
B3
350
55
  3
B4
350
56
  3
B5
350
57
  3
B6
350
58
  3
B7
350
59
  3
B8
350
5A
  3
B9
350
5B
  3
C0
350
5C
  3
C1
350
5D
  3
C2
350
5E
  3
C3
350
5F
  3
C4
350
60
  3
C5
350
61
  3
C6
350
62
  3
C7
350
63
  3
C8
350
64
  3
C9
350
65
  3
D0
350
66
  3
D1
350
67
  3
D2
350
68
  0
DICTIONARY
  5
52F
102
{ACAD_REACTORS
330
C
102
}
330
C
100
AcDbDictionary
281
     1
  0
DICTIONARY
  5
69
102
{ACAD_REACTORS
330
C
102
}
330
C
100
AcDbDictionary
281
     1
  3
Standard
350
6A
  0
DICTIONARY
  5
2A
102
{ACAD_REACTORS
330
C
102
}
330
C
100
AcDbDictionary
281
     1
  3
2dWireframe
350
2F
  3
Basic
350
32
  3
Brighten
350
36
  3
ColorChange
350
3A
  3
Conceptual
350
34
  3
Dim
350
35
  3
EdgeColorOff
350
3D
  3
Facepattern
350
39
  3
Flat
350
2B
  3
FlatWithEdges
350
2C
  3
Gouraud
350
2D
  3
GouraudWithEdges
350
2E
  3
Hidden
350
31
  3
JitterOff
350
3B
  3
Linepattern
350
38
  3
OverhangOff
350
3C
  3
Realistic
350
33
  3
Shaded
350
42
  3
Shaded with edges
350
41
  3
Shades of Gray
350
3E
  3
Sketchy
350
3F
  3
Thicken
350
37
  3
Wireframe
350
30
  3
X-Ray
350
40
  0
XRECORD
  5
52B
102
{ACAD_REACTORS
330
C
102
}
330
C
100
AcDbXrecord
280
     1
 90
        1
330
6A
  0
DICTIONARY
  5
527
102
{ACAD_REACTORS
330
C
102
}
330
C
100
AcDbDictionary
281
     1
  3
CANNOSCALE
350
528
  3
CMLEADERSTYLE
350
52D
  3
CTABLESTYLE
350
52C
  0
LAYOUT
  5
1E
102
{ACAD_REACTORS
330
1A
102
}
330
1A
100
AcDbPlotSettings
  1

  2
none_device
  4

  6

 40
0.0
 41
0.0
 42
0.0
 43
0.0
 44
0.0
 45
0.0
 46
0.0
 47
0.0
 48
0.0
 49
0.0
140
0.0
141
0.0
142
1.0
143
1.0
 70
   688
 72
     0
 73
     0
 74
     5
  7

 75
    16
 76
     0
 77
     2
 78
   300
147
1.0
148
0.0
149
0.0
100
AcDbLayout
  1
Layout1
 70
     1
 71
     1
 10
0.0
 20
0.0
 11
297.0
 21
210.0
 12
0.0
 22
0.0
 32
0.0
 14
0.0
 24
0.0
 34
0.0
 15
297.0
 25
210.0
 35
0.0
146
0.0
 13
0.0
 23
0.0
 33
0.0
 16
1.0
 26
0.0
 36
0.0
 17
0.0
 27
1.0
 37
0.0
 76
     0
330
1B
  0
LAYOUT
  5
26
102
{ACAD_REACTORS
330
1A
102
}
330
1A
100
AcDbPlotSettings
  1

  2
none_device
  4

  6

 40
0.0
 41
0.0
 42
0.0
 43
0.0
 44
0.0
 45
0.0
 46
0.0
 47
0.0
 48
0.0
 49
0.0
140
0.0
141
0.0
142
1.0
143
1.0
 70
   688
 72
     0
 73
     0
 74
     5
  7

 75
    16
 76
     0
 77
     2
 78
   300
147
1.0
148
0.0
149
0.0
100
AcDbLayout
  1
Layout2
 70
     1
 71
     2
 10
0.0
 20
0.0
 11
0.0
 21
0.0
 12
0.0
 22
0.0
 32
0.0
 14
0.0
 24
0.0
 34
0.0
 15
0.0
 25
0.0
 35
0.0
146
0.0
 13
0.0
 23
0.0
 33
0.0
 16
1.0
 26
0.0
 36
0.0
 17
0.0
 27
1.0
 37
0.0
 76
     0
330
23
  0
LAYOUT
  5
22
102
{ACAD_REACTORS
330
1A
102
}
330
1A
100
AcDbPlotSettings
  1

  2
none_device
  4
Letter_(8.50_x_11.00_Inches)
  6

 40
6.35
 41
6.35
 42
6.35000508
 43
6.35000508
 44
215.9
 45
279.4
 46
0.0
 47
0.0
 48
0.0
 49
0.0
140
0.0
141
0.0
142
1.0
143
1.0
 70
  1712
 72
     0
 73
     0
 74
     0
  7

 75
     0
 76
     0
 77
     2
 78
   300
147
1.0
148
0.0
149
0.0
100
AcDbLayout
  1
Model
 70
     1
 71
     0
 10
0.0
 20
0.0
 11
297.0
 21
210.0
 12
0.0
 22
0.0
 32
0.0
 14
-16.72030303030306
 24
-79.90909090909092
 34
0.0
 15
233.2796969696969
 25
362.3733687237337
 35
0.0
146
0.0
 13
0.0
 23
0.0
 33
0.0
 16
1.0
 26
0.0
 36
0.0
 17
0.0
 27
1.0
 37
0.0
 76
     0
330
1F
331
29
  0
MATERIAL
  5
45
102
{ACAD_REACTORS
330
43
102
}
330
43
100
AcDbMaterial
  1
ByBlock
 72
     1
 94
      127
  0
MATERIAL
  5
44
102
{ACAD_REACTORS
330
43
102
}
330
43
100
AcDbMaterial
  1
ByLayer
 72
     1
 94
      127
  0
MATERIAL
  5
46
102
{ACAD_REACTORS
330
43
102
}
330
43
100
AcDbMaterial
  1
Global
 72
     1
 94
      127
  0
MLEADERSTYLE
  5
6C
102
{ACAD_REACTORS
330
6B
102
}
330
6B
100
AcDbMLeaderStyle
179
     2
170
     2
171
     1
172
     0
 90
        2
 40
0.0
 41
0.0
173
     1
 91
-1056964608
340
14
 92
       -2
290
     1
 42
0.09
291
     1
 43
0.36
  3
Standard
341
0
 44
0.18
300

342
11
174
     1
178
     6
175
     1
176
     0
 93
-1056964608
 45
0.18
292
     0
297
     0
 46
0.18
343
0
 94
-1056964608
 47
1.0
 49
1.0
140
1.0
293
     1
141
0.0
294
     1
177
     0
142
1.0
295
     0
296
     0
143
0.125
271
     0
272
     9
273
     9
298
     0
  0
MLINESTYLE
  5
18
102
{ACAD_REACTORS
330
17
102
}
330
17
100
AcDbMlineStyle
  2
Standard
 70
     0
  3

 62
   256
 51
90.0
 52
90.0
 71
     2
 49
0.5
 62
   256
  6
BYLAYER
 49
-0.5
 62
   256
  6
BYLAYER
  0
ACDBPLACEHOLDER
  5
F
102
{ACAD_REACTORS
330
E
102
}
330
E
  0
SCALE
  5
48
102
{ACAD_REACTORS
330
47
102
}
330
47
100
AcDbScale
 70
     0
300
1:1
140
1.0
141
1.0
290
     1
  0
SCALE
  5
49
102
{ACAD_REACTORS
330
47
102
}
330
47
100
AcDbScale
 70
     0
300
1:2
140
1.0
141
2.0
290
     0
  0
SCALE
  5
4A
102
{ACAD_REACTORS
330
47
102
}
330
47
100
AcDbScale
 70
     0
300
1:4
140
1.0
141
4.0
290
     0
  0
SCALE
  5
4B
102
{ACAD_REACTORS
330
47
102
}
330
47
100
AcDbScale
 70
     0
300
1:5
140
1.0
141
5.0
290
     0
  0
SCALE
  5
4C
102
{ACAD_REACTORS
330
47
102
}
330
47
100
AcDbScale
 70
     0
300
1:8
140
1.0
141
8.0
290
     0
  0
SCALE
  5
4D
102
{ACAD_REACTORS
330
47
102
}
330
47
100
AcDbScale
 70
     0
300
1:10
140
1.0
141
10.0
290
     0
  0
SCALE
  5
4E
102
{ACAD_REACTORS
330
47
102
}
330
47
100
AcDbScale
 70
     0
300
1:16
140
1.0
141
16.0
290
     0
  0
SCALE
  5
4F
102
{ACAD_REACTORS
330
47
102
}
330
47
100
AcDbScale
 70
     0
300
1:20
140
1.0
141
20.0
290
     0
  0
SCALE
  5
50
102
{ACAD_REACTORS
330
47
102
}
330
47
100
AcDbScale
 70
     0
300
1:30
140
1.0
141
30.0
290
     0
  0
SCALE
  5
51
102
{ACAD_REACTORS
330
47
102
}
330
47
100
AcDbScale
 70
     0
300
1:40
140
1.0
141
40.0
290
     0
  0
SCALE
  5
52
102
{ACAD_REACTORS
330
47
102
}
330
47
100
AcDbScale
 70
     0
300
1:50
140
1.0
141
50.0
290
     0
  0
SCALE
  5
53
102
{ACAD_REACTORS
330
47
102
}
330
47
100
AcDbScale
 70
     0
300
1:100
140
1.0
141
100.0
290
     0
  0
SCALE
  5
54
102
{ACAD_REACTORS
330
47
102
}
330
47
100
AcDbScale
 70
     0
300
2:1
140
2.0
141
1.0
290
     0
  0
SCALE
  5
55
102
{ACAD_REACTORS
330
47
102
}
330
47
100
AcDbScale
 70
     0
300
4:1
140
4.0
141
1.0
290
     0
  0
SCALE
  5
56
102
{ACAD_REACTORS
330
47
102
}
330
47
100
AcDbScale
 70
     0
300
8:1
140
8.0
141
1.0
290
     0
  0
SCALE
  5
57
102
{ACAD_REACTORS
330
47
102
}
330
47
100
AcDbScale
 70
     0
300
10:1
140
10.0
141
1.0
290
     0
  0
SCALE
  5
58
102
{ACAD_REACTORS
330
47
102
}
330
47
100
AcDbScale
 70
     0
300
100:1
140
100.0
141
1.0
290
     0
  0
SCALE
  5
59
102
{ACAD_REACTORS
330
47
102
}
330
47
100
AcDbScale
 70
     0
300
1/128" = 1'-0"
140
0.0078125
141
12.0
290
     0
  0
SCALE
  5
5A
102
{ACAD_REACTORS
330
47
102
}
330
47
100
AcDbScale
 70
     0
300
1/64" = 1'-0"
140
0.015625
141
12.0
290
     0
  0
SCALE
  5
5B
102
{ACAD_REACTORS
330
47
102
}
330
47
100
AcDbScale
 70
     0
300
1/32" = 1'-0"
140
0.03125
141
12.0
290
     0
  0
SCALE
  5
5C
102
{ACAD_REACTORS
330
47
102
}
330
47
100
AcDbScale
 70
     0
300
1/16" = 1'-0"
140
0.0625
141
12.0
290
     0
  0
SCALE
  5
5D
102
{ACAD_REACTORS
330
47
102
}
330
47
100
AcDbScale
 70
     0
300
3/32" = 1'-0"
140
0.09375
141
12.0
290
     0
  0
SCALE
  5
5E
102
{ACAD_REACTORS
330
47
102
}
330
47
100
AcDbScale
 70
     0
300
1/8" = 1'-0"
140
0.125
141
12.0
290
     0
  0
SCALE
  5
5F
102
{ACAD_REACTORS
330
47
102
}
330
47
100
AcDbScale
 70
     0
300
3/16" = 1'-0"
140
0.1875
141
12.0
290
     0
  0
SCALE
  5
60
102
{ACAD_REACTORS
330
47
102
}
330
47
100
AcDbScale
 70
     0
300
1/4" = 1'-0"
140
0.25
141
12.0
290
     0
  0
SCALE
  5
61
102
{ACAD_REACTORS
330
47
102
}
330
47
100
AcDbScale
 70
     0
300
3/8" = 1'-0"
140
0.375
141
12.0
290
     0
  0
SCALE
  5
62
102
{ACAD_REACTORS
330
47
102
}
330
47
100
AcDbScale
 70
     0
300
1/2" = 1'-0"
140
0.5
141
12.0
290
     0
  0
SCALE
  5
63
102
{ACAD_REACTORS
330
47
102
}
330
47
100
AcDbScale
 70
     0
300
3/4" = 1'-0"
140
0.75
141
12.0
290
     0
  0
SCALE
  5
64
102
{ACAD_REACTORS
330
47
102
}
330
47
100
AcDbScale
 70
     0
300
1" = 1'-0"
140
1.0
141
12.0
290
     0
  0
SCALE
  5
65
102
{ACAD_REACTORS
330
47
102
}
330
47
100
AcDbScale
 70
     0
300
1-1/2" = 1'-0"
140
1.5
141
12.0
290
     0
  0
SCALE
  5
66
102
{ACAD_REACTORS
330
47
102
}
330
47
100
AcDbScale
 70
     0
300
3" = 1'-0"
140
3.0
141
12.0
290
     0
  0
SCALE
  5
67
102
{ACAD_REACTORS
330
47
102
}
330
47
100
AcDbScale
 70
     0
300
6" = 1'-0"
140
6.0
141
12.0
290
     0
  0
SCALE
  5
68
102
{ACAD_REACTORS
330
47
102
}
330
47
100
AcDbScale
 70
     0
300
1'-0" = 1'-0"
140
12.0
141
12.0
290
     0
  0
TABLESTYLE
  5
6A
102
{ACAD_REACTORS
330
69
102
}
102
{ACAD_XDICTIONARY
360
529
102
}
330
69
100
AcDbTableStyle
  3
Standard
 70
     0
 71
     0
 40
0.06
 41
0.06
280
     0
281
     0
  7
Standard
140
0.18
170
     2
 62
     0
 63
   257
283
     0
 90
        4
 91
        0
  1

274
    -2
284
     1
 64
     0
275
    -2
285
     1
 65
     0
276
    -2
286
     1
 66
     0
277
    -2
287
     1
 67
     0
278
    -2
288
     1
 68
     0
279
    -2
289
     1
 69
     0
  7
Standard
140
0.25
170
     5
 62
     0
 63
   257
283
     0
 90
        4
 91
        0
  1

274
    -2
284
     1
 64
     0
275
    -2
285
     1
 65
     0
276
    -2
286
     1
 66
     0
277
    -2
287
     1
 67
     0
278
    -2
288
     1
 68
     0
279
    -2
289
     1
 69
     0
  7
Standard
140
0.18
170
     5
 62
     0
 63
   257
283
     0
 90
        4
 91
        0
  1

274
    -2
284
     1
 64
     0
275
    -2
285
     1
 65
     0
276
    -2
286
     1
 66
     0
277
    -2
287
     1
 67
     0
278
    -2
288
     1
 68
     0
279
    -2
289
     1
 69
     0
  0
VISUALSTYLE
  5
2F
102
{ACAD_REACTORS
330
2A
102
}
330
2A
100
AcDbVisualStyle
  2
2dWireframe
 70
     4
177
     3
291
     0
 70
    58
 90
        0
176
     1
 90
        2
176
     1
 90
        0
176
     1
 90
        0
176
     1
 40
0.6
176
     1
 40
30.0
176
     1
 62
     7
420
 16777215
176
     1
 90
        1
176
     1
 90
        4
176
     1
 62
     7
176
     1
 62
   257
176
     1
 90
        1
176
     1
 90
        1
176
     1
 40
1.0
176
     1
 90
        0
176
     1
 62
   257
176
     1
 40
1.0
176
     1
 90
        1
176
     1
 90
        6
176
     1
 90
        2
176
     1
 62
     7
176
     1
 90
        5
176
     1
 90
        0
176
     1
 90
        0
176
     1
290
     0
176
     1
 90
        1
176
     1
 40
0.0
176
     1
 90
        0
176
     1
290
     1
176
     1
290
     1
176
     1
290
     0
176
     1
290
     0
176
     1
290
     0
176
     1
290
     0
176
     1
290
     0
176
     1
290
     0
176
     1
290
     0
176
     1
 90
       50
176
     1
 40
0.0
176
     1
 40
1.0
176
     1
 90
        0
176
     1
 62
    18
420
        0
176
     1
 90
       50
176
     1
 90
        3
176
     1
 62
     5
420
      255
176
     1
290
     0
176
     1
 90
       50
176
     1
 90
       50
176
     1
 90
       50
176
     1
290
     0
176
     1
 90
       50
176
     1
 62
   256
176
     0
 40
1.0
176
     0
 90
        2
176
     1
  1
strokes_ogs.tif
176
     1
290
     0
176
     1
 40
1.0
176
     1
 40
1.0
176
     1
  0
VISUALSTYLE
  5
32
102
{ACAD_REACTORS
330
2A
102
}
330
2A
100
AcDbVisualStyle
  2
Basic
 70
     7
177
     3
291
     1
 70
    58
 90
        1
176
     1
 90
        0
176
     1
 90
        1
176
     1
 90
        0
176
     1
 40
0.6
176
     1
 40
30.0
176
     1
 62
     7
420
 16777215
176
     1
 90
        0
176
     1
 90
        4
176
     1
 62
     7
176
     1
 62
   257
176
     1
 90
        1
176
     1
 90
        1
176
     1
 40
1.0
176
     1
 90
        8
176
     1
 62
     7
176
     1
 40
1.0
176
     1
 90
        1
176
     1
 90
        6
176
     1
 90
        2
176
     1
 62
     7
176
     1
 90
        5
176
     1
 90
        0
176
     1
 90
        0
176
     1
290
     0
176
     1
 90
        1
176
     1
 40
0.0
176
     1
 90
        0
176
     1
290
     0
176
     1
290
     1
176
     1
290
     1
176
     1
290
     0
176
     1
290
     0
176
     1
290
     0
176
     1
290
     0
176
     1
290
     0
176
     1
290
     0
176
     1
 90
       50
176
     1
 40
0.0
176
     1
 40
1.0
176
     1
 90
        0
176
     1
 62
    18
420
        0
176
     1
 90
       50
176
     1
 90
        3
176
     1
 62
     5
420
      255
176
     1
290
     0
176
     1
 90
       50
176
     1
 90
       50
176
     1
 90
       50
176
     1
290
     0
176
     1
 90
       50
176
     1
 62
   256
176
     0
 40
1.0
176
     0
 90
        2
176
     1
  1
strokes_ogs.tif
176
     1
290
     0
176
     1
 40
1.0
176
     1
 40
1.0
176
     1
  0
VISUALSTYLE
  5
36
102
{ACAD_REACTORS
330
2A
102
}
330
2A
100
AcDbVisualStyle
  2
Brighten
 70
    12
177
     3
291
     1
 70
    58
 90
        2
176
     1
 90
        2
176
     1
 90
        0
176
     1
 90
        0
176
     1
 40
0.6
176
     1
 40
30.0
176
     1
 62
     7
420
 16777215
176
     1
 90
        1
176
     1
 90
        4
176
     1
 62
     7
176
     1
 62
   257
176
     1
 90
        1
176
     1
 90
        1
176
     1
 40
1.0
176
     1
 90
        8
176
     1
 62
     7
176
     1
 40
1.0
176
     1
 90
        1
176
     1
 90
        6
176
     1
 90
        2
176
     1
 62
     7
176
     1
 90
        5
176
     1
 90
        0
176
     1
 90
        0
176
     1
290
     0
176
     1
 90
        1
176
     1
 40
50.0
176
     1
 90
        0
176
     1
290
     0
176
     1
290
     1
176
     1
290
     1
176
     1
290
     0
176
     1
290
     0
176
     1
290
     0
176
     1
290
     0
176
     1
290
     0
176
     1
290
     0
176
     1
 90
       50
176
     1
 40
0.0
176
     1
 40
1.0
176
     1
 90
        0
176
     1
 62
    18
420
        0
176
     1
 90
       50
176
     1
 90
        3
176
     1
 62
     5
420
      255
176
     1
290
     0
176
     1
 90
       50
176
     1
 90
       50
176
     1
 90
       50
176
     1
290
     0
176
     1
 90
       50
176
     1
 62
   256
176
     0
 40
1.0
176
     0
 90
        2
176
     1
  1
strokes_ogs.tif
176
     1
290
     0
176
     1
 40
1.0
176
     1
 40
1.0
176
     1
  0
VISUALSTYLE
  5
3A
102
{ACAD_REACTORS
330
2A
102
}
330
2A
100
AcDbVisualStyle
  2
ColorChange
 70
    16
177
     3
291
     1
 70
    58
 90
        2
176
     1
 90
        2
176
     1
 90
        3
176
     1
 90
        0
176
     1
 40
0.6
176
     1
 40
30.0
176
     1
 62
     8
420
  8421504
176
     1
 90
        1
176
     1
 90
        4
176
     1
 62
     7
176
     1
 62
   257
176
     1
 90
        1
176
     1
 90
        1
176
     1
 40
1.0
176
     1
 90
        8
176
     1
 62
     8
420
  8421504
176
     1
 40
1.0
176
     1
 90
        1
176
     1
 90
        6
176
     1
 90
        2
176
     1
 62
     7
176
     1
 90
        5
176
     1
 90
        0
176
     1
 90
        0
176
     1
290
     0
176
     1
 90
        1
176
     1
 40
0.0
176
     1
 90
        0
176
     1
290
     0
176
     1
290
     1
176
     1
290
     1
176
     1
290
     0
176
     1
290
     0
176
     1
290
     0
176
     1
290
     0
176
     1
290
     0
176
     1
290
     0
176
     1
 90
       50
176
     1
 40
0.0
176
     1
 40
1.0
176
     1
 90
        0
176
     1
 62
    18
420
        0
176
     1
 90
       50
176
     1
 90
        3
176
     1
 62
     5
420
      255
176
     1
290
     0
176
     1
 90
       50
176
     1
 90
       50
176
     1
 90
       50
176
     1
290
     0
176
     1
 90
       50
176
     1
 62
   256
176
     0
 40
1.0
176
     0
 90
        2
176
     1
  1
strokes_ogs.tif
176
     1
290
     0
176
     1
 40
1.0
176
     1
 40
1.0
176
     1
  0
VISUALSTYLE
  5
34
102
{ACAD_REACTORS
330
2A
102
}
330
2A
100
AcDbVisualStyle
  2
Conceptual
 70
     9
177
     3
291
     0
 70
    58
 90
        3
176
     1
 90
        2
176
     1
 90
        0
176
     1
 90
        0
176
     1
 40
0.6
176
     1
 40
30.0
176
     1
 62
     7
420
 16777215
176
     1
 90
        2
176
     1
 90
        2
176
     1
 62
     7
176
     1
 62
   257
176
     1
 90
        1
176
     1
 90
        1
176
     1
 40
179.0
176
     1
 90
        8
176
     1
 62
     7
176
     1
 40
1.0
176
     1
 90
        1
176
     1
 90
        6
176
     1
 90
        2
176
     1
 62
     7
176
     1
 90
        3
176
     1
 90
        0
176
     1
 90
        0
176
     1
290
     0
176
     1
 90
        1
176
     1
 40
0.0
176
     1
 90
        0
176
     1
290
     0
176
     1
290
     1
176
     1
290
     1
176
     1
290
     0
176
     1
290
     0
176
     1
290
     0
176
     1
290
     0
176
     1
290
     0
176
     1
290
     0
176
     1
 90
       50
176
     1
 40
0.0
176
     1
 40
1.0
176
     1
 90
        0
176
     1
 62
    18
420
        0
176
     1
 90
       50
176
     1
 90
        3
176
     1
 62
     5
420
      255
176
     1
290
     0
176
     1
 90
       50
176
     1
 90
       50
176
     1
 90
       50
176
     1
290
     0
176
     1
 90
       50
176
     1
 62
   256
176
     0
 40
1.0
176
     0
 90
        2
176
     1
  1
strokes_ogs.tif
176
     1
290
     0
176
     1
 40
1.0
176
     1
 40
1.0
176
     1
  0
VISUALSTYLE
  5
35
102
{ACAD_REACTORS
330
2A
102
}
330
2A
100
AcDbVisualStyle
  2
Dim
 70
    11
177
     3
291
     1
 70
    58
 90
        2
176
     1
 90
        2
176
     1
 90
        0
176
     1
 90
        0
176
     1
 40
0.6
176
     1
 40
30.0
176
     1
 62
     7
420
 16777215
176
     1
 90
        1
176
     1
 90
        4
176
     1
 62
     7
176
     1
 62
   257
176
     1
 90
        1
176
     1
 90
        1
176
     1
 40
1.0
176
     1
 90
        8
176
     1
 62
     7
176
     1
 40
1.0
176
     1
 90
        1
176
     1
 90
        6
176
     1
 90
        2
176
     1
 62
     7
176
     1
 90
        5
176
     1
 90
        0
176
     1
 90
        0
176
     1
290
     0
176
     1
 90
        1
176
     1
 40
-50.0
176
     1
 90
        0
176
     1
290
     0
176
     1
290
     1
176
     1
290
     1
176
     1
290
     0
176
     1
290
     0
176
     1
290
     0
176
     1
290
     0
176
     1
290
     0
176
     1
290
     0
176
     1
 90
       50
176
     1
 40
0.0
176
     1
 40
1.0
176
     1
 90
        0
176
     1
 62
    18
420
        0
176
     1
 90
       50
176
     1
 90
        3
176
     1
 62
     5
420
      255
176
     1
290
     0
176
     1
 90
       50
176
     1
 90
       50
176
     1
 90
       50
176
     1
290
     0
176
     1
 90
       50
176
     1
 62
   256
176
     0
 40
1.0
176
     0
 90
        2
176
     1
  1
strokes_ogs.tif
176
     1
290
     0
176
     1
 40
1.0
176
     1
 40
1.0
176
     1
  0
VISUALSTYLE
  5
3D
102
{ACAD_REACTORS
330
2A
102
}
330
2A
100
AcDbVisualStyle
  2
EdgeColorOff
 70
    22
177
     3
291
     1
 70
    58
 90
        2
176
     0
 90
        2
176
     0
 90
        0
176
     0
 90
        0
176
     0
 40
0.6
176
     0
 40
30.0
176
     0
 62
     7
420
 16777215
176
     0
 90
        1
176
     0
 90
        4
176
     0
 62
     7
176
     0
 62
   257
176
     0
 90
        1
176
     0
 90
        1
176
     0
 40
1.0
176
     0
 90
        8
176
     2
 62
     7
176
     0
 40
1.0
176
     0
 90
        1
176
     0
 90
        6
176
     0
 90
        2
176
     0
 62
     7
176
     0
 90
        5
176
     0
 90
        0
176
     0
 90
        0
176
     0
290
     0
176
     0
 90
        1
176
     0
 40
0.0
176
     0
 90
        0
176
     0
290
     0
176
     0
290
     1
176
     0
290
     1
176
     0
290
     0
176
     0
290
     0
176
     0
290
     0
176
     0
290
     0
176
     0
290
     0
176
     0
290
     0
176
     0
 90
       50
176
     0
 40
0.0
176
     0
 40
1.0
176
     0
 90
        0
176
     0
 62
    18
420
        0
176
     0
 90
       50
176
     0
 90
        3
176
     0
 62
     5
420
      255
176
     0
290
     0
176
     0
 90
       50
176
     0
 90
       50
176
     0
 90
       50
176
     0
290
     0
176
     0
 90
       50
176
     0
 62
   256
176
     0
 40
1.0
176
     0
 90
        2
176
     0
  1
strokes_ogs.tif
176
     0
290
     0
176
     0
 40
1.0
176
     0
 40
1.0
176
     0
  0
VISUALSTYLE
  5
39
102
{ACAD_REACTORS
330
2A
102
}
330
2A
100
AcDbVisualStyle
  2
Facepattern
 70
    15
177
     3
291
     1
 70
    58
 90
        2
176
     1
 90
        2
176
     1
 90
        0
176
     1
 90
        0
176
     1
 40
0.6
176
     1
 40
30.0
176
     1
 62
     7
420
 16777215
176
     1
 90
        1
176
     1
 90
        4
176
     1
 62
     7
176
     1
 62
   257
176
     1
 90
        1
176
     1
 90
        1
176
     1
 40
1.0
176
     1
 90
        8
176
     1
 62
     7
176
     1
 40
1.0
176
     1
 90
        1
176
     1
 90
        6
176
     1
 90
        2
176
     1
 62
     7
176
     1
 90
        5
176
     1
 90
        0
176
     1
 90
        0
176
     1
290
     0
176
     1
 90
        1
176
     1
 40
0.0
176
     1
 90
        0
176
     1
290
     0
176
     1
290
     1
176
     1
290
     1
176
     1
290
     0
176
     1
290
     0
176
     1
290
     0
176
     1
290
     0
176
     1
290
     0
176
     1
290
     0
176
     1
 90
       50
176
     1
 40
0.0
176
     1
 40
1.0
176
     1
 90
        0
176
     1
 62
    18
420
        0
176
     1
 90
       50
176
     1
 90
        3
176
     1
 62
     5
420
      255
176
     1
290
     0
176
     1
 90
       50
176
     1
 90
       50
176
     1
 90
       50
176
     1
290
     0
176
     1
 90
       50
176
     1
 62
   256
176
     0
 40
1.0
176
     0
 90
        2
176
     1
  1
strokes_ogs.tif
176
     1
290
     0
176
     1
 40
1.0
176
     1
 40
1.0
176
     1
  0
VISUALSTYLE
  5
2B
102
{ACAD_REACTORS
330
2A
102
}
330
2A
100
AcDbVisualStyle
  2
Flat
 70
     0
177
     3
291
     1
 70
    58
 90
        2
176
     1
 90
        1
176
     1
 90
        1
176
     1
 90
        2
176
     1
 40
0.6
176
     1
 40
30.0
176
     1
 62
     7
420
 16777215
176
     1
 90
        0
176
     1
 90
        0
176
     1
 62
     7
176
     1
 62
   257
176
     1
 90
        1
176
     1
 90
        1
176
     1
 40
1.0
176
     1
 90
        8
176
     1
 62
     7
176
     1
 40
1.0
176
     1
 90
        1
176
     1
 90
        6
176
     1
 90
        2
176
     1
 62
     7
176
     1
 90
        5
176
     1
 90
        0
176
     1
 90
        0
176
     1
290
     0
176
     1
 90
       13
176
     1
 40
0.0
176
     1
 90
        0
176
     1
290
     0
176
     1
290
     1
176
     1
290
     1
176
     1
290
     0
176
     1
290
     0
176
     1
290
     0
176
     1
290
     0
176
     1
290
     0
176
     1
290
     0
176
     1
 90
       50
176
     1
 40
0.0
176
     1
 40
1.0
176
     1
 90
        0
176
     1
 62
    18
420
        0
176
     1
 90
       50
176
     1
 90
        3
176
     1
 62
     5
420
      255
176
     1
290
     0
176
     1
 90
       50
176
     1
 90
       50
176
     1
 90
       50
176
     1
290
     0
176
     1
 90
       50
176
     1
 62
   256
176
     0
 40
1.0
176
     0
 90
        2
176
     1
  1
strokes_ogs.tif
176
     1
290
     0
176
     1
 40
1.0
176
     1
 40
1.0
176
     1
  0
VISUALSTYLE
  5
2C
102
{ACAD_REACTORS
330
2A
102
}
330
2A
100
AcDbVisualStyle
  2
FlatWithEdges
 70
     1
177
     3
291
     1
 70
    58
 90
        2
176
     1
 90
        1
176
     1
 90
        1
176
     1
 90
        2
176
     1
 40
0.6
176
     1
 40
30.0
176
     1
 62
     7
420
 16777215
176
     1
 90
        1
176
     1
 90
        0
176
     1
 62
     7
176
     1
 62
   257
176
     1
 90
        1
176
     1
 90
        1
176
     1
 40
1.0
176
     1
 90
        0
176
     1
 62
   257
176
     1
 40
1.0
176
     1
 90
        1
176
     1
 90
        6
176
     1
 90
        2
176
     1
 62
     7
176
     1
 90
        5
176
     1
 90
        0
176
     1
 90
        0
176
     1
290
     0
176
     1
 90
       13
176
     1
 40
0.0
176
     1
 90
        0
176
     1
290
     0
176
     1
290
     1
176
     1
290
     1
176
     1
290
     0
176
     1
290
     0
176
     1
290
     0
176
     1
290
     0
176
     1
290
     0
176
     1
290
     0
176
     1
 90
       50
176
     1
 40
0.0
176
     1
 40
1.0
176
     1
 90
        0
176
     1
 62
    18
420
        0
176
     1
 90
       50
176
     1
 90
        3
176
     1
 62
     5
420
      255
176
     1
290
     0
176
     1
 90
       50
176
     1
 90
       50
176
     1
 90
       50
176
     1
290
     0
176
     1
 90
       50
176
     1
 62
   256
176
     0
 40
1.0
176
     0
 90
        2
176
     1
  1
strokes_ogs.tif
176
     1
290
     0
176
     1
 40
1.0
176
     1
 40
1.0
176
     1
  0
VISUALSTYLE
  5
2D
102
{ACAD_REACTORS
330
2A
102
}
330
2A
100
AcDbVisualStyle
  2
Gouraud
 70
     2
177
     3
291
     1
 70
    58
 90
        2
176
     1
 90
        2
176
     1
 90
        1
176
     1
 90
        2
176
     1
 40
0.6
176
     1
 40
30.0
176
     1
 62
     7
420
 16777215
176
     1
 90
        0
176
     1
 90
        0
176
     1
 62
     7
176
     1
 62
   257
176
     1
 90
        1
176
     1
 90
        1
176
     1
 40
1.0
176
     1
 90
        0
176
     1
 62
     7
176
     1
 40
1.0
176
     1
 90
        1
176
     1
 90
        6
176
     1
 90
        2
176
     1
 62
     7
176
     1
 90
        5
176
     1
 90
        0
176
     1
 90
        0
176
     1
290
     0
176
     1
 90
       13
176
     1
 40
0.0
176
     1
 90
        0
176
     1
290
     0
176
     1
290
     1
176
     1
290
     1
176
     1
290
     0
176
     1
290
     0
176
     1
290
     0
176
     1
290
     0
176
     1
290
     0
176
     1
290
     0
176
     1
 90
       50
176
     1
 40
0.0
176
     1
 40
1.0
176
     1
 90
        0
176
     1
 62
    18
420
        0
176
     1
 90
       50
176
     1
 90
        3
176
     1
 62
     5
420
      255
176
     1
290
     0
176
     1
 90
       50
176
     1
 90
       50
176
     1
 90
       50
176
     1
290
     0
176
     1
 90
       50
176
     1
 62
   256
176
     0
 40
1.0
176
     0
 90
        2
176
     1
  1
strokes_ogs.tif
176
     1
290
     0
176
     1
 40
1.0
176
     1
 40
1.0
176
     1
  0
VISUALSTYLE
  5
2E
102
{ACAD_REACTORS
330
2A
102
}
330
2A
100
AcDbVisualStyle
  2
GouraudWithEdges
 70
     3
177
     3
291
     1
 70
    58
 90
        2
176
     1
 90
        2
176
     1
 90
        1
176
     1
 90
        2
176
     1
 40
0.6
176
     1
 40
30.0
176
     1
 62
     7
420
 16777215
176
     1
 90
        1
176
     1
 90
        0
176
     1
 62
     7
176
     1
 62
   257
176
     1
 90
        1
176
     1
 90
        1
176
     1
 40
1.0
176
     1
 90
        0
176
     1
 62
   257
176
     1
 40
1.0
176
     1
 90
        1
176
     1
 90
        6
176
     1
 90
        2
176
     1
 62
     7
176
     1
 90
        5
176
     1
 90
        0
176
     1
 90
        0
176
     1
290
     0
176
     1
 90
       13
176
     1
 40
0.0
176
     1
 90
        0
176
     1
290
     0
176
     1
290
     1
176
     1
290
     1
176
     1
290
     0
176
     1
290
     0
176
     1
290
     0
176
     1
290
     0
176
     1
290
     0
176
     1
290
     0
176
     1
 90
       50
176
     1
 40
0.0
176
     1
 40
1.0
176
     1
 90
        0
176
     1
 62
    18
420
        0
176
     1
 90
       50
176
     1
 90
        3
176
     1
 62
     5
420
      255
176
     1
290
     0
176
     1
 90
       50
176
     1
 90
       50
176
     1
 90
       50
176
     1
290
     0
176
     1
 90
       50
176
     1
 62
   256
176
     0
 40
1.0
176
     0
 90
        2
176
     1
  1
strokes_ogs.tif
176
     1
290
     0
176
     1
 40
1.0
176
     1
 40
1.0
176
     1
  0
VISUALSTYLE
  5
31
102
{ACAD_REACTORS
330
2A
102
}
330
2A
100
AcDbVisualStyle
  2
Hidden
 70
     6
177
     3
291
     0
 70
    58
 90
        1
176
     1
 90
        2
176
     1
 90
        2
176
     1
 90
        0
176
     1
 40
0.6
176
     1
 40
30.0
176
     1
 62
     7
420
 16777215
176
     1
 90
        2
176
     1
 90
        2
176
     1
 62
     7
176
     1
 62
   257
176
     1
 90
        2
176
     1
 90
        1
176
     1
 40
40.0
176
     1
 90
        0
176
     1
 62
   257
176
     1
 40
1.0
176
     1
 90
        1
176
     1
 90
        6
176
     1
 90
        2
176
     1
 62
     7
176
     1
 90
        3
176
     1
 90
        0
176
     1
 90
        0
176
     1
290
     0
176
     1
 90
        1
176
     1
 40
0.0
176
     1
 90
        0
176
     1
290
     0
176
     1
290
     1
176
     1
290
     1
176
     1
290
     0
176
     1
290
     0
176
     1
290
     0
176
     1
290
     0
176
     1
290
     0
176
     1
290
     0
176
     1
 90
       50
176
     1
 40
0.0
176
     1
 40
1.0
176
     1
 90
        0
176
     1
 62
    18
420
        0
176
     1
 90
       50
176
     1
 90
        3
176
     1
 62
     5
420
      255
176
     1
290
     0
176
     1
 90
       50
176
     1
 90
       50
176
     1
 90
       50
176
     1
290
     0
176
     1
 90
       50
176
     1
 62
   256
176
     0
 40
1.0
176
     0
 90
        2
176
     1
  1
strokes_ogs.tif
176
     1
290
     0
176
     1
 40
1.0
176
     1
 40
1.0
176
     1
  0
VISUALSTYLE
  5
3B
102
{ACAD_REACTORS
330
2A
102
}
330
2A
100
AcDbVisualStyle
  2
JitterOff
 70
    20
177
     3
291
     1
 70
    58
 90
        2
176
     0
 90
        2
176
     0
 90
        0
176
     0
 90
        0
176
     0
 40
0.6
176
     0
 40
30.0
176
     0
 62
     7
420
 16777215
176
     0
 90
        1
176
     0
 90
        4
176
     0
 62
     7
176
     0
 62
   257
176
     0
 90
        1
176
     0
 90
        1
176
     0
 40
1.0
176
     0
 90
       10
176
     2
 62
     7
176
     0
 40
1.0
176
     0
 90
        1
176
     0
 90
        6
176
     0
 90
        2
176
     0
 62
     7
176
     0
 90
        5
176
     0
 90
        0
176
     0
 90
        0
176
     0
290
     0
176
     0
 90
        1
176
     0
 40
0.0
176
     0
 90
        0
176
     0
290
     0
176
     0
290
     1
176
     0
290
     1
176
     0
290
     0
176
     0
290
     0
176
     0
290
     0
176
     0
290
     0
176
     0
290
     0
176
     0
290
     0
176
     0
 90
       50
176
     0
 40
0.0
176
     0
 40
1.0
176
     0
 90
        0
176
     0
 62
    18
420
        0
176
     0
 90
       50
176
     0
 90
        3
176
     0
 62
     5
420
      255
176
     0
290
     0
176
     0
 90
       50
176
     0
 90
       50
176
     0
 90
       50
176
     0
290
     0
176
     0
 90
       50
176
     0
 62
   256
176
     0
 40
1.0
176
     0
 90
        2
176
     0
  1
strokes_ogs.tif
176
     0
290
     0
176
     0
 40
1.0
176
     0
 40
1.0
176
     0
  0
VISUALSTYLE
  5
38
102
{ACAD_REACTORS
330
2A
102
}
330
2A
100
AcDbVisualStyle
  2
Linepattern
 70
    14
177
     3
291
     1
 70
    58
 90
        2
176
     1
 90
        2
176
     1
 90
        0
176
     1
 90
        0
176
     1
 40
0.6
176
     1
 40
30.0
176
     1
 62
     7
420
 16777215
176
     1
 90
        1
176
     1
 90
        4
176
     1
 62
     7
176
     1
 62
   257
176
     1
 90
        7
176
     1
 90
        7
176
     1
 40
1.0
176
     1
 90
        8
176
     1
 62
     7
176
     1
 40
1.0
176
     1
 90
        1
176
     1
 90
        6
176
     1
 90
        2
176
     1
 62
     7
176
     1
 90
        5
176
     1
 90
        0
176
     1
 90
        0
176
     1
290
     0
176
     1
 90
        1
176
     1
 40
0.0
176
     1
 90
        0
176
     1
290
     0
176
     1
290
     1
176
     1
290
     1
176
     1
290
     0
176
     1
290
     0
176
     1
290
     0
176
     1
290
     0
176
     1
290
     0
176
     1
290
     0
176
     1
 90
       50
176
     1
 40
0.0
176
     1
 40
1.0
176
     1
 90
        0
176
     1
 62
    18
420
        0
176
     1
 90
       50
176
     1
 90
        3
176
     1
 62
     5
420
      255
176
     1
290
     0
176
     1
 90
       50
176
     1
 90
       50
176
     1
 90
       50
176
     1
290
     0
176
     1
 90
       50
176
     1
 62
   256
176
     0
 40
1.0
176
     0
 90
        2
176
     1
  1
strokes_ogs.tif
176
     1
290
     0
176
     1
 40
1.0
176
     1
 40
1.0
176
     1
  0
VISUALSTYLE
  5
3C
102
{ACAD_REACTORS
330
2A
102
}
330
2A
100
AcDbVisualStyle
  2
OverhangOff
 70
    21
177
     3
291
     1
 70
    58
 90
        2
176
     0
 90
        2
176
     0
 90
        0
176
     0
 90
        0
176
     0
 40
0.6
176
     0
 40
30.0
176
     0
 62
     7
420
 16777215
176
     0
 90
        1
176
     0
 90
        4
176
     0
 62
     7
176
     0
 62
   257
176
     0
 90
        1
176
     0
 90
        1
176
     0
 40
1.0
176
     0
 90
        9
176
     2
 62
     7
176
     0
 40
1.0
176
     0
 90
        1
176
     0
 90
        6
176
     0
 90
        2
176
     0
 62
     7
176
     0
 90
        5
176
     0
 90
        0
176
     0
 90
        0
176
     0
290
     0
176
     0
 90
        1
176
     0
 40
0.0
176
     0
 90
        0
176
     0
290
     0
176
     0
290
     1
176
     0
290
     1
176
     0
290
     0
176
     0
290
     0
176
     0
290
     0
176
     0
290
     0
176
     0
290
     0
176
     0
290
     0
176
     0
 90
       50
176
     0
 40
0.0
176
     0
 40
1.0
176
     0
 90
        0
176
     0
 62
    18
420
        0
176
     0
 90
       50
176
     0
 90
        3
176
     0
 62
     5
420
      255
176
     0
290
     0
176
     0
 90
       50
176
     0
 90
       50
176
     0
 90
       50
176
     0
290
     0
176
     0
 90
       50
176
     0
 62
   256
176
     0
 40
1.0
176
     0
 90
        2
176
     0
  1
strokes_ogs.tif
176
     0
290
     0
176
     0
 40
1.0
176
     0
 40
1.0
176
     0
  0
VISUALSTYLE
  5
33
102
{ACAD_REACTORS
330
2A
102
}
330
2A
100
AcDbVisualStyle
  2
Realistic
 70
     8
177
     3
291
     0
 70
    58
 90
        2
176
     1
 90
        3
176
     1
 90
        0
176
     1
 90
        2
176
     1
 40
0.6
176
     1
 40
30.0
176
     1
 62
     7
420
 16777215
176
     1
 90
        0
176
     1
 90
        0
176
     1
 62
     7
176
     1
 62
   257
176
     1
 90
        1
176
     1
 90
        1
176
     1
 40
1.0
176
     1
 90
        8
176
     1
 62
   257
176
     1
 40
1.0
176
     1
 90
        1
176
     1
 90
        6
176
     1
 90
        2
176
     1
 62
     7
176
     1
 90
        3
176
     1
 90
        0
176
     1
 90
        0
176
     1
290
     0
176
     1
 90
       13
176
     1
 40
0.0
176
     1
 90
        0
176
     1
290
     0
176
     1
290
     1
176
     1
290
     1
176
     1
290
     0
176
     1
290
     0
176
     1
290
     0
176
     1
290
     0
176
     1
290
     0
176
     1
290
     0
176
     1
 90
       50
176
     1
 40
0.0
176
     1
 40
1.0
176
     1
 90
        0
176
     1
 62
    18
420
        0
176
     1
 90
       50
176
     1
 90
        3
176
     1
 62
     5
420
      255
176
     1
290
     0
176
     1
 90
       50
176
     1
 90
       50
176
     1
 90
       50
176
     1
290
     0
176
     1
 90
       50
176
     1
 62
   256
176
     0
 40
1.0
176
     0
 90
        2
176
     1
  1
strokes_ogs.tif
176
     1
290
     0
176
     1
 40
1.0
176
     1
 40
1.0
176
     1
  0
VISUALSTYLE
  5
42
102
{ACAD_REACTORS
330
2A
102
}
330
2A
100
AcDbVisualStyle
  2
Shaded
 70
    27
177
     3
291
     0
 70
    58
 90
        2
176
     1
 90
        2
176
     1
 90
        1
176
     1
 90
        2
176
     1
 40
0.6
176
     1
 40
30.0
176
     1
 62
     7
420
 16777215
176
     1
 90
        0
176
     1
 90
        4
176
     1
 62
     7
176
     1
 62
   257
176
     1
 90
        1
176
     1
 90
        1
176
     1
 40
1.0
176
     1
 90
        8
176
     1
 62
   257
176
     1
 40
1.0
176
     1
 90
        1
176
     1
 90
        6
176
     1
 90
        2
176
     1
 62
     8
420
  7895160
176
     1
 90
        3
176
     1
 90
        0
176
     1
 90
        0
176
     1
290
     0
176
     1
 90
        5
176
     1
 40
0.0
176
     1
 90
        0
176
     1
290
     0
176
     1
290
     1
176
     1
290
     1
176
     1
290
     0
176
     1
290
     0
176
     1
290
     0
176
     1
290
     0
176
     1
290
     0
176
     1
290
     0
176
     1
 90
       50
176
     1
 40
0.0
176
     1
 40
1.0
176
     1
 90
        0
176
     1
 62
    18
420
        0
176
     1
 90
       50
176
     1
 90
        3
176
     1
 62
     5
420
      255
176
     1
290
     0
176
     1
 90
       50
176
     1
 90
       50
176
     1
 90
       50
176
     1
290
     0
176
     1
 90
       50
176
     1
 62
   256
176
     0
 40
1.0
176
     0
 90
        2
176
     1
  1
strokes_ogs.tif
176
     1
290
     0
176
     1
 40
1.0
176
     1
 40
1.0
176
     1
  0
VISUALSTYLE
  5
41
102
{ACAD_REACTORS
330
2A
102
}
330
2A
100
AcDbVisualStyle
  2
Shaded with edges
 70
    26
177
     3
291
     0
 70
    58
 90
        2
176
     1
 90
        2
176
     1
 90
        1
176
     1
 90
        2
176
     1
 40
0.6
176
     1
 40
30.0
176
     1
 62
     7
420
 16777215
176
     1
 90
        1
176
     1
 90
       10
176
     1
 62
     7
176
     1
 62
   257
176
     1
 90
        2
176
     1
 90
        1
176
     1
 40
1.0
176
     1
 90
        8
176
     1
 62
   257
176
     1
 40
1.0
176
     1
 90
        1
176
     1
 90
        6
176
     1
 90
        2
176
     1
 62
     7
176
     1
 90
        3
176
     1
 90
        0
176
     1
 90
        0
176
     1
290
     0
176
     1
 90
        5
176
     1
 40
0.0
176
     1
 90
        0
176
     1
290
     0
176
     1
290
     1
176
     1
290
     1
176
     1
290
     0
176
     1
290
     0
176
     1
290
     0
176
     1
290
     0
176
     1
290
     0
176
     1
290
     0
176
     1
 90
       50
176
     1
 40
0.0
176
     1
 40
1.0
176
     1
 90
        0
176
     1
 62
    18
420
        0
176
     1
 90
       50
176
     1
 90
        3
176
     1
 62
     5
420
      255
176
     1
290
     0
176
     1
 90
       50
176
     1
 90
       50
176
     1
 90
       50
176
     1
290
     0
176
     1
 90
       50
176
     1
 62
   256
176
     0
 40
1.0
176
     0
 90
        2
176
     1
  1
strokes_ogs.tif
176
     1
290
     0
176
     1
 40
1.0
176
     1
 40
1.0
176
     1
  0
VISUALSTYLE
  5
3E
102
{ACAD_REACTORS
330
2A
102
}
330
2A
100
AcDbVisualStyle
  2
Shades of Gray
 70
    23
177
     3
291
     0
 70
    58
 90
        2
176
     1
 90
        2
176
     1
 90
        3
176
     1
 90
        0
176
     1
 40
0.6
176
     1
 40
30.0
176
     1
 62
     7
420
 16777215
176
     1
 90
        2
176
     1
 90
        2
176
     1
 62
     7
176
     1
 62
     7
176
     1
 90
        1
176
     1
 90
        1
176
     1
 40
40.0
176
     1
 90
        8
176
     1
 62
     7
176
     1
 40
1.0
176
     1
 90
        1
176
     1
 90
        6
176
     1
 90
        2
176
     1
 62
     7
176
     1
 90
        3
176
     1
 90
        0
176
     1
 90
        0
176
     1
290
     0
176
     1
 90
        1
176
     1
 40
0.0
176
     1
 90
        0
176
     1
290
     0
176
     1
290
     1
176
     1
290
     1
176
     1
290
     0
176
     1
290
     0
176
     1
290
     0
176
     1
290
     0
176
     1
290
     0
176
     1
290
     0
176
     1
 90
       50
176
     1
 40
0.0
176
     1
 40
1.0
176
     1
 90
        0
176
     1
 62
    18
420
        0
176
     1
 90
       50
176
     1
 90
        3
176
     1
 62
     5
420
      255
176
     1
290
     0
176
     1
 90
       50
176
     1
 90
       50
176
     1
 90
       50
176
     1
290
     0
176
     1
 90
       50
176
     1
 62
   256
176
     0
 40
1.0
176
     0
 90
        2
176
     1
  1
strokes_ogs.tif
176
     1
290
     0
176
     1
 40
1.0
176
     1
 40
1.0
176
     1
  0
VISUALSTYLE
  5
3F
102
{ACAD_REACTORS
330
2A
102
}
330
2A
100
AcDbVisualStyle
  2
Sketchy
 70
    24
177
     3
291
     0
 70
    58
 90
        1
176
     1
 90
        2
176
     1
 90
        2
176
     1
 90
        0
176
     1
 40
0.6
176
     1
 40
30.0
176
     1
 62
     7
420
 16777215
176
     1
 90
        2
176
     1
 90
        2
176
     1
 62
     7
176
     1
 62
     7
176
     1
 90
        1
176
     1
 90
        1
176
     1
 40
40.0
176
     1
 90
       11
176
     1
 62
     7
176
     1
 40
1.0
176
     1
 90
        1
176
     1
 90
        6
176
     1
 90
        2
176
     1
 62
     7
176
     1
 90
        6
176
     1
 90
        0
176
     1
 90
        0
176
     1
290
     0
176
     1
 90
        1
176
     1
 40
0.0
176
     1
 90
        0
176
     1
290
     0
176
     1
290
     1
176
     1
290
     1
176
     1
290
     0
176
     1
290
     0
176
     1
290
     0
176
     1
290
     0
176
     1
290
     0
176
     1
290
     0
176
     1
 90
       50
176
     1
 40
0.0
176
     1
 40
1.0
176
     1
 90
        0
176
     1
 62
    18
420
        0
176
     1
 90
       50
176
     1
 90
        3
176
     1
 62
     5
420
      255
176
     1
290
     0
176
     1
 90
       50
176
     1
 90
       50
176
     1
 90
       50
176
     1
290
     0
176
     1
 90
       50
176
     1
 62
   256
176
     0
 40
1.0
176
     0
 90
        2
176
     1
  1
strokes_ogs.tif
176
     1
290
     0
176
     1
 40
1.0
176
     1
 40
1.0
176
     1
  0
VISUALSTYLE
  5
37
102
{ACAD_REACTORS
330
2A
102
}
330
2A
100
AcDbVisualStyle
  2
Thicken
 70
    13
177
     3
291
     1
 70
    58
 90
        2
176
     1
 90
        2
176
     1
 90
        0
176
     1
 90
        0
176
     1
 40
0.6
176
     1
 40
30.0
176
     1
 62
     7
420
 16777215
176
     1
 90
        1
176
     1
 90
        4
176
     1
 62
     7
176
     1
 62
   257
176
     1
 90
        1
176
     1
 90
        1
176
     1
 40
1.0
176
     1
 90
       12
176
     1
 62
     7
176
     1
 40
1.0
176
     1
 90
        1
176
     1
 90
        6
176
     1
 90
        2
176
     1
 62
     7
176
     1
 90
        5
176
     1
 90
        0
176
     1
 90
        0
176
     1
290
     0
176
     1
 90
        1
176
     1
 40
0.0
176
     1
 90
        0
176
     1
290
     0
176
     1
290
     1
176
     1
290
     1
176
     1
290
     0
176
     1
290
     0
176
     1
290
     0
176
     1
290
     0
176
     1
290
     0
176
     1
290
     0
176
     1
 90
       50
176
     1
 40
0.0
176
     1
 40
1.0
176
     1
 90
        0
176
     1
 62
    18
420
        0
176
     1
 90
       50
176
     1
 90
        3
176
     1
 62
     5
420
      255
176
     1
290
     0
176
     1
 90
       50
176
     1
 90
       50
176
     1
 90
       50
176
     1
290
     0
176
     1
 90
       50
176
     1
 62
   256
176
     0
 40
1.0
176
     0
 90
        2
176
     1
  1
strokes_ogs.tif
176
     1
290
     0
176
     1
 40
1.0
176
     1
 40
1.0
176
     1
  0
VISUALSTYLE
  5
30
102
{ACAD_REACTORS
330
2A
102
}
330
2A
100
AcDbVisualStyle
  2
Wireframe
 70
     5
177
     3
291
     0
 70
    58
 90
        0
176
     1
 90
        2
176
     1
 90
        0
176
     1
 90
        0
176
     1
 40
0.6
176
     1
 40
30.0
176
     1
 62
     7
420
 16777215
176
     1
 90
        1
176
     1
 90
        4
176
     1
 62
     7
176
     1
 62
   257
176
     1
 90
        1
176
     1
 90
        1
176
     1
 40
1.0
176
     1
 90
        0
176
     1
 62
   257
176
     1
 40
1.0
176
     1
 90
        1
176
     1
 90
        6
176
     1
 90
        2
176
     1
 62
     7
176
     1
 90
        3
176
     1
 90
        0
176
     1
 90
        0
176
     1
290
     0
176
     1
 90
        1
176
     1
 40
0.0
176
     1
 90
        0
176
     1
290
     0
176
     1
290
     1
176
     1
290
     1
176
     1
290
     0
176
     1
290
     0
176
     1
290
     0
176
     1
290
     0
176
     1
290
     0
176
     1
290
     0
176
     1
 90
       50
176
     1
 40
0.0
176
     1
 40
1.0
176
     1
 90
        0
176
     1
 62
    18
420
        0
176
     1
 90
       50
176
     1
 90
        3
176
     1
 62
     5
420
      255
176
     1
290
     0
176
     1
 90
       50
176
     1
 90
       50
176
     1
 90
       50
176
     1
290
     0
176
     1
 90
       50
176
     1
 62
   256
176
     0
 40
1.0
176
     0
 90
        2
176
     1
  1
strokes_ogs.tif
176
     1
290
     0
176
     1
 40
1.0
176
     1
 40
1.0
176
     1
  0
VISUALSTYLE
  5
40
102
{ACAD_REACTORS
330
2A
102
}
330
2A
100
AcDbVisualStyle
  2
X-Ray
 70
    25
177
     3
291
     0
 70
    58
 90
        2
176
     1
 90
        2
176
     1
 90
        1
176
     1
 90
        1
176
     1
 40
0.5
176
     1
 40
30.0
176
     1
 62
     7
420
 16777215
176
     1
 90
        1
176
     1
 90
        0
176
     1
 62
     7
176
     1
 62
   257
176
     1
 90
        1
176
     1
 90
        1
176
     1
 40
1.0
176
     1
 90
        8
176
     1
 62
     7
176
     1
 40
1.0
176
     1
 90
        1
176
     1
 90
        6
176
     1
 90
        2
176
     1
 62
     7
176
     1
 90
        3
176
     1
 90
        0
176
     1
 90
        0
176
     1
290
     0
176
     1
 90
       13
176
     1
 40
0.0
176
     1
 90
        0
176
     1
290
     0
176
     1
290
     1
176
     1
290
     1
176
     1
290
     0
176
     1
290
     0
176
     1
290
     0
176
     1
290
     0
176
     1
290
     0
176
     1
290
     0
176
     1
 90
       50
176
     1
 40
0.0
176
     1
 40
1.0
176
     1
 90
        0
176
     1
 62
    18
420
        0
176
     1
 90
       50
176
     1
 90
        3
176
     1
 62
     5
420
      255
176
     1
290
     0
176
     1
 90
       50
176
     1
 90
       50
176
     1
 90
       50
176
     1
290
     0
176
     1
 90
       50
176
     1
 62
   256
176
     0
 40
1.0
176
     0
 90
        2
176
     1
  1
strokes_ogs.tif
176
     1
290
     0
176
     1
 40
1.0
176
     1
 40
1.0
176
     1
  0
DICTIONARYVAR
  5
528
102
{ACAD_REACTORS
330
527
102
}
330
527
100
DictionaryVariables
280
     0
  1
1:1
  0
DICTIONARYVAR
  5
52D
102
{ACAD_REACTORS
330
527
102
}
330
527
100
DictionaryVariables
280
     0
  1
Standard
  0
DICTIONARYVAR
  5
52C
102
{ACAD_REACTORS
330
527
102
}
330
527
100
DictionaryVariables
280
     0
  1
Standard
  0
DICTIONARY
  5
529
330
6A
100
AcDbDictionary
280
     1
281
     1
  3
ACAD_ROUNDTRIP_2008_TABLESTYLE_CELLSTYLEMAP
360
52A
  0
CELLSTYLEMAP
  5
52A
102
{ACAD_REACTORS
330
529
102
}
330
529
100
AcDbCellStyleMap
 90
        3
300
CELLSTYLE
  1
TABLEFORMAT_BEGIN
 90
        5
170
     1
 91
        0
 92
    32768
 62
   257
 93
        1
300
CONTENTFORMAT
  1
CONTENTFORMAT_BEGIN
 90
        0
 91
        0
 92
        4
 93
        0
300

 40
0.0
140
1.0
 94
        5
 62
     0
340
11
144
0.25
309
CONTENTFORMAT_END
171
     1
301
MARGIN
  1
CELLMARGIN_BEGIN
 40
0.06
 40
0.06
 40
0.06
 40
0.06
 40
0.06
 40
0.06
309
CELLMARGIN_END
 94
        6
 95
        1
302
GRIDFORMAT
  1
GRIDFORMAT_BEGIN
 90
        0
 91
        1
 62
     0
 92
       -2
340
14
 93
        0
 40
0.045
309
GRIDFORMAT_END
 95
        2
302
GRIDFORMAT
  1
GRIDFORMAT_BEGIN
 90
        0
 91
        1
 62
     0
 92
       -2
340
14
 93
        0
 40
0.045
309
GRIDFORMAT_END
 95
        4
302
GRIDFORMAT
  1
GRIDFORMAT_BEGIN
 90
        0
 91
        1
 62
     0
 92
       -2
340
14
 93
        0
 40
0.045
309
GRIDFORMAT_END
 95
        8
302
GRIDFORMAT
  1
GRIDFORMAT_BEGIN
 90
        0
 91
        1
 62
     0
 92
       -2
340
14
 93
        0
 40
0.045
309
GRIDFORMAT_END
 95
       16
302
GRIDFORMAT
  1
GRIDFORMAT_BEGIN
 90
        0
 91
        1
 62
     0
 92
       -2
340
14
 93
        0
 40
0.045
309
GRIDFORMAT_END
 95
       32
302
GRIDFORMAT
  1
GRIDFORMAT_BEGIN
 90
        0
 91
        1
 62
     0
 92
       -2
340
14
 93
        0
 40
0.045
309
GRIDFORMAT_END
309
TABLEFORMAT_END
  1
CELLSTYLE_BEGIN
 90
        1
 91
        1
300
_TITLE
309
CELLSTYLE_END
300
CELLSTYLE
  1
TABLEFORMAT_BEGIN
 90
        5
170
     1
 91
        0
 92
        0
 62
   257
 93
        1
300
CONTENTFORMAT
  1
CONTENTFORMAT_BEGIN
 90
        0
 91
        0
 92
        4
 93
        0
300

 40
0.0
140
1.0
 94
        5
 62
     0
340
11
144
0.18
309
CONTENTFORMAT_END
171
     1
301
MARGIN
  1
CELLMARGIN_BEGIN
 40
0.06
 40
0.06
 40
0.06
 40
0.06
 40
0.06
 40
0.06
309
CELLMARGIN_END
 94
        6
 95
        1
302
GRIDFORMAT
  1
GRIDFORMAT_BEGIN
 90
        0
 91
        1
 62
     0
 92
       -2
340
14
 93
        0
 40
0.045
309
GRIDFORMAT_END
 95
        2
302
GRIDFORMAT
  1
GRIDFORMAT_BEGIN
 90
        0
 91
        1
 62
     0
 92
       -2
340
14
 93
        0
 40
0.045
309
GRIDFORMAT_END
 95
        4
302
GRIDFORMAT
  1
GRIDFORMAT_BEGIN
 90
        0
 91
        1
 62
     0
 92
       -2
340
14
 93
        0
 40
0.045
309
GRIDFORMAT_END
 95
        8
302
GRIDFORMAT
  1
GRIDFORMAT_BEGIN
 90
        0
 91
        1
 62
     0
 92
       -2
340
14
 93
        0
 40
0.045
309
GRIDFORMAT_END
 95
       16
302
GRIDFORMAT
  1
GRIDFORMAT_BEGIN
 90
        0
 91
        1
 62
     0
 92
       -2
340
14
 93
        0
 40
0.045
309
GRIDFORMAT_END
 95
       32
302
GRIDFORMAT
  1
GRIDFORMAT_BEGIN
 90
        0
 91
        1
 62
     0
 92
       -2
340
14
 93
        0
 40
0.045
309
GRIDFORMAT_END
309
TABLEFORMAT_END
  1
CELLSTYLE_BEGIN
 90
        2
 91
        1
300
_HEADER
309
CELLSTYLE_END
300
CELLSTYLE
  1
TABLEFORMAT_BEGIN
 90
        5
170
     1
 91
        0
 92
        0
 62
   257
 93
        1
300
CONTENTFORMAT
  1
CONTENTFORMAT_BEGIN
 90
        0
 91
        0
 92
        4
 93
        0
300

 40
0.0
140
1.0
 94
        2
 62
     0
340
11
144
0.18
309
CONTENTFORMAT_END
171
     1
301
MARGIN
  1
CELLMARGIN_BEGIN
 40
0.06
 40
0.06
 40
0.06
 40
0.06
 40
0.06
 40
0.06
309
CELLMARGIN_END
 94
        6
 95
        1
302
GRIDFORMAT
  1
GRIDFORMAT_BEGIN
 90
        0
 91
        1
 62
     0
 92
       -2
340
14
 93
        0
 40
0.045
309
GRIDFORMAT_END
 95
        2
302
GRIDFORMAT
  1
GRIDFORMAT_BEGIN
 90
        0
 91
        1
 62
     0
 92
       -2
340
14
 93
        0
 40
0.045
309
GRIDFORMAT_END
 95
        4
302
GRIDFORMAT
  1
GRIDFORMAT_BEGIN
 90
        0
 91
        1
 62
     0
 92
       -2
340
14
 93
        0
 40
0.045
309
GRIDFORMAT_END
 95
        8
302
GRIDFORMAT
  1
GRIDFORMAT_BEGIN
 90
        0
 91
        1
 62
     0
 92
       -2
340
14
 93
        0
 40
0.045
309
GRIDFORMAT_END
 95
       16
302
GRIDFORMAT
  1
GRIDFORMAT_BEGIN
 90
        0
 91
        1
 62
     0
 92
       -2
340
14
 93
        0
 40
0.045
309
GRIDFORMAT_END
 95
       32
302
GRIDFORMAT
  1
GRIDFORMAT_BEGIN
 90
        0
 91
        1
 62
     0
 92
       -2
340
14
 93
        0
 40
0.045
309
GRIDFORMAT_END
309
TABLEFORMAT_END
  1
CELLSTYLE_BEGIN
 90
        3
 91
        2
300
_DATA
309
CELLSTYLE_END
  0
ENDSEC
  0
EOF
