  0
SECTION
  2
HEADER
  9
$ACADVER
  1
AC1032
  9
$ACADMAINTVER
 90
       55
  9
$DWGCODEPAGE
  3
ANSI_932
  9
$LASTSAVEDBY
  1
client05
  9
$REQUIREDVERSIONS
160
                 0
  9
$INSBASE
 10
0.0
 20
0.0
 30
0.0
  9
$EXTMIN
 10
-29.05827298175015
 20
-93.62424251515151
 30
0.0
  9
$EXTMAX
 10
270.9417270182499
 20
370.3043223210275
 30
0.0
  9
$LIMMIN
 10
0.0
 20
0.0
  9
$LIMMAX
 10
297.0
 20
210.0
  9
$ORTHOMODE
 70
     0
  9
$REGENMODE
 70
     1
  9
$FILLMODE
 70
     1
  9
$QTEXTMODE
 70
     0
  9
$MIRRTEXT
 70
     1
  9
$LTSCALE
 40
0.25
  9
$ATTMODE
 70
     1
  9
$TEXTSIZE
 40
5.0
  9
$TRACEWID
 40
0.05
  9
$TEXTSTYLE
  7
Standard
  9
$CLAYER
  8
0
  9
$CELTYPE
  6
ByLayer
  9
$CECOLOR
 62
   256
  9
$CELTSCALE
 40
1.0
  9
$DISPSILH
 70
     0
  9
$DIMSCALE
 40
1.0
  9
$DIMASZ
 40
4.0
  9
$DIMEXO
 40
2.0
  9
$DIMDLI
 40
10.0
  9
$DIMRND
 40
0.0
  9
$DIMDLE
 40
0.0
  9
$DIMEXE
 40
2.0
  9
$DIMTP
 40
0.0
  9
$DIMTM
 40
0.0
  9
$DIMTXT
 40
3.5
  9
$DIMCEN
 40
0.09
  9
$DIMTSZ
 40
0.0
  9
$DIMTOL
 70
     0
  9
$DIMLIM
 70
     0
  9
$DIMTIH
 70
     0
  9
$DIMTOH
 70
     0
  9
$DIMSE1
 70
     0
  9
$DIMSE2
 70
     0
  9
$DIMTAD
 70
     3
  9
$DIMZIN
 70
     8
  9
$DIMBLK
  1

  9
$DIMASO
 70
     1
  9
$DIMSHO
 70
     1
  9
$DIMPOST
  1

  9
$DIMAPOST
  1

  9
$DIMALT
 70
     0
  9
$DIMALTD
 70
     2
  9
$DIMALTF
 40
25.4
  9
$DIMLFAC
 40
1.0
  9
$DIMTOFL
 70
     1
  9
$DIMTVP
 40
0.7
  9
$DIMTIX
 70
     0
  9
$DIMSOXD
 70
     0
  9
$DIMSAH
 70
     0
  9
$DIMBLK1
  1

  9
$DIMBLK2
  1

  9
$DIMSTYLE
  2
Standard
  9
$DIMCLRD
 70
     0
  9
$DIMCLRE
 70
     0
  9
$DIMCLRT
 70
     0
  9
$DIMTFAC
 40
0.5
  9
$DIMGAP
 40
0.09
  9
$DIMJUST
 70
     0
  9
$DIMSD1
 70
     0
  9
$DIMSD2
 70
     0
  9
$DIMTOLJ
 70
     1
  9
$DIMTZIN
 70
     8
  9
$DIMALTZ
 70
     0
  9
$DIMALTTZ
 70
     0
  9
$DIMUPT
 70
     1
  9
$DIMDEC
 70
     2
  9
$DIMTDEC
 70
     4
  9
$DIMALTU
 70
     2
  9
$DIMALTTD
 70
     2
  9
$DIMTXSTY
  7
Standard
  9
$DIMAUNIT
 70
     0
  9
$DIMADEC
 70
     0
  9
$DIMALTRND
 40
0.0
  9
$DIMAZIN
 70
     0
  9
$DIMDSEP
 70
    46
  9
$DIMATFIT
 70
     2
  9
$DIMFRAC
 70
     0
  9
$DIMLDRBLK
  1

  9
$DIMLUNIT
 70
     2
  9
$DIMLWD
 70
    -2
  9
$DIMLWE
 70
    -2
  9
$DIMTMOVE
 70
     2
  9
$DIMFXL
 40
1.0
  9
$DIMFXLON
 70
     0
  9
$DIMJOGANG
 40
0.7853981633974483
  9
$DIMTFILL
 70
     0
  9
$DIMTFILLCLR
 70
     0
  9
$DIMARCSYM
 70
     0
  9
$DIMLTYPE
  6

  9
$DIMLTEX1
  6

  9
$DIMLTEX2
  6

  9
$DIMTXTDIRECTION
 70
     0
  9
$LUNITS
 70
     2
  9
$LUPREC
 70
     4
  9
$SKETCHINC
 40
0.1
  9
$FILLETRAD
 40
0.5
  9
$AUNITS
 70
     0
  9
$AUPREC
 70
     0
  9
$MENU
  1
.
  9
$ELEVATION
 40
0.0
  9
$PELEVATION
 40
0.0
  9
$THICKNESS
 40
0.0
  9
$LIMCHECK
 70
     0
  9
$CHAMFERA
 40
0.0
  9
$CHAMFERB
 40
0.0
  9
$CHAMFERC
 40
0.0
  9
$CHAMFERD
 40
0.0
  9
$SKPOLY
 70
     0
  9
$TDCREATE
 40
2459374.923090278
  9
$TDUCREATE
 40
2459374.548090278
  9
$TDUPDATE
 40
2459374.548093646
  9
$TDUUPDATE
 40
2459374.173093646
  9
$TDINDWG
 40
0.0000000116
  9
$TDUSRTIMER
 40
0.0000000116
  9
$USRTIMER
 70
     1
  9
$ANGBASE
 50
0.0
  9
$ANGDIR
 70
     0
  9
$PDMODE
 70
     0
  9
$PDSIZE
 40
0.0
  9
$PLINEWID
 40
0.0
  9
$SPLFRAME
 70
     0
  9
$SPLINETYPE
 70
     6
  9
$SPLINESEGS
 70
     8
  9
$HANDSEED
  5
6A6
  9
$SURFTAB1
 70
     6
  9
$SURFTAB2
 70
     6
  9
$SURFTYPE
 70
     6
  9
$SURFU
 70
     6
  9
$SURFV
 70
     6
  9
$UCSBASE
  2

  9
$UCSNAME
  2

  9
$UCSORG
 10
0.0
 20
0.0
 30
0.0
  9
$UCSXDIR
 10
1.0
 20
0.0
 30
0.0
  9
$UCSYDIR
 10
0.0
 20
1.0
 30
0.0
  9
$UCSORTHOREF
  2

  9
$UCSORTHOVIEW
 70
     0
  9
$UCSORGTOP
 10
0.0
 20
0.0
 30
0.0
  9
$UCSORGBOTTOM
 10
0.0
 20
0.0
 30
0.0
  9
$UCSORGLEFT
 10
0.0
 20
0.0
 30
0.0
  9
$UCSORGRIGHT
 10
0.0
 20
0.0
 30
0.0
  9
$UCSORGFRONT
 10
0.0
 20
0.0
 30
0.0
  9
$UCSORGBACK
 10
0.0
 20
0.0
 30
0.0
  9
$PUCSBASE
  2

  9
$PUCSNAME
  2

  9
$PUCSORG
 10
0.0
 20
0.0
 30
0.0
  9
$PUCSXDIR
 10
1.0
 20
0.0
 30
0.0
  9
$PUCSYDIR
 10
0.0
 20
1.0
 30
0.0
  9
$PUCSORTHOREF
  2

  9
$PUCSORTHOVIEW
 70
     0
  9
$PUCSORGTOP
 10
0.0
 20
0.0
 30
0.0
  9
$PUCSORGBOTTOM
 10
0.0
 20
0.0
 30
0.0
  9
$PUCSORGLEFT
 10
0.0
 20
0.0
 30
0.0
  9
$PUCSORGRIGHT
 10
0.0
 20
0.0
 30
0.0
  9
$PUCSORGFRONT
 10
0.0
 20
0.0
 30
0.0
  9
$PUCSORGBACK
 10
0.0
 20
0.0
 30
0.0
  9
$USERI1
 70
     0
  9
$USERI2
 70
     0
  9
$USERI3
 70
     0
  9
$USERI4
 70
     0
  9
$USERI5
 70
     0
  9
$USERR1
 40
0.0
  9
$USERR2
 40
0.0
  9
$USERR3
 40
0.0
  9
$USERR4
 40
0.0
  9
$USERR5
 40
0.0
  9
$WORLDVIEW
 70
     1
  9
$SHADEDGE
 70
     3
  9
$SHADEDIF
 70
    70
  9
$TILEMODE
 70
     1
  9
$MAXACTVP
 70
    64
  9
$PINSBASE
 10
0.0
 20
0.0
 30
0.0
  9
$PLIMCHECK
 70
     0
  9
$PEXTMIN
 10
0.0
 20
0.0
 30
0.0
  9
$PEXTMAX
 10
297.0
 20
210.0
 30
0.0
  9
$PLIMMIN
 10
0.0
 20
0.0
  9
$PLIMMAX
 10
297.0
 20
210.0
  9
$UNITMODE
 70
     0
  9
$VISRETAIN
 70
     1
  9
$PLINEGEN
 70
     0
  9
$PSLTSCALE
 70
     1
  9
$TREEDEPTH
 70
  3020
  9
$CMLSTYLE
  2
Standard
  9
$CMLJUST
 70
     0
  9
$CMLSCALE
 40
1.0
  9
$PROXYGRAPHICS
 70
     1
  9
$MEASUREMENT
 70
     1
  9
$CELWEIGHT
370
    -1
  9
$ENDCAPS
280
     0
  9
$JOINSTYLE
280
     0
  9
$LWDISPLAY
290
     0
  9
$INSUNITS
 70
     4
  9
$HYPERLINKBASE
  1

  9
$STYLESHEET
  1

  9
$XEDIT
290
     1
  9
$CEPSNTYPE
380
     0
  9
$PSTYLEMODE
290
     1
  9
$FINGERPRINTGUID
  2
{76b53c7e-304e-4e61-aa78-493429ad57d4}
  9
$VERSIONGUID
  2
{FAEB1C32-E019-11D5-929B-00C0DF256EC4}
  9
$EXTNAMES
290
     1
  9
$PSVPSCALE
 40
0.0
  9
$OLESTARTUP
290
     0
  9
$SORTENTS
280
   127
  9
$INDEXCTL
280
     0
  9
$HIDETEXT
280
     1
  9
$XCLIPFRAME
280
     2
  9
$HALOGAP
280
     0
  9
$OBSCOLOR
 70
   257
  9
$OBSLTYPE
280
     0
  9
$INTERSECTIONDISPLAY
280
     0
  9
$INTERSECTIONCOLOR
 70
   257
  9
$DIMASSOC
280
     1
  9
$PROJECTNAME
  1

  9
$CAMERADISPLAY
290
     0
  9
$LENSLENGTH
 40
50.0
  9
$CAMERAHEIGHT
 40
0.0
  9
$STEPSPERSEC
 40
2.0
  9
$STEPSIZE
 40
6.0
  9
$3DDWFPREC
 40
2.0
  9
$PSOLWIDTH
 40
0.25
  9
$PSOLHEIGHT
 40
4.0
  9
$LOFTANG1
 40
1.570796326794897
  9
$LOFTANG2
 40
1.570796326794897
  9
$LOFTMAG1
 40
0.0
  9
$LOFTMAG2
 40
0.0
  9
$LOFTPARAM
 70
     7
  9
$LOFTNORMALS
280
     1
  9
$LATITUDE
 40
37.795
  9
$LONGITUDE
 40
-122.394
  9
$NORTHDIRECTION
 40
0.0
  9
$TIMEZONE
 70
 -8000
  9
$LIGHTGLYPHDISPLAY
280
     1
  9
$TILEMODELIGHTSYNCH
280
     1
  9
$CMATERIAL
347
44
  9
$SOLIDHIST
280
     0
  9
$SHOWHIST
280
     1
  9
$DWFFRAME
280
     2
  9
$DGNFRAME
280
     2
  9
$REALWORLDSCALE
290
     1
  9
$INTERFERECOLOR
 62
   256
  9
$CSHADOW
280
     0
  9
$SHADOWPLANELOCATION
 40
0.0
  0
ENDSEC
  0
SECTION
  2
CLASSES
  0
CLASS
  1
ACDBDICTIONARYWDFLT
  2
AcDbDictionaryWithDefault
  3
ObjectDBX Classes
 90
        0
 91
        3
280
     0
281
     0
  0
CLASS
  1
VISUALSTYLE
  2
AcDbVisualStyle
  3
ObjectDBX Classes
 90
     4095
 91
        3
280
     0
281
     0
  0
CLASS
  1
MATERIAL
  2
AcDbMaterial
  3
ObjectDBX Classes
 90
     1153
 91
        3
280
     0
281
     0
  0
CLASS
  1
SCALE
  2
AcDbScale
  3
ObjectDBX Classes
 90
     1153
 91
        3
280
     0
281
     0
  0
CLASS
  1
TABLESTYLE
  2
AcDbTableStyle
  3
ObjectDBX Classes
 90
     4095
 91
        3
280
     0
281
     0
  0
CLASS
  1
MLEADERSTYLE
  2
AcDbMLeaderStyle
  3
ACDB_MLEADERSTYLE_CLASS
 90
     4095
 91
        3
280
     0
281
     0
  0
CLASS
  1
SUN
  2
AcDbSun
  3
SCENEOE
 90
     1153
 91
        3
280
     0
281
     0
  0
CLASS
  1
DICTIONARYVAR
  2
AcDbDictionaryVar
  3
ObjectDBX Classes
 90
        0
 91
        3
280
     0
281
     0
  0
CLASS
  1
CELLSTYLEMAP
  2
AcDbCellStyleMap
  3
ObjectDBX Classes
 90
     1152
 91
        3
280
     0
281
     0
  0
ENDSEC
  0
SECTION
  2
TABLES
  0
TABLE
  2
VPORT
  5
8
330
0
100
AcDbSymbolTable
 70
     1
  0
VPORT
  5
29
330
8
100
AcDbSymbolTableRecord
100
AcDbViewportTableRecord
  2
*Active
 70
     0
 10
0.0
 20
0.0
 11
1.0
 21
1.0
 12
10.42990654205607
 22
4.5
 13
0.0
 23
0.0
 14
0.5
 24
0.5
 15
0.5
 25
0.5
 16
0.0
 26
0.0
 36
1.0
 17
0.0
 27
0.0
 37
0.0
 40
9.0
 41
1.972972972850329
 42
50.0
 43
0.0
 44
0.0
 50
0.0
 51
0.0
 71
     0
 72
   100
 73
     1
 74
     3
 75
     0
 76
     0
 77
     0
 78
     0
281
     0
 65
     1
110
0.0
120
0.0
130
0.0
111
1.0
121
0.0
131
0.0
112
0.0
122
1.0
132
0.0
 79
     0
146
0.0
348
2F
 60
     3
 61
     5
292
     1
282
     1
141
0.0
142
0.0
 63
   250
361
6D
  0
ENDTAB
  0
TABLE
  2
LTYPE
  5
5
330
0
100
AcDbSymbolTable
 70
     9
  0
LTYPE
  5
14
330
5
100
AcDbSymbolTableRecord
100
AcDbLinetypeTableRecord
  2
ByBlock
 70
     0
  3

 72
    65
 73
     0
 40
0.0
  0
LTYPE
  5
15
330
5
100
AcDbSymbolTableRecord
100
AcDbLinetypeTableRecord
  2
ByLayer
 70
     0
  3

 72
    65
 73
     0
 40
0.0
  0
LTYPE
  5
16
330
5
100
AcDbSymbolTableRecord
100
AcDbLinetypeTableRecord
  2
Continuous
 70
     0
  3
Solid line
 72
    65
 73
     0
 40
0.0
  0
LTYPE
  5
BC
330
5
100
AcDbSymbolTableRecord
100
AcDbLinetypeTableRecord
  2
DOT
 70
     0
  3
DOT
 72
    65
 73
     2
 40
4.0
 49
6.0
 74
     0
 49
-2.0
 74
     0
  0
LTYPE
  5
BD
330
5
100
AcDbSymbolTableRecord
100
AcDbLinetypeTableRecord
  2
HIDDEN
 70
     0
  3
HIDDEN
 72
    65
 73
     2
 40
4.2
 49
8.4
 74
     0
 49
-4.2
 74
     0
  0
LTYPE
  5
BE
330
5
100
AcDbSymbolTableRecord
100
AcDbLinetypeTableRecord
  2
DASHDOT
 70
     0
  3
DASHDOT
 72
    65
 73
     4
 40
14.5
 49
30.0
 74
     0
 49
-9.0
 74
     0
 49
2.5
 74
     0
 49
-9.0
 74
     0
  0
LTYPE
  5
BF
330
5
100
AcDbSymbolTableRecord
100
AcDbLinetypeTableRecord
  2
PHANTOM
 70
     0
  3
PHANTOM
 72
    65
 73
     6
 40
12.0
 49
30.0
 74
     0
 49
-9.0
 74
     0
 49
2.5
 74
     0
 49
-5.0
 74
     0
 49
2.5
 74
     0
 49
-9.0
 74
     0
  0
LTYPE
  5
C0
330
5
100
AcDbSymbolTableRecord
100
AcDbLinetypeTableRecord
  2
ACAD_ISO14W100
 70
     0
  3
ACAD_ISO14W100
 72
    65
 73
     8
 40
1.5
 49
12.0
 74
     0
 49
-3.0
 74
     0
 49
0.5
 74
     0
 49
-3.0
 74
     0
 49
0.5
 74
     0
 49
-3.0
 74
     0
 49
0.5
 74
     0
 49
-3.0
 74
     0
  0
LTYPE
  5
C1
330
5
100
AcDbSymbolTableRecord
100
AcDbLinetypeTableRecord
  2
ACAD_ISO06W100
 70
     0
  3
ACAD_ISO06W100
 72
    65
 73
     8
 40
13.5
 49
24.0
 74
     0
 49
-3.0
 74
     0
 49
0.5
 74
     0
 49
-3.0
 74
     0
 49
0.5
 74
     0
 49
-3.0
 74
     0
 49
0.5
 74
     0
 49
-3.0
 74
     0
  0
LTYPE
  5
C2
330
5
100
AcDbSymbolTableRecord
100
AcDbLinetypeTableRecord
  2
ACAD_ISO11W100
 70
     0
  3
ACAD_ISO11W100
 72
    65
 73
     6
 40
15.5
 49
12.0
 74
     0
 49
-3.0
 74
     0
 49
12.0
 74
     0
 49
-3.0
 74
     0
 49
0.5
 74
     0
 49
-3.0
 74
     0
  0
LTYPE
  5
C3
330
5
100
AcDbSymbolTableRecord
100
AcDbLinetypeTableRecord
  2
ACAD_ISO13W100
 70
     0
  3
ACAD_ISO13W100
 72
    65
 73
     8
 40
13.0
 49
12.0
 74
     0
 49
-3.0
 74
     0
 49
12.0
 74
     0
 49
-3.0
 74
     0
 49
0.5
 74
     0
 49
-3.0
 74
     0
 49
0.5
 74
     0
 49
-3.0
 74
     0
  0
ENDTAB
  0
TABLE
  2
LAYER
  5
2
330
0
100
AcDbSymbolTable
 70
    30
  0
LAYER
  5
10
330
2
100
AcDbSymbolTableRecord
100
AcDbLayerTableRecord
  2
0
 70
     0
 62
     7
  6
Continuous
370
    -3
390
F
347
46
348
0
  0
LAYER
  5
C4
330
2
100
AcDbSymbolTableRecord
100
AcDbLayerTableRecord
  2
1
 70
     0
 62
     7
  6
Continuous
370
     9
390
F
347
46
348
0
  0
LAYER
  5
C5
330
2
100
AcDbSymbolTableRecord
100
AcDbLayerTableRecord
  2
2
 70
     0
 62
   136
420
    32896
  6
Continuous
370
     9
390
F
347
46
348
0
  0
LAYER
  5
C6
330
2
100
AcDbSymbolTableRecord
100
AcDbLayerTableRecord
  2
3
 70
     0
 62
   216
420
  8388736
  6
Continuous
370
     9
390
F
347
46
348
0
  0
LAYER
  5
C7
330
2
100
AcDbSymbolTableRecord
100
AcDbLayerTableRecord
  2
4
 70
     0
 62
    56
420
  8421376
  6
Continuous
370
     9
390
F
347
46
348
0
  0
LAYER
  5
C8
330
2
100
AcDbSymbolTableRecord
100
AcDbLayerTableRecord
  2
5
 70
     0
 62
    96
420
    32768
  6
Continuous
370
     9
390
F
347
46
348
0
  0
LAYER
  5
C9
330
2
100
AcDbSymbolTableRecord
100
AcDbLayerTableRecord
  2
6
 70
     0
 62
    16
420
  8388608
  6
Continuous
370
     9
390
F
347
46
348
0
  0
LAYER
  5
CA
330
2
100
AcDbSymbolTableRecord
100
AcDbLayerTableRecord
  2
7
 70
     0
 62
     4
  6
Continuous
370
     9
390
F
347
46
348
0
  0
LAYER
  5
CB
330
2
100
AcDbSymbolTableRecord
100
AcDbLayerTableRecord
  2
8
 70
     0
 62
     6
  6
Continuous
370
     9
390
F
347
46
348
0
  0
LAYER
  5
CC
330
2
100
AcDbSymbolTableRecord
100
AcDbLayerTableRecord
  2
9
 70
     0
 62
     2
  6
Continuous
370
     9
390
F
347
46
348
0
  0
LAYER
  5
CD
330
2
100
AcDbSymbolTableRecord
100
AcDbLayerTableRecord
  2
10
 70
     0
 62
     3
  6
Continuous
370
     9
390
F
347
46
348
0
  0
LAYER
  5
CE
330
2
100
AcDbSymbolTableRecord
100
AcDbLayerTableRecord
  2
11
 70
     0
 62
     8
420
  8421504
  6
Continuous
370
     9
390
F
347
46
348
0
  0
LAYER
  5
CF
330
2
100
AcDbSymbolTableRecord
100
AcDbLayerTableRecord
  2
12
 70
     0
 62
   138
420
    20560
  6
Continuous
370
     9
390
F
347
46
348
0
  0
LAYER
  5
D0
330
2
100
AcDbSymbolTableRecord
100
AcDbLayerTableRecord
  2
13
 70
     0
 62
   218
420
  5242960
  6
Continuous
370
     9
390
F
347
46
348
0
  0
LAYER
  5
D1
330
2
100
AcDbSymbolTableRecord
100
AcDbLayerTableRecord
  2
14
 70
     0
 62
    58
420
  5263360
  6
Continuous
370
     9
390
F
347
46
348
0
  0
LAYER
  5
D2
330
2
100
AcDbSymbolTableRecord
100
AcDbLayerTableRecord
  2
15
 70
     0
 62
    98
420
    20480
  6
Continuous
370
     9
390
F
347
46
348
0
  0
LAYER
  5
D3
330
2
100
AcDbSymbolTableRecord
100
AcDbLayerTableRecord
  2
16
 70
     0
 62
    18
420
  5242880
  6
Continuous
370
     9
390
F
347
46
348
0
  0
LAYER
  5
D4
330
2
100
AcDbSymbolTableRecord
100
AcDbLayerTableRecord
  2
17
 70
     0
 62
   132
420
    49344
  6
Continuous
370
     9
390
F
347
46
348
0
  0
LAYER
  5
D5
330
2
100
AcDbSymbolTableRecord
100
AcDbLayerTableRecord
  2
18
 70
     0
 62
   212
420
 12583104
  6
Continuous
370
     9
390
F
347
46
348
0
  0
LAYER
  5
D6
330
2
100
AcDbSymbolTableRecord
100
AcDbLayerTableRecord
  2
19
 70
     0
 62
    52
420
 12632064
  6
Continuous
370
     9
390
F
347
46
348
0
  0
LAYER
  5
D7
330
2
100
AcDbSymbolTableRecord
100
AcDbLayerTableRecord
  2
20
 70
     0
 62
   251
420
  5263440
  6
Continuous
370
     9
390
F
347
46
348
0
  0
LAYER
  5
D8
330
2
100
AcDbSymbolTableRecord
100
AcDbLayerTableRecord
  2
100
 70
     0
 62
     7
  6
Continuous
370
     9
390
F
347
46
348
0
  0
LAYER
  5
D9
330
2
100
AcDbSymbolTableRecord
100
AcDbLayerTableRecord
  2
101
 70
     0
 62
     7
  6
Continuous
370
     9
390
F
347
46
348
0
  0
LAYER
  5
DA
330
2
100
AcDbSymbolTableRecord
100
AcDbLayerTableRecord
  2
102
 70
     0
 62
     7
  6
Continuous
370
     9
390
F
347
46
348
0
  0
LAYER
  5
DB
330
2
100
AcDbSymbolTableRecord
100
AcDbLayerTableRecord
  2
103
 70
     0
 62
     9
420
 12434877
  6
Continuous
370
     9
390
F
347
46
348
0
  0
LAYER
  5
DC
330
2
100
AcDbSymbolTableRecord
100
AcDbLayerTableRecord
  2
104
 70
     0
 62
   253
420
 10263708
  6
Continuous
370
     9
390
F
347
46
348
0
  0
LAYER
  5
DD
330
2
100
AcDbSymbolTableRecord
100
AcDbLayerTableRecord
  2
105
 70
     0
 62
     8
420
  7566195
  6
Continuous
370
     9
390
F
347
46
348
0
  0
LAYER
  5
DE
330
2
100
AcDbSymbolTableRecord
100
AcDbLayerTableRecord
  2
106
 70
     0
 62
     8
420
  7566195
  6
Continuous
370
     9
390
F
347
46
348
0
  0
LAYER
  5
DF
330
2
100
AcDbSymbolTableRecord
100
AcDbLayerTableRecord
  2
107
 70
     0
 62
     1
  6
Continuous
370
     9
390
F
347
46
348
0
  0
LAYER
  5
E0
330
2
100
AcDbSymbolTableRecord
100
AcDbLayerTableRecord
  2
128
 70
     0
 62
     7
  6
Continuous
370
     9
390
F
347
46
348
0
  0
ENDTAB
  0
TABLE
  2
STYLE
  5
3
330
0
100
AcDbSymbolTable
 70
     2
  0
STYLE
  5
11
330
3
100
AcDbSymbolTableRecord
100
AcDbTextStyleTableRecord
  2
Standard
 70
     0
 40
0.0
 41
1.0
 50
0.0
 71
     0
 42
5.0
  3
txt
  4
bigfont
  0
STYLE
  5
6F
330
3
100
AcDbSymbolTableRecord
100
AcDbTextStyleTableRecord
  2
T_STANDARD
 70
     4
 40
10.0
 41
1.0
 50
0.0
 71
     0
 42
5.0
  3
txt
  4
bigfont
1001
ACAD
1000

1071
      256
  0
ENDTAB
  0
TABLE
  2
VIEW
  5
6
330
0
100
AcDbSymbolTable
 70
     0
  0
ENDTAB
  0
TABLE
  2
UCS
  5
7
330
0
100
AcDbSymbolTable
 70
     0
  0
ENDTAB
  0
TABLE
  2
APPID
  5
9
330
0
100
AcDbSymbolTable
 70
     2
  0
APPID
  5
12
330
9
100
AcDbSymbolTableRecord
100
AcDbRegAppTableRecord
  2
ACAD
 70
     0
  0
APPID
  5
6E
330
9
100
AcDbSymbolTableRecord
100
AcDbRegAppTableRecord
  2
ODA
 70
     0
  0
ENDTAB
  0
TABLE
  2
DIMSTYLE
  5
A
330
0
100
AcDbSymbolTable
 70
     1
100
AcDbDimStyleTable
  0
DIMSTYLE
105
27
330
A
100
AcDbSymbolTableRecord
100
AcDbDimStyleTableRecord
  2
Standard
 70
     0
178
     0
340
11
  0
ENDTAB
  0
TABLE
  2
BLOCK_RECORD
  5
1
330
0
100
AcDbSymbolTable
 70
    72
  0
BLOCK_RECORD
  5
1F
330
1
100
AcDbSymbolTableRecord
100
AcDbBlockTableRecord
  2
*Model_Space
340
22
 70
     0
280
     1
281
     0
  0
BLOCK_RECORD
  5
1B
330
1
100
AcDbSymbolTableRecord
100
AcDbBlockTableRecord
  2
*Paper_Space
340
1E
 70
     0
280
     1
281
     0
  0
BLOCK_RECORD
  5
23
330
1
100
AcDbSymbolTableRecord
100
AcDbBlockTableRecord
  2
*Paper_Space0
340
26
 70
     0
280
     1
281
     0
  0
BLOCK_RECORD
  5
70
330
1
100
AcDbSymbolTableRecord
100
AcDbBlockTableRecord
  2
_ORIGIN
340
0
 70
     0
280
     1
281
     0
  0
BLOCK_RECORD
  5
75
330
1
100
AcDbSymbolTableRecord
100
AcDbBlockTableRecord
  2
_DOTBLANK
340
0
 70
     0
280
     1
281
     0
  0
BLOCK_RECORD
  5
7A
330
1
100
AcDbSymbolTableRecord
100
AcDbBlockTableRecord
  2
_DOT
340
0
 70
     0
280
     1
281
     0
  0
BLOCK_RECORD
  5
7F
330
1
100
AcDbSymbolTableRecord
100
AcDbBlockTableRecord
  2
_OPEN
340
0
 70
     0
280
     1
281
     0
  0
BLOCK_RECORD
  5
85
330
1
100
AcDbSymbolTableRecord
100
AcDbBlockTableRecord
  2
_CLOSED
340
0
 70
     0
280
     1
281
     0
  0
BLOCK_RECORD
  5
8C
330
1
100
AcDbSymbolTableRecord
100
AcDbBlockTableRecord
  2
_CLOSEDBLANK
340
0
 70
     0
280
     1
281
     0
  0
BLOCK_RECORD
  5
92
330
1
100
AcDbSymbolTableRecord
100
AcDbBlockTableRecord
  2
_ARROWFILLED
340
0
 70
     0
280
     1
281
     0
  0
BLOCK_RECORD
  5
96
330
1
100
AcDbSymbolTableRecord
100
AcDbBlockTableRecord
  2
_BOXBLANK
340
0
 70
     0
280
     1
281
     0
  0
BLOCK_RECORD
  5
9E
330
1
100
AcDbSymbolTableRecord
100
AcDbBlockTableRecord
  2
_BOXFILLED
340
0
 70
     0
280
     1
281
     0
  0
BLOCK_RECORD
  5
A3
330
1
100
AcDbSymbolTableRecord
100
AcDbBlockTableRecord
  2
_INTEGRAL
340
0
 70
     0
280
     1
281
     0
  0
BLOCK_RECORD
  5
A8
330
1
100
AcDbSymbolTableRecord
100
AcDbBlockTableRecord
  2
_OBLIQUE
340
0
 70
     0
280
     1
281
     0
  0
BLOCK_RECORD
  5
AC
330
1
100
AcDbSymbolTableRecord
100
AcDbBlockTableRecord
  2
_NONE
340
0
 70
     0
280
     1
281
     0
  0
BLOCK_RECORD
  5
AF
330
1
100
AcDbSymbolTableRecord
100
AcDbBlockTableRecord
  2
MARK_OPEN
340
0
 70
     0
280
     1
281
     0
  0
BLOCK_RECORD
  5
B4
330
1
100
AcDbSymbolTableRecord
100
AcDbBlockTableRecord
  2
MARK_ORIGIN
340
0
 70
     0
280
     1
281
     0
  0
BLOCK_RECORD
  5
B8
330
1
100
AcDbSymbolTableRecord
100
AcDbBlockTableRecord
  2
MARK_DOT
340
0
 70
     0
280
     1
281
     0
  0
BLOCK_RECORD
  5
E1
330
1
100
AcDbSymbolTableRecord
100
AcDbBlockTableRecord
  2
G1
340
0
102
{BLKREFS
331
429
102
}
 70
     0
280
     1
281
     0
  0
BLOCK_RECORD
  5
E4
330
1
100
AcDbSymbolTableRecord
100
AcDbBlockTableRecord
  2
G2
340
0
102
{BLKREFS
331
10D
102
}
 70
     0
280
     1
281
     0
  0
BLOCK_RECORD
  5
10E
330
1
100
AcDbSymbolTableRecord
100
AcDbBlockTableRecord
  2
G3
340
0
102
{BLKREFS
331
115
102
}
 70
     0
280
     1
281
     0
  0
BLOCK_RECORD
  5
116
330
1
100
AcDbSymbolTableRecord
100
AcDbBlockTableRecord
  2
G4
340
0
102
{BLKREFS
331
11D
102
}
 70
     0
280
     1
281
     0
  0
BLOCK_RECORD
  5
11E
330
1
100
AcDbSymbolTableRecord
100
AcDbBlockTableRecord
  2
G5
340
0
102
{BLKREFS
331
123
102
}
 70
     0
280
     1
281
     0
  0
BLOCK_RECORD
  5
124
330
1
100
AcDbSymbolTableRecord
100
AcDbBlockTableRecord
  2
G6
340
0
102
{BLKREFS
331
129
102
}
 70
     0
280
     1
281
     0
  0
BLOCK_RECORD
  5
12A
330
1
100
AcDbSymbolTableRecord
100
AcDbBlockTableRecord
  2
G7
340
0
102
{BLKREFS
331
133
102
}
 70
     0
280
     1
281
     0
  0
BLOCK_RECORD
  5
134
330
1
100
AcDbSymbolTableRecord
100
AcDbBlockTableRecord
  2
G8
340
0
102
{BLKREFS
331
139
102
}
 70
     0
280
     1
281
     0
  0
BLOCK_RECORD
  5
13A
330
1
100
AcDbSymbolTableRecord
100
AcDbBlockTableRecord
  2
G9
340
0
102
{BLKREFS
331
14A
102
}
 70
     0
280
     1
281
     0
  0
BLOCK_RECORD
  5
14B
330
1
100
AcDbSymbolTableRecord
100
AcDbBlockTableRecord
  2
G10
340
0
102
{BLKREFS
331
156
102
}
 70
     0
280
     1
281
     0
  0
BLOCK_RECORD
  5
157
330
1
100
AcDbSymbolTableRecord
100
AcDbBlockTableRecord
  2
G11
340
0
102
{BLKREFS
331
171
102
}
 70
     0
280
     1
281
     0
  0
BLOCK_RECORD
  5
172
330
1
100
AcDbSymbolTableRecord
100
AcDbBlockTableRecord
  2
G12
340
0
102
{BLKREFS
331
18E
102
}
 70
     0
280
     1
281
     0
  0
BLOCK_RECORD
  5
18F
330
1
100
AcDbSymbolTableRecord
100
AcDbBlockTableRecord
  2
G13
340
0
102
{BLKREFS
331
19D
102
}
 70
     0
280
     1
281
     0
  0
BLOCK_RECORD
  5
19E
330
1
100
AcDbSymbolTableRecord
100
AcDbBlockTableRecord
  2
G14
340
0
102
{BLKREFS
331
1A7
102
}
 70
     0
280
     1
281
     0
  0
BLOCK_RECORD
  5
1A8
330
1
100
AcDbSymbolTableRecord
100
AcDbBlockTableRecord
  2
G15
340
0
102
{BLKREFS
331
1CE
102
}
 70
     0
280
     1
281
     0
  0
BLOCK_RECORD
  5
1CF
330
1
100
AcDbSymbolTableRecord
100
AcDbBlockTableRecord
  2
G16
340
0
102
{BLKREFS
331
1E0
102
}
 70
     0
280
     1
281
     0
  0
BLOCK_RECORD
  5
1E1
330
1
100
AcDbSymbolTableRecord
100
AcDbBlockTableRecord
  2
G17
340
0
102
{BLKREFS
331
1EC
102
}
 70
     0
280
     1
281
     0
  0
BLOCK_RECORD
  5
1ED
330
1
100
AcDbSymbolTableRecord
100
AcDbBlockTableRecord
  2
G18
340
0
102
{BLKREFS
331
1FA
102
}
 70
     0
280
     1
281
     0
  0
BLOCK_RECORD
  5
1FB
330
1
100
AcDbSymbolTableRecord
100
AcDbBlockTableRecord
  2
G19
340
0
102
{BLKREFS
331
205
102
}
 70
     0
280
     1
281
     0
  0
BLOCK_RECORD
  5
206
330
1
100
AcDbSymbolTableRecord
100
AcDbBlockTableRecord
  2
G20
340
0
102
{BLKREFS
331
20E
102
}
 70
     0
280
     1
281
     0
  0
BLOCK_RECORD
  5
20F
330
1
100
AcDbSymbolTableRecord
100
AcDbBlockTableRecord
  2
G21
340
0
102
{BLKREFS
331
216
102
}
 70
     0
280
     1
281
     0
  0
BLOCK_RECORD
  5
217
330
1
100
AcDbSymbolTableRecord
100
AcDbBlockTableRecord
  2
G22
340
0
102
{BLKREFS
331
221
102
}
 70
     0
280
     1
281
     0
  0
BLOCK_RECORD
  5
222
330
1
100
AcDbSymbolTableRecord
100
AcDbBlockTableRecord
  2
G23
340
0
102
{BLKREFS
331
22D
102
}
 70
     0
280
     1
281
     0
  0
BLOCK_RECORD
  5
22E
330
1
100
AcDbSymbolTableRecord
100
AcDbBlockTableRecord
  2
G24
340
0
102
{BLKREFS
331
238
102
}
 70
     0
280
     1
281
     0
  0
BLOCK_RECORD
  5
239
330
1
100
AcDbSymbolTableRecord
100
AcDbBlockTableRecord
  2
G25
340
0
102
{BLKREFS
331
26C
102
}
 70
     0
280
     1
281
     0
  0
BLOCK_RECORD
  5
26D
330
1
100
AcDbSymbolTableRecord
100
AcDbBlockTableRecord
  2
G26
340
0
102
{BLKREFS
331
277
102
}
 70
     0
280
     1
281
     0
  0
BLOCK_RECORD
  5
278
330
1
100
AcDbSymbolTableRecord
100
AcDbBlockTableRecord
  2
G27
340
0
102
{BLKREFS
331
288
102
}
 70
     0
280
     1
281
     0
  0
BLOCK_RECORD
  5
289
330
1
100
AcDbSymbolTableRecord
100
AcDbBlockTableRecord
  2
G28
340
0
102
{BLKREFS
331
28F
102
}
 70
     0
280
     1
281
     0
  0
BLOCK_RECORD
  5
290
330
1
100
AcDbSymbolTableRecord
100
AcDbBlockTableRecord
  2
G29
340
0
102
{BLKREFS
331
298
102
}
 70
     0
280
     1
281
     0
  0
BLOCK_RECORD
  5
299
330
1
100
AcDbSymbolTableRecord
100
AcDbBlockTableRecord
  2
G30
340
0
102
{BLKREFS
331
2A5
102
}
 70
     0
280
     1
281
     0
  0
BLOCK_RECORD
  5
2A6
330
1
100
AcDbSymbolTableRecord
100
AcDbBlockTableRecord
  2
G31
340
0
102
{BLKREFS
331
2B7
102
}
 70
     0
280
     1
281
     0
  0
BLOCK_RECORD
  5
2B8
330
1
100
AcDbSymbolTableRecord
100
AcDbBlockTableRecord
  2
G32
340
0
102
{BLKREFS
331
2C5
102
}
 70
     0
280
     1
281
     0
  0
BLOCK_RECORD
  5
2C6
330
1
100
AcDbSymbolTableRecord
100
AcDbBlockTableRecord
  2
G33
340
0
102
{BLKREFS
331
2D3
102
}
 70
     0
280
     1
281
     0
  0
BLOCK_RECORD
  5
2D4
330
1
100
AcDbSymbolTableRecord
100
AcDbBlockTableRecord
  2
G34
340
0
102
{BLKREFS
331
2DD
102
}
 70
     0
280
     1
281
     0
  0
BLOCK_RECORD
  5
2DE
330
1
100
AcDbSymbolTableRecord
100
AcDbBlockTableRecord
  2
G35
340
0
102
{BLKREFS
331
2E6
102
}
 70
     0
280
     1
281
     0
  0
BLOCK_RECORD
  5
2E7
330
1
100
AcDbSymbolTableRecord
100
AcDbBlockTableRecord
  2
G36
340
0
102
{BLKREFS
331
2EF
102
}
 70
     0
280
     1
281
     0
  0
BLOCK_RECORD
  5
2F0
330
1
100
AcDbSymbolTableRecord
100
AcDbBlockTableRecord
  2
G37
340
0
102
{BLKREFS
331
321
102
}
 70
     0
280
     1
281
     0
  0
BLOCK_RECORD
  5
322
330
1
100
AcDbSymbolTableRecord
100
AcDbBlockTableRecord
  2
G38
340
0
102
{BLKREFS
331
332
102
}
 70
     0
280
     1
281
     0
  0
BLOCK_RECORD
  5
333
330
1
100
AcDbSymbolTableRecord
100
AcDbBlockTableRecord
  2
G39
340
0
102
{BLKREFS
331
343
102
}
 70
     0
280
     1
281
     0
  0
BLOCK_RECORD
  5
344
330
1
100
AcDbSymbolTableRecord
100
AcDbBlockTableRecord
  2
G40
340
0
102
{BLKREFS
331
34B
102
}
 70
     0
280
     1
281
     0
  0
BLOCK_RECORD
  5
34C
330
1
100
AcDbSymbolTableRecord
100
AcDbBlockTableRecord
  2
G41
340
0
102
{BLKREFS
331
356
102
}
 70
     0
280
     1
281
     0
  0
BLOCK_RECORD
  5
357
330
1
100
AcDbSymbolTableRecord
100
AcDbBlockTableRecord
  2
G42
340
0
102
{BLKREFS
331
35E
102
}
 70
     0
280
     1
281
     0
  0
BLOCK_RECORD
  5
35F
330
1
100
AcDbSymbolTableRecord
100
AcDbBlockTableRecord
  2
G43
340
0
102
{BLKREFS
331
36C
102
}
 70
     0
280
     1
281
     0
  0
BLOCK_RECORD
  5
36D
330
1
100
AcDbSymbolTableRecord
100
AcDbBlockTableRecord
  2
G44
340
0
102
{BLKREFS
331
372
102
}
 70
     0
280
     1
281
     0
  0
BLOCK_RECORD
  5
373
330
1
100
AcDbSymbolTableRecord
100
AcDbBlockTableRecord
  2
G45
340
0
102
{BLKREFS
331
378
102
}
 70
     0
280
     1
281
     0
  0
BLOCK_RECORD
  5
379
330
1
100
AcDbSymbolTableRecord
100
AcDbBlockTableRecord
  2
G46
340
0
102
{BLKREFS
331
37E
102
}
 70
     0
280
     1
281
     0
  0
BLOCK_RECORD
  5
37F
330
1
100
AcDbSymbolTableRecord
100
AcDbBlockTableRecord
  2
G47
340
0
102
{BLKREFS
331
394
102
}
 70
     0
280
     1
281
     0
  0
BLOCK_RECORD
  5
395
330
1
100
AcDbSymbolTableRecord
100
AcDbBlockTableRecord
  2
G48
340
0
102
{BLKREFS
331
39E
102
}
 70
     0
280
     1
281
     0
  0
BLOCK_RECORD
  5
39F
330
1
100
AcDbSymbolTableRecord
100
AcDbBlockTableRecord
  2
G49
340
0
102
{BLKREFS
331
3B0
102
}
 70
     0
280
     1
281
     0
  0
BLOCK_RECORD
  5
3B1
330
1
100
AcDbSymbolTableRecord
100
AcDbBlockTableRecord
  2
G50
340
0
102
{BLKREFS
331
3B8
102
}
 70
     0
280
     1
281
     0
  0
BLOCK_RECORD
  5
3B9
330
1
100
AcDbSymbolTableRecord
100
AcDbBlockTableRecord
  2
G51
340
0
102
{BLKREFS
331
3C8
102
}
 70
     0
280
     1
281
     0
  0
BLOCK_RECORD
  5
3C9
330
1
100
AcDbSymbolTableRecord
100
AcDbBlockTableRecord
  2
G52
340
0
102
{BLKREFS
331
3DD
102
}
 70
     0
280
     1
281
     0
  0
BLOCK_RECORD
  5
3DE
330
1
100
AcDbSymbolTableRecord
100
AcDbBlockTableRecord
  2
G53
340
0
102
{BLKREFS
331
3F1
102
}
 70
     0
280
     1
281
     0
  0
BLOCK_RECORD
  5
3F2
330
1
100
AcDbSymbolTableRecord
100
AcDbBlockTableRecord
  2
G54
340
0
102
{BLKREFS
331
405
102
}
 70
     0
280
     1
281
     0
  0
BLOCK_RECORD
  5
406
330
1
100
AcDbSymbolTableRecord
100
AcDbBlockTableRecord
  2
G55
340
0
102
{BLKREFS
331
420
102
}
 70
     0
280
     1
281
     0
  0
BLOCK_RECORD
  5
421
330
1
100
AcDbSymbolTableRecord
100
AcDbBlockTableRecord
  2
G56
340
0
102
{BLKREFS
331
428
102
}
 70
     0
280
     1
281
     0
  0
ENDTAB
  0
ENDSEC
  0
SECTION
  2
BLOCKS
  0
BLOCK
  5
20
330
1F
100
AcDbEntity
  8
0
100
AcDbBlockBegin
  2
*Model_Space
 70
     0
 10
0.0
 20
0.0
 30
0.0
  3
*Model_Space
  1

  0
ENDBLK
  5
21
330
1F
100
AcDbEntity
  8
0
100
AcDbBlockEnd
  0
BLOCK
  5
1C
330
1B
100
AcDbEntity
 67
     1
  8
0
100
AcDbBlockBegin
  2
*Paper_Space
 70
     0
 10
0.0
 20
0.0
 30
0.0
  3
*Paper_Space
  1

  0
ENDBLK
  5
1D
330
1B
100
AcDbEntity
 67
     1
  8
0
100
AcDbBlockEnd
  0
BLOCK
  5
24
330
23
100
AcDbEntity
  8
0
100
AcDbBlockBegin
  2
*Paper_Space0
 70
     0
 10
0.0
 20
0.0
 30
0.0
  3
*Paper_Space0
  1

  0
ENDBLK
  5
25
330
23
100
AcDbEntity
  8
0
100
AcDbBlockEnd
  0
BLOCK
  5
73
330
70
100
AcDbEntity
  8
0
100
AcDbBlockBegin
  2
_ORIGIN
 70
     0
 10
0.0
 20
0.0
 30
0.0
  3
_ORIGIN
  1

  0
CIRCLE
  5
71
330
70
100
AcDbEntity
  8
0
 62
     0
100
AcDbCircle
 10
0.0
 20
0.0
 30
0.0
 40
0.5
  0
LINE
  5
72
330
70
100
AcDbEntity
  8
0
 62
     0
100
AcDbLine
 10
0.0
 20
0.0
 30
0.0
 11
-1.0
 21
0.0
 31
0.0
  0
ENDBLK
  5
74
330
70
100
AcDbEntity
  8
0
100
AcDbBlockEnd
  0
BLOCK
  5
78
330
75
100
AcDbEntity
  8
0
100
AcDbBlockBegin
  2
_DOTBLANK
 70
     0
 10
0.0
 20
0.0
 30
0.0
  3
_DOTBLANK
  1

  0
CIRCLE
  5
76
330
75
100
AcDbEntity
  8
0
 62
     0
100
AcDbCircle
 10
0.0
 20
0.0
 30
0.0
 40
0.5
  0
LINE
  5
77
330
75
100
AcDbEntity
  8
0
 62
     0
100
AcDbLine
 10
-0.5
 20
0.0
 30
0.0
 11
-1.0
 21
0.0
 31
0.0
  0
ENDBLK
  5
79
330
75
100
AcDbEntity
  8
0
100
AcDbBlockEnd
  0
BLOCK
  5
7D
330
7A
100
AcDbEntity
  8
0
100
AcDbBlockBegin
  2
_DOT
 70
     0
 10
0.0
 20
0.0
 30
0.0
  3
_DOT
  1

  0
LWPOLYLINE
  5
7B
330
7A
100
AcDbEntity
  8
0
 62
     0
100
AcDbPolyline
 90
        2
 70
     1
 43
0.5
 10
-0.25
 20
0.0
 42
1.0
 10
0.25
 20
0.0
 42
1.0
  0
LINE
  5
7C
330
7A
100
AcDbEntity
  8
0
 62
     0
100
AcDbLine
 10
-0.5
 20
0.0
 30
0.0
 11
-1.0
 21
0.0
 31
0.0
  0
ENDBLK
  5
7E
330
7A
100
AcDbEntity
  8
0
100
AcDbBlockEnd
  0
BLOCK
  5
83
330
7F
100
AcDbEntity
  8
0
100
AcDbBlockBegin
  2
_OPEN
 70
     0
 10
0.0
 20
0.0
 30
0.0
  3
_OPEN
  1

  0
LINE
  5
80
330
7F
100
AcDbEntity
  8
0
 62
     0
100
AcDbLine
 10
0.0
 20
0.0
 30
0.0
 11
-1.0
 21
0.1666666666666667
 31
0.0
  0
LINE
  5
81
330
7F
100
AcDbEntity
  8
0
 62
     0
100
AcDbLine
 10
0.0
 20
0.0
 30
0.0
 11
-1.0
 21
-0.1666666666666667
 31
0.0
  0
LINE
  5
82
330
7F
100
AcDbEntity
  8
0
 62
     0
100
AcDbLine
 10
0.0
 20
0.0
 30
0.0
 11
-1.0
 21
0.0
 31
0.0
  0
ENDBLK
  5
84
330
7F
100
AcDbEntity
  8
0
100
AcDbBlockEnd
  0
BLOCK
  5
8A
330
85
100
AcDbEntity
  8
0
100
AcDbBlockBegin
  2
_CLOSED
 70
     0
 10
0.0
 20
0.0
 30
0.0
  3
_CLOSED
  1

  0
LINE
  5
86
330
85
100
AcDbEntity
  8
0
 62
     0
100
AcDbLine
 10
0.0
 20
0.0
 30
0.0
 11
-1.0
 21
0.1666666666666667
 31
0.0
  0
LINE
  5
87
330
85
100
AcDbEntity
  8
0
 62
     0
100
AcDbLine
 10
0.0
 20
0.0
 30
0.0
 11
-1.0
 21
-0.1666666666666667
 31
0.0
  0
LINE
  5
88
330
85
100
AcDbEntity
  8
0
 62
     0
100
AcDbLine
 10
-1.0
 20
0.1666666666666667
 30
0.0
 11
-1.0
 21
-0.1666666666666667
 31
0.0
  0
LINE
  5
89
330
85
100
AcDbEntity
  8
0
 62
     0
100
AcDbLine
 10
0.0
 20
0.0
 30
0.0
 11
-1.0
 21
0.0
 31
0.0
  0
ENDBLK
  5
8B
330
85
100
AcDbEntity
  8
0
100
AcDbBlockEnd
  0
BLOCK
  5
90
330
8C
100
AcDbEntity
  8
0
100
AcDbBlockBegin
  2
_CLOSEDBLANK
 70
     0
 10
0.0
 20
0.0
 30
0.0
  3
_CLOSEDBLANK
  1

  0
LINE
  5
8D
330
8C
100
AcDbEntity
  8
0
 62
     0
100
AcDbLine
 10
0.0
 20
0.0
 30
0.0
 11
-1.0
 21
0.1666666666666667
 31
0.0
  0
LINE
  5
8E
330
8C
100
AcDbEntity
  8
0
 62
     0
100
AcDbLine
 10
0.0
 20
0.0
 30
0.0
 11
-1.0
 21
-0.1666666666666667
 31
0.0
  0
LINE
  5
8F
330
8C
100
AcDbEntity
  8
0
 62
     0
100
AcDbLine
 10
-1.0
 20
0.1666666666666667
 30
0.0
 11
-1.0
 21
-0.1666666666666667
 31
0.0
  0
ENDBLK
  5
91
330
8C
100
AcDbEntity
  8
0
100
AcDbBlockEnd
  0
BLOCK
  5
94
330
92
100
AcDbEntity
  8
0
100
AcDbBlockBegin
  2
_ARROWFILLED
 70
     0
 10
0.0
 20
0.0
 30
0.0
  3
_ARROWFILLED
  1

  0
SOLID
  5
93
330
92
100
AcDbEntity
  8
0
 62
     0
100
AcDbTrace
 10
0.0
 20
0.0
 30
0.0
 11
-1.0
 21
-0.1666666666666667
 31
0.0
 12
-1.0
 22
0.1666666666666667
 32
0.0
 13
0.0
 23
0.0
 33
0.0
  0
ENDBLK
  5
95
330
92
100
AcDbEntity
  8
0
100
AcDbBlockEnd
  0
BLOCK
  5
9C
330
96
100
AcDbEntity
  8
0
100
AcDbBlockBegin
  2
_BOXBLANK
 70
     0
 10
0.0
 20
0.0
 30
0.0
  3
_BOXBLANK
  1

  0
LINE
  5
97
330
96
100
AcDbEntity
  8
0
 62
     0
100
AcDbLine
 10
-0.5
 20
-0.5
 30
0.0
 11
0.5
 21
-0.5
 31
0.0
  0
LINE
  5
98
330
96
100
AcDbEntity
  8
0
 62
     0
100
AcDbLine
 10
0.5
 20
-0.5
 30
0.0
 11
0.5
 21
0.5
 31
0.0
  0
LINE
  5
99
330
96
100
AcDbEntity
  8
0
 62
     0
100
AcDbLine
 10
0.5
 20
0.5
 30
0.0
 11
-0.5
 21
0.5
 31
0.0
  0
LINE
  5
9A
330
96
100
AcDbEntity
  8
0
 62
     0
100
AcDbLine
 10
-0.5
 20
0.5
 30
0.0
 11
-0.5
 21
-0.5
 31
0.0
  0
LINE
  5
9B
330
96
100
AcDbEntity
  8
0
 62
     0
100
AcDbLine
 10
-0.5
 20
0.0
 30
0.0
 11
-1.0
 21
0.0
 31
0.0
  0
ENDBLK
  5
9D
330
96
100
AcDbEntity
  8
0
100
AcDbBlockEnd
  0
BLOCK
  5
A1
330
9E
100
AcDbEntity
  8
0
100
AcDbBlockBegin
  2
_BOXFILLED
 70
     0
 10
0.0
 20
0.0
 30
0.0
  3
_BOXFILLED
  1

  0
SOLID
  5
9F
330
9E
100
AcDbEntity
  8
0
 62
     0
100
AcDbTrace
 10
-0.5
 20
0.5
 30
0.0
 11
0.5
 21
0.5
 31
0.0
 12
-0.5
 22
-0.5
 32
0.0
 13
0.5
 23
-0.5
 33
0.0
  0
LINE
  5
A0
330
9E
100
AcDbEntity
  8
0
 62
     0
100
AcDbLine
 10
-0.5
 20
0.0
 30
0.0
 11
-1.0
 21
0.0
 31
0.0
  0
ENDBLK
  5
A2
330
9E
100
AcDbEntity
  8
0
100
AcDbBlockEnd
  0
BLOCK
  5
A6
330
A3
100
AcDbEntity
  8
0
100
AcDbBlockBegin
  2
_INTEGRAL
 70
     0
 10
0.0
 20
0.0
 30
0.0
  3
_INTEGRAL
  1

  0
ARC
  5
A4
330
A3
100
AcDbEntity
  8
0
 62
     0
100
AcDbCircle
 10
0.444888
 20
-0.0913346
 30
0.0
 40
0.4541666
100
AcDbArc
 50
101.9999999999999
 51
167.9999999999998
  0
ARC
  5
A5
330
A3
100
AcDbEntity
  8
0
 62
     0
100
AcDbCircle
 10
-0.444888
 20
0.0913346
 30
0.0
 40
0.4541666
100
AcDbArc
 50
281.9999999999997
 51
347.9999999999997
  0
ENDBLK
  5
A7
330
A3
100
AcDbEntity
  8
0
100
AcDbBlockEnd
  0
BLOCK
  5
AA
330
A8
100
AcDbEntity
  8
0
100
AcDbBlockBegin
  2
_OBLIQUE
 70
     0
 10
0.0
 20
0.0
 30
0.0
  3
_OBLIQUE
  1

  0
LINE
  5
A9
330
A8
100
AcDbEntity
  8
0
 62
     0
100
AcDbLine
 10
-0.5
 20
-0.5
 30
0.0
 11
0.5
 21
0.5
 31
0.0
  0
ENDBLK
  5
AB
330
A8
100
AcDbEntity
  8
0
100
AcDbBlockEnd
  0
BLOCK
  5
AD
330
AC
100
AcDbEntity
  8
0
100
AcDbBlockBegin
  2
_NONE
 70
     0
 10
0.0
 20
0.0
 30
0.0
  3
_NONE
  1

  0
ENDBLK
  5
AE
330
AC
100
AcDbEntity
  8
0
100
AcDbBlockEnd
  0
BLOCK
  5
B2
330
AF
100
AcDbEntity
  8
0
100
AcDbBlockBegin
  2
MARK_OPEN
 70
     0
 10
0.0
 20
0.0
 30
0.0
  3
MARK_OPEN
  1

  0
LINE
  5
B0
330
AF
100
AcDbEntity
  8
0
 62
     0
100
AcDbLine
 10
0.0
 20
0.0
 30
0.0
 11
-1.0
 21
0.1666666666666667
 31
0.0
  0
LINE
  5
B1
330
AF
100
AcDbEntity
  8
0
 62
     0
100
AcDbLine
 10
0.0
 20
0.0
 30
0.0
 11
-1.0
 21
-0.1666666666666667
 31
0.0
  0
ENDBLK
  5
B3
330
AF
100
AcDbEntity
  8
0
100
AcDbBlockEnd
  0
BLOCK
  5
B6
330
B4
100
AcDbEntity
  8
0
100
AcDbBlockBegin
  2
MARK_ORIGIN
 70
     0
 10
0.0
 20
0.0
 30
0.0
  3
MARK_ORIGIN
  1

  0
CIRCLE
  5
B5
330
B4
100
AcDbEntity
  8
0
 62
     0
100
AcDbCircle
 10
0.0
 20
0.0
 30
0.0
 40
0.5
  0
ENDBLK
  5
B7
330
B4
100
AcDbEntity
  8
0
100
AcDbBlockEnd
  0
BLOCK
  5
BA
330
B8
100
AcDbEntity
  8
0
100
AcDbBlockBegin
  2
MARK_DOT
 70
     0
 10
0.0
 20
0.0
 30
0.0
  3
MARK_DOT
  1

  0
LWPOLYLINE
  5
B9
330
B8
100
AcDbEntity
  8
0
 62
     0
100
AcDbPolyline
 90
        2
 70
     1
 43
0.5
 10
-0.25
 20
0.0
 42
1.0
 10
0.25
 20
0.0
 42
1.0
  0
ENDBLK
  5
BB
330
B8
100
AcDbEntity
  8
0
100
AcDbBlockEnd
  0
BLOCK
  5
E2
330
E1
100
AcDbEntity
  8
0
100
AcDbBlockBegin
  2
G1
 70
     0
 10
0.0
 20
0.0
 30
0.0
  3
G1
  1

  0
INSERT
  5
10D
330
E1
100
AcDbEntity
  8
0
100
AcDbBlockReference
  2
G2
 10
0.0
 20
0.0
 30
0.0
  0
INSERT
  5
115
330
E1
100
AcDbEntity
  8
0
100
AcDbBlockReference
  2
G3
 10
0.0
 20
0.0
 30
0.0
  0
INSERT
  5
11D
330
E1
100
AcDbEntity
  8
0
100
AcDbBlockReference
  2
G4
 10
0.0
 20
0.0
 30
0.0
  0
INSERT
  5
123
330
E1
100
AcDbEntity
  8
0
100
AcDbBlockReference
  2
G5
 10
0.0
 20
0.0
 30
0.0
  0
INSERT
  5
129
330
E1
100
AcDbEntity
  8
0
100
AcDbBlockReference
  2
G6
 10
0.0
 20
0.0
 30
0.0
  0
INSERT
  5
133
330
E1
100
AcDbEntity
  8
0
100
AcDbBlockReference
  2
G7
 10
0.0
 20
0.0
 30
0.0
  0
INSERT
  5
139
330
E1
100
AcDbEntity
  8
0
100
AcDbBlockReference
  2
G8
 10
0.0
 20
0.0
 30
0.0
  0
INSERT
  5
14A
330
E1
100
AcDbEntity
  8
0
100
AcDbBlockReference
  2
G9
 10
0.0
 20
0.0
 30
0.0
  0
INSERT
  5
156
330
E1
100
AcDbEntity
  8
0
100
AcDbBlockReference
  2
G10
 10
0.0
 20
0.0
 30
0.0
  0
INSERT
  5
171
330
E1
100
AcDbEntity
  8
0
100
AcDbBlockReference
  2
G11
 10
0.0
 20
0.0
 30
0.0
  0
INSERT
  5
18E
330
E1
100
AcDbEntity
  8
0
100
AcDbBlockReference
  2
G12
 10
0.0
 20
0.0
 30
0.0
  0
INSERT
  5
19D
330
E1
100
AcDbEntity
  8
0
100
AcDbBlockReference
  2
G13
 10
0.0
 20
0.0
 30
0.0
  0
INSERT
  5
1A7
330
E1
100
AcDbEntity
  8
0
100
AcDbBlockReference
  2
G14
 10
0.0
 20
0.0
 30
0.0
  0
INSERT
  5
1CE
330
E1
100
AcDbEntity
  8
0
100
AcDbBlockReference
  2
G15
 10
0.0
 20
0.0
 30
0.0
  0
INSERT
  5
1E0
330
E1
100
AcDbEntity
  8
0
100
AcDbBlockReference
  2
G16
 10
0.0
 20
0.0
 30
0.0
  0
INSERT
  5
1EC
330
E1
100
AcDbEntity
  8
0
100
AcDbBlockReference
  2
G17
 10
0.0
 20
0.0
 30
0.0
  0
INSERT
  5
1FA
330
E1
100
AcDbEntity
  8
0
100
AcDbBlockReference
  2
G18
 10
0.0
 20
0.0
 30
0.0
  0
INSERT
  5
205
330
E1
100
AcDbEntity
  8
0
100
AcDbBlockReference
  2
G19
 10
0.0
 20
0.0
 30
0.0
  0
INSERT
  5
20E
330
E1
100
AcDbEntity
  8
0
100
AcDbBlockReference
  2
G20
 10
0.0
 20
0.0
 30
0.0
  0
INSERT
  5
216
330
E1
100
AcDbEntity
  8
0
100
AcDbBlockReference
  2
G21
 10
0.0
 20
0.0
 30
0.0
  0
INSERT
  5
221
330
E1
100
AcDbEntity
  8
0
100
AcDbBlockReference
  2
G22
 10
0.0
 20
0.0
 30
0.0
  0
INSERT
  5
22D
330
E1
100
AcDbEntity
  8
0
100
AcDbBlockReference
  2
G23
 10
0.0
 20
0.0
 30
0.0
  0
INSERT
  5
238
330
E1
100
AcDbEntity
  8
0
100
AcDbBlockReference
  2
G24
 10
0.0
 20
0.0
 30
0.0
  0
INSERT
  5
26C
330
E1
100
AcDbEntity
  8
0
100
AcDbBlockReference
  2
G25
 10
0.0
 20
0.0
 30
0.0
  0
INSERT
  5
277
330
E1
100
AcDbEntity
  8
0
100
AcDbBlockReference
  2
G26
 10
0.0
 20
0.0
 30
0.0
  0
INSERT
  5
288
330
E1
100
AcDbEntity
  8
0
100
AcDbBlockReference
  2
G27
 10
0.0
 20
0.0
 30
0.0
  0
INSERT
  5
28F
330
E1
100
AcDbEntity
  8
0
100
AcDbBlockReference
  2
G28
 10
0.0
 20
0.0
 30
0.0
  0
INSERT
  5
298
330
E1
100
AcDbEntity
  8
0
100
AcDbBlockReference
  2
G29
 10
0.0
 20
0.0
 30
0.0
  0
INSERT
  5
2A5
330
E1
100
AcDbEntity
  8
0
100
AcDbBlockReference
  2
G30
 10
0.0
 20
0.0
 30
0.0
  0
INSERT
  5
2B7
330
E1
100
AcDbEntity
  8
0
100
AcDbBlockReference
  2
G31
 10
0.0
 20
0.0
 30
0.0
  0
INSERT
  5
2C5
330
E1
100
AcDbEntity
  8
0
100
AcDbBlockReference
  2
G32
 10
0.0
 20
0.0
 30
0.0
  0
INSERT
  5
2D3
330
E1
100
AcDbEntity
  8
0
100
AcDbBlockReference
  2
G33
 10
0.0
 20
0.0
 30
0.0
  0
INSERT
  5
2DD
330
E1
100
AcDbEntity
  8
0
100
AcDbBlockReference
  2
G34
 10
0.0
 20
0.0
 30
0.0
  0
INSERT
  5
2E6
330
E1
100
AcDbEntity
  8
0
100
AcDbBlockReference
  2
G35
 10
0.0
 20
0.0
 30
0.0
  0
INSERT
  5
2EF
330
E1
100
AcDbEntity
  8
0
100
AcDbBlockReference
  2
G36
 10
0.0
 20
0.0
 30
0.0
  0
INSERT
  5
321
330
E1
100
AcDbEntity
  8
0
100
AcDbBlockReference
  2
G37
 10
0.0
 20
0.0
 30
0.0
  0
INSERT
  5
332
330
E1
100
AcDbEntity
  8
0
100
AcDbBlockReference
  2
G38
 10
0.0
 20
0.0
 30
0.0
  0
INSERT
  5
343
330
E1
100
AcDbEntity
  8
0
100
AcDbBlockReference
  2
G39
 10
0.0
 20
0.0
 30
0.0
  0
INSERT
  5
34B
330
E1
100
AcDbEntity
  8
0
100
AcDbBlockReference
  2
G40
 10
0.0
 20
0.0
 30
0.0
  0
INSERT
  5
356
330
E1
100
AcDbEntity
  8
0
100
AcDbBlockReference
  2
G41
 10
0.0
 20
0.0
 30
0.0
  0
INSERT
  5
35E
330
E1
100
AcDbEntity
  8
0
100
AcDbBlockReference
  2
G42
 10
0.0
 20
0.0
 30
0.0
  0
INSERT
  5
36C
330
E1
100
AcDbEntity
  8
0
100
AcDbBlockReference
  2
G43
 10
0.0
 20
0.0
 30
0.0
  0
INSERT
  5
372
330
E1
100
AcDbEntity
  8
0
100
AcDbBlockReference
  2
G44
 10
0.0
 20
0.0
 30
0.0
  0
INSERT
  5
378
330
E1
100
AcDbEntity
  8
0
100
AcDbBlockReference
  2
G45
 10
0.0
 20
0.0
 30
0.0
  0
INSERT
  5
37E
330
E1
100
AcDbEntity
  8
0
100
AcDbBlockReference
  2
G46
 10
0.0
 20
0.0
 30
0.0
  0
INSERT
  5
394
330
E1
100
AcDbEntity
  8
0
100
AcDbBlockReference
  2
G47
 10
0.0
 20
0.0
 30
0.0
  0
INSERT
  5
39E
330
E1
100
AcDbEntity
  8
0
100
AcDbBlockReference
  2
G48
 10
0.0
 20
0.0
 30
0.0
  0
INSERT
  5
3B0
330
E1
100
AcDbEntity
  8
0
100
AcDbBlockReference
  2
G49
 10
0.0
 20
0.0
 30
0.0
  0
INSERT
  5
3B8
330
E1
100
AcDbEntity
  8
0
100
AcDbBlockReference
  2
G50
 10
0.0
 20
0.0
 30
0.0
  0
INSERT
  5
3C8
330
E1
100
AcDbEntity
  8
0
100
AcDbBlockReference
  2
G51
 10
0.0
 20
0.0
 30
0.0
  0
INSERT
  5
3DD
330
E1
100
AcDbEntity
  8
0
100
AcDbBlockReference
  2
G52
 10
0.0
 20
0.0
 30
0.0
  0
INSERT
  5
3F1
330
E1
100
AcDbEntity
  8
0
100
AcDbBlockReference
  2
G53
 10
0.0
 20
0.0
 30
0.0
  0
INSERT
  5
405
330
E1
100
AcDbEntity
  8
0
100
AcDbBlockReference
  2
G54
 10
0.0
 20
0.0
 30
0.0
  0
INSERT
  5
420
330
E1
100
AcDbEntity
  8
0
100
AcDbBlockReference
  2
G55
 10
0.0
 20
0.0
 30
0.0
  0
INSERT
  5
428
330
E1
100
AcDbEntity
  8
0
100
AcDbBlockReference
  2
G56
 10
0.0
 20
0.0
 30
0.0
  0
ENDBLK
  5
E3
330
E1
100
AcDbEntity
  8
0
100
AcDbBlockEnd
  0
BLOCK
  5
E5
330
E4
100
AcDbEntity
  8
0
100
AcDbBlockBegin
  2
G2
 70
     0
 10
0.0
 20
0.0
 30
0.0
  3
G2
  1

  0
LINE
  5
E7
330
E4
100
AcDbEntity
  8
100
  6
Continuous
 62
     7
370
    30
100
AcDbLine
 10
142.986386
 20
177.783416
 30
0.0
 11
140.780941
 21
197.632426
 31
0.0
  0
LINE
  5
E8
330
E4
100
AcDbEntity
  8
100
  6
Continuous
 62
     7
370
    30
100
AcDbLine
 10
140.780941
 20
197.632426
 30
0.0
 11
137.105198
 21
200.57302
 31
0.0
  0
LINE
  5
E9
330
E4
100
AcDbEntity
  8
100
  6
Continuous
 62
     7
370
    30
100
AcDbLine
 10
137.105198
 20
200.57302
 30
0.0
 11
133.306931
 21
202.533416
 31
0.0
  0
LINE
  5
EA
330
E4
100
AcDbEntity
  8
100
  6
Continuous
 62
     7
370
    30
100
AcDbLine
 10
133.306931
 20
202.533416
 30
0.0
 11
128.773515
 21
204.248762
 31
0.0
  0
LINE
  5
EB
330
E4
100
AcDbEntity
  8
100
  6
Continuous
 62
     7
370
    30
100
AcDbLine
 10
128.773515
 20
204.248762
 30
0.0
 11
124.362624
 21
205.351485
 31
0.0
  0
LINE
  5
EC
330
E4
100
AcDbEntity
  8
100
  6
Continuous
 62
     7
370
    30
100
AcDbLine
 10
124.362624
 20
205.351485
 30
0.0
 11
117.378713
 21
206.699257
 31
0.0
  0
LINE
  5
ED
330
E4
100
AcDbEntity
  8
100
  6
Continuous
 62
     7
370
    30
100
AcDbLine
 10
117.378713
 20
206.699257
 30
0.0
 11
109.782178
 21
207.556931
 31
0.0
  0
LINE
  5
EE
330
E4
100
AcDbEntity
  8
100
  6
Continuous
 62
     7
370
    30
100
AcDbLine
 10
109.782178
 20
207.556931
 30
0.0
 11
103.655941
 21
208.169554
 31
0.0
  0
LINE
  5
EF
330
E4
100
AcDbEntity
  8
100
  6
Continuous
 62
     7
370
    30
100
AcDbLine
 10
103.655941
 20
208.169554
 30
0.0
 11
98.877475
 21
208.537129
 31
0.0
  0
LINE
  5
F0
330
E4
100
AcDbEntity
  8
100
  6
Continuous
 62
     7
370
    30
100
AcDbLine
 10
98.877475
 20
208.537129
 30
0.0
 11
92.628713
 21
208.292079
 31
0.0
  0
LINE
  5
F1
330
E4
100
AcDbEntity
  8
100
  6
Continuous
 62
     7
370
    30
100
AcDbLine
 10
92.628713
 20
208.292079
 30
0.0
 11
86.502475
 21
208.04703
 31
0.0
  0
LINE
  5
F2
330
E4
100
AcDbEntity
  8
100
  6
Continuous
 62
     7
370
    30
100
AcDbLine
 10
86.502475
 20
208.04703
 30
0.0
 11
79.763614
 21
207.311881
 31
0.0
  0
LINE
  5
F3
330
E4
100
AcDbEntity
  8
100
  6
Continuous
 62
     7
370
    30
100
AcDbLine
 10
79.763614
 20
207.311881
 30
0.0
 11
72.412129
 21
206.086634
 31
0.0
  0
LINE
  5
F4
330
E4
100
AcDbEntity
  8
100
  6
Continuous
 62
     7
370
    30
100
AcDbLine
 10
72.412129
 20
206.086634
 30
0.0
 11
62.855198
 21
204.248762
 31
0.0
  0
LINE
  5
F5
330
E4
100
AcDbEntity
  8
100
  6
Continuous
 62
     7
370
    30
100
AcDbLine
 10
62.855198
 20
204.248762
 30
0.0
 11
57.709158
 21
202.165842
 31
0.0
  0
LINE
  5
F6
330
E4
100
AcDbEntity
  8
100
  6
Continuous
 62
     7
370
    30
100
AcDbLine
 10
57.709158
 20
202.165842
 30
0.0
 11
54.40099
 21
199.960396
 31
0.0
  0
LINE
  5
F7
330
E4
100
AcDbEntity
  8
100
  6
Continuous
 62
     7
370
    30
100
AcDbLine
 10
54.40099
 20
199.960396
 30
0.0
 11
51.705446
 21
196.284653
 31
0.0
  0
LINE
  5
F8
330
E4
100
AcDbEntity
  8
100
  6
Continuous
 62
     7
370
    30
100
AcDbLine
 10
51.705446
 20
196.284653
 30
0.0
 11
48.274752
 21
196.039604
 31
0.0
  0
LINE
  5
F9
330
E4
100
AcDbEntity
  8
100
  6
Continuous
 62
     7
370
    30
100
AcDbLine
 10
48.274752
 20
196.039604
 30
0.0
 11
45.579208
 21
197.019802
 31
0.0
  0
LINE
  5
FA
330
E4
100
AcDbEntity
  8
100
  6
Continuous
 62
     7
370
    30
100
AcDbLine
 10
45.579208
 20
197.019802
 30
0.0
 11
27.07797
 21
202.533416
 31
0.0
  0
LINE
  5
FB
330
E4
100
AcDbEntity
  8
100
  6
Continuous
 62
     7
370
    30
100
AcDbLine
 10
27.07797
 20
202.533416
 30
0.0
 11
23.157178
 21
203.268564
 31
0.0
  0
LINE
  5
FC
330
E4
100
AcDbEntity
  8
100
  6
Continuous
 62
     7
370
    30
100
AcDbLine
 10
23.157178
 20
203.268564
 30
0.0
 11
20.951733
 21
203.14604
 31
0.0
  0
LINE
  5
FD
330
E4
100
AcDbEntity
  8
100
  6
Continuous
 62
     7
370
    30
100
AcDbLine
 10
20.951733
 20
203.14604
 30
0.0
 11
15.928218
 21
202.533416
 31
0.0
  0
LINE
  5
FE
330
E4
100
AcDbEntity
  8
100
  6
Continuous
 62
     7
370
    30
100
AcDbLine
 10
15.928218
 20
202.533416
 30
0.0
 11
14.212871
 21
201.675743
 31
0.0
  0
LINE
  5
FF
330
E4
100
AcDbEntity
  8
100
  6
Continuous
 62
     7
370
    30
100
AcDbLine
 10
14.212871
 20
201.675743
 30
0.0
 11
13.722772
 21
200.082921
 31
0.0
  0
LINE
  5
100
330
E4
100
AcDbEntity
  8
100
  6
Continuous
 62
     7
370
    30
100
AcDbLine
 10
13.722772
 20
200.082921
 30
0.0
 11
13.477723
 21
177.538366
 31
0.0
  0
LINE
  5
101
330
E4
100
AcDbEntity
  8
100
  6
Continuous
 62
     7
370
    30
100
AcDbLine
 10
13.477723
 20
177.538366
 30
0.0
 11
13.600248
 21
156.831683
 31
0.0
  0
LINE
  5
102
330
E4
100
AcDbEntity
  8
100
  6
Continuous
 62
     7
370
    30
100
AcDbLine
 10
13.600248
 20
156.831683
 30
0.0
 11
17.888614
 21
159.649752
 31
0.0
  0
LINE
  5
103
330
E4
100
AcDbEntity
  8
100
  6
Continuous
 62
     7
370
    30
100
AcDbLine
 10
17.888614
 20
159.649752
 30
0.0
 11
23.402228
 21
162.100248
 31
0.0
  0
LINE
  5
104
330
E4
100
AcDbEntity
  8
100
  6
Continuous
 62
     7
370
    30
100
AcDbLine
 10
23.402228
 20
162.100248
 30
0.0
 11
28.670792
 21
164.183168
 31
0.0
  0
LINE
  5
105
330
E4
100
AcDbEntity
  8
100
  6
Continuous
 62
     7
370
    30
100
AcDbLine
 10
28.670792
 20
164.183168
 30
0.0
 11
34.061881
 21
165.408416
 31
0.0
  0
LINE
  5
106
330
E4
100
AcDbEntity
  8
100
  6
Continuous
 62
     7
370
    30
100
AcDbLine
 10
34.061881
 20
165.408416
 30
0.0
 11
38.105198
 21
166.511139
 31
0.0
  0
LINE
  5
107
330
E4
100
AcDbEntity
  8
100
  6
Continuous
 62
     7
370
    30
100
AcDbLine
 10
38.105198
 20
166.511139
 30
0.0
 11
38.595297
 21
171.779703
 31
0.0
  0
LINE
  5
108
330
E4
100
AcDbEntity
  8
100
  6
Continuous
 62
     7
370
    30
100
AcDbLine
 10
38.595297
 20
171.779703
 30
0.0
 11
41.290842
 21
173.740099
 31
0.0
  0
LINE
  5
109
330
E4
100
AcDbEntity
  8
100
  6
Continuous
 62
     7
370
    30
100
AcDbLine
 10
41.290842
 20
173.740099
 30
0.0
 11
45.824257
 21
175.700495
 31
0.0
  0
LINE
  5
10A
330
E4
100
AcDbEntity
  8
100
  6
Continuous
 62
     7
370
    30
100
AcDbLine
 10
45.824257
 20
175.700495
 30
0.0
 11
48.887376
 21
176.680693
 31
0.0
  0
LINE
  5
10B
330
E4
100
AcDbEntity
  8
100
  6
Continuous
 62
     7
370
    30
100
AcDbLine
 10
48.887376
 20
176.680693
 30
0.0
 11
49.74505
 21
186.482673
 31
0.0
  0
LINE
  5
10C
330
E4
100
AcDbEntity
  8
100
  6
Continuous
 62
     7
370
    30
100
AcDbLine
 10
49.74505
 20
186.482673
 30
0.0
 11
50.573491
 21
196.2038
 31
0.0
  0
ENDBLK
  5
E6
330
E4
100
AcDbEntity
  8
0
100
AcDbBlockEnd
  0
BLOCK
  5
10F
330
10E
100
AcDbEntity
  8
0
100
AcDbBlockBegin
  2
G3
 70
     0
 10
0.0
 20
0.0
 30
0.0
  3
G3
  1

  0
LINE
  5
111
330
10E
100
AcDbEntity
  8
100
  6
Continuous
 62
     7
370
    30
100
AcDbLine
 10
49.609928
 20
184.938432
 30
0.0
 11
34.429455
 21
182.439356
 31
0.0
  0
LINE
  5
112
330
10E
100
AcDbEntity
  8
100
  6
Continuous
 62
     7
370
    30
100
AcDbLine
 10
34.429455
 20
182.439356
 30
0.0
 11
36.512376
 21
183.909653
 31
0.0
  0
LINE
  5
113
330
10E
100
AcDbEntity
  8
100
  6
Continuous
 62
     7
370
    30
100
AcDbLine
 10
36.512376
 20
183.909653
 30
0.0
 11
38.595297
 21
184.522277
 31
0.0
  0
LINE
  5
114
330
10E
100
AcDbEntity
  8
100
  6
Continuous
 62
     7
370
    30
100
AcDbLine
 10
38.595297
 20
184.522277
 30
0.0
 11
49.74505
 21
186.482673
 31
0.0
  0
ENDBLK
  5
110
330
10E
100
AcDbEntity
  8
0
100
AcDbBlockEnd
  0
BLOCK
  5
117
330
116
100
AcDbEntity
  8
0
100
AcDbBlockBegin
  2
G4
 70
     0
 10
0.0
 20
0.0
 30
0.0
  3
G4
  1

  0
LINE
  5
119
330
116
100
AcDbEntity
  8
100
  6
Continuous
 62
     7
370
    30
100
AcDbLine
 10
34.429455
 20
182.439356
 30
0.0
 11
32.22401
 21
180.233911
 31
0.0
  0
LINE
  5
11A
330
116
100
AcDbEntity
  8
100
  6
Continuous
 62
     7
370
    30
100
AcDbLine
 10
32.22401
 20
180.233911
 30
0.0
 11
31.488861
 21
175.82302
 31
0.0
  0
LINE
  5
11B
330
116
100
AcDbEntity
  8
100
  6
Continuous
 62
     7
370
    30
100
AcDbLine
 10
31.488861
 20
175.82302
 30
0.0
 11
31.121287
 21
169.206683
 31
0.0
  0
LINE
  5
11C
330
116
100
AcDbEntity
  8
100
  6
Continuous
 62
     7
370
    30
100
AcDbLine
 10
31.121287
 20
169.206683
 30
0.0
 11
31.121287
 21
166.511139
 31
0.0
  0
ENDBLK
  5
118
330
116
100
AcDbEntity
  8
0
100
AcDbBlockEnd
  0
BLOCK
  5
11F
330
11E
100
AcDbEntity
  8
0
100
AcDbBlockBegin
  2
G5
 70
     0
 10
0.0
 20
0.0
 30
0.0
  3
G5
  1

  0
LINE
  5
121
330
11E
100
AcDbEntity
  8
100
  6
Continuous
 62
     7
370
    30
100
AcDbLine
 10
40.503437
 20
184.857774
 30
0.0
 11
40.923267
 21
190.52599
 31
0.0
  0
LINE
  5
122
330
11E
100
AcDbEntity
  8
100
  6
Continuous
 62
     7
370
    30
100
AcDbLine
 10
40.923267
 20
190.52599
 30
0.0
 11
45.005393
 21
185.649327
 31
0.0
  0
ENDBLK
  5
120
330
11E
100
AcDbEntity
  8
0
100
AcDbBlockEnd
  0
BLOCK
  5
125
330
124
100
AcDbEntity
  8
0
100
AcDbBlockBegin
  2
G6
 70
     0
 10
0.0
 20
0.0
 30
0.0
  3
G6
  1

  0
LINE
  5
127
330
124
100
AcDbEntity
  8
100
  6
Continuous
 62
     7
370
    30
100
AcDbLine
 10
40.923267
 20
190.52599
 30
0.0
 11
42.761139
 21
190.52599
 31
0.0
  0
LINE
  5
128
330
124
100
AcDbEntity
  8
100
  6
Continuous
 62
     7
370
    30
100
AcDbLine
 10
42.761139
 20
190.52599
 30
0.0
 11
46.158635
 21
185.852095
 31
0.0
  0
ENDBLK
  5
126
330
124
100
AcDbEntity
  8
0
100
AcDbBlockEnd
  0
BLOCK
  5
12B
330
12A
100
AcDbEntity
  8
0
100
AcDbBlockBegin
  2
G7
 70
     0
 10
0.0
 20
0.0
 30
0.0
  3
G7
  1

  0
LINE
  5
12D
330
12A
100
AcDbEntity
  8
100
  6
Continuous
 62
     7
370
    30
100
AcDbLine
 10
23.157178
 20
203.268564
 30
0.0
 11
21.870668
 21
201.85953
 31
0.0
  0
LINE
  5
12E
330
12A
100
AcDbEntity
  8
100
  6
Continuous
 62
     7
370
    30
100
AcDbLine
 10
21.870668
 20
201.85953
 30
0.0
 11
21.870668
 21
197.326114
 31
0.0
  0
LINE
  5
12F
330
12A
100
AcDbEntity
  8
100
  6
Continuous
 62
     7
370
    30
100
AcDbLine
 10
21.870668
 20
197.326114
 30
0.0
 11
22.483292
 21
184.093441
 31
0.0
  0
LINE
  5
130
330
12A
100
AcDbEntity
  8
100
  6
Continuous
 62
     7
370
    30
100
AcDbLine
 10
22.483292
 20
184.093441
 30
0.0
 11
22.850866
 21
177.10953
 31
0.0
  0
LINE
  5
131
330
12A
100
AcDbEntity
  8
100
  6
Continuous
 62
     7
370
    30
100
AcDbLine
 10
22.850866
 20
177.10953
 30
0.0
 11
22.360767
 21
169.758045
 31
0.0
  0
LINE
  5
132
330
12A
100
AcDbEntity
  8
100
  6
Continuous
 62
     7
370
    30
100
AcDbLine
 10
22.360767
 20
169.758045
 30
0.0
 11
21.941404
 21
161.450993
 31
0.0
  0
ENDBLK
  5
12C
330
12A
100
AcDbEntity
  8
0
100
AcDbBlockEnd
  0
BLOCK
  5
135
330
134
100
AcDbEntity
  8
0
100
AcDbBlockBegin
  2
G8
 70
     0
 10
0.0
 20
0.0
 30
0.0
  3
G8
  1

  0
LINE
  5
137
330
134
100
AcDbEntity
  8
100
  6
Continuous
 62
     7
370
    30
100
AcDbLine
 10
16.482793
 20
158.725927
 30
0.0
 11
16.847153
 21
201.001856
 31
0.0
  0
LINE
  5
138
330
134
100
AcDbEntity
  8
100
  6
Continuous
 62
     7
370
    30
100
AcDbLine
 10
16.847153
 20
201.001856
 30
0.0
 11
17.444695
 21
202.718352
 31
0.0
  0
ENDBLK
  5
136
330
134
100
AcDbEntity
  8
0
100
AcDbBlockEnd
  0
BLOCK
  5
13B
330
13A
100
AcDbEntity
  8
0
100
AcDbBlockBegin
  2
G9
 70
     0
 10
0.0
 20
0.0
 30
0.0
  3
G9
  1

  0
LINE
  5
13D
330
13A
100
AcDbEntity
  8
100
  6
Continuous
 62
     7
370
    30
100
AcDbLine
 10
26.465347
 20
195.610767
 30
0.0
 11
25.668936
 21
194.875619
 31
0.0
  0
LINE
  5
13E
330
13A
100
AcDbEntity
  8
100
  6
Continuous
 62
     7
370
    30
100
AcDbLine
 10
25.668936
 20
194.875619
 30
0.0
 11
25.730198
 21
193.221535
 31
0.0
  0
LINE
  5
13F
330
13A
100
AcDbEntity
  8
100
  6
Continuous
 62
     7
370
    30
100
AcDbLine
 10
25.730198
 20
193.221535
 30
0.0
 11
25.913985
 21
191.199876
 31
0.0
  0
LINE
  5
140
330
13A
100
AcDbEntity
  8
100
  6
Continuous
 62
     7
370
    30
100
AcDbLine
 10
25.913985
 20
191.199876
 30
0.0
 11
26.710396
 21
190.219678
 31
0.0
  0
LINE
  5
141
330
13A
100
AcDbEntity
  8
100
  6
Continuous
 62
     7
370
    30
100
AcDbLine
 10
26.710396
 20
190.219678
 30
0.0
 11
27.874381
 21
189.913366
 31
0.0
  0
LINE
  5
142
330
13A
100
AcDbEntity
  8
100
  6
Continuous
 62
     7
370
    30
100
AcDbLine
 10
27.874381
 20
189.913366
 30
0.0
 11
29.283416
 21
189.790842
 31
0.0
  0
LINE
  5
143
330
13A
100
AcDbEntity
  8
100
  6
Continuous
 62
     7
370
    30
100
AcDbLine
 10
29.283416
 20
189.790842
 30
0.0
 11
30.263614
 21
190.158416
 31
0.0
  0
LINE
  5
144
330
13A
100
AcDbEntity
  8
100
  6
Continuous
 62
     7
370
    30
100
AcDbLine
 10
30.263614
 20
190.158416
 30
0.0
 11
30.386139
 21
191.8125
 31
0.0
  0
LINE
  5
145
330
13A
100
AcDbEntity
  8
100
  6
Continuous
 62
     7
370
    30
100
AcDbLine
 10
30.386139
 20
191.8125
 30
0.0
 11
30.386139
 21
193.466584
 31
0.0
  0
LINE
  5
146
330
13A
100
AcDbEntity
  8
100
  6
Continuous
 62
     7
370
    30
100
AcDbLine
 10
30.386139
 20
193.466584
 30
0.0
 11
30.018564
 21
194.630569
 31
0.0
  0
LINE
  5
147
330
13A
100
AcDbEntity
  8
100
  6
Continuous
 62
     7
370
    30
100
AcDbLine
 10
30.018564
 20
194.630569
 30
0.0
 11
29.099629
 21
195.610767
 31
0.0
  0
LINE
  5
148
330
13A
100
AcDbEntity
  8
100
  6
Continuous
 62
     7
370
    30
100
AcDbLine
 10
29.099629
 20
195.610767
 30
0.0
 11
27.690594
 21
195.978342
 31
0.0
  0
LINE
  5
149
330
13A
100
AcDbEntity
  8
100
  6
Continuous
 62
     7
370
    30
100
AcDbLine
 10
27.690594
 20
195.978342
 30
0.0
 11
26.465347
 21
195.610767
 31
0.0
  0
ENDBLK
  5
13C
330
13A
100
AcDbEntity
  8
0
100
AcDbBlockEnd
  0
BLOCK
  5
14C
330
14B
100
AcDbEntity
  8
0
100
AcDbBlockBegin
  2
G10
 70
     0
 10
0.0
 20
0.0
 30
0.0
  3
G10
  1

  0
LINE
  5
14E
330
14B
100
AcDbEntity
  8
100
  6
Continuous
 62
     7
370
    30
100
AcDbLine
 10
25.668936
 20
194.875619
 30
0.0
 11
26.894183
 21
195.120668
 31
0.0
  0
LINE
  5
14F
330
14B
100
AcDbEntity
  8
100
  6
Continuous
 62
     7
370
    30
100
AcDbLine
 10
26.894183
 20
195.120668
 30
0.0
 11
27.874381
 21
194.936881
 31
0.0
  0
LINE
  5
150
330
14B
100
AcDbEntity
  8
100
  6
Continuous
 62
     7
370
    30
100
AcDbLine
 10
27.874381
 20
194.936881
 30
0.0
 11
28.60953
 21
194.446782
 31
0.0
  0
LINE
  5
151
330
14B
100
AcDbEntity
  8
100
  6
Continuous
 62
     7
370
    30
100
AcDbLine
 10
28.60953
 20
194.446782
 30
0.0
 11
28.793317
 21
193.589109
 31
0.0
  0
LINE
  5
152
330
14B
100
AcDbEntity
  8
100
  6
Continuous
 62
     7
370
    30
100
AcDbLine
 10
28.793317
 20
193.589109
 30
0.0
 11
28.854579
 21
192.486386
 31
0.0
  0
LINE
  5
153
330
14B
100
AcDbEntity
  8
100
  6
Continuous
 62
     7
370
    30
100
AcDbLine
 10
28.854579
 20
192.486386
 30
0.0
 11
28.854579
 21
191.383663
 31
0.0
  0
LINE
  5
154
330
14B
100
AcDbEntity
  8
100
  6
Continuous
 62
     7
370
    30
100
AcDbLine
 10
28.854579
 20
191.383663
 30
0.0
 11
28.854579
 21
190.587252
 31
0.0
  0
LINE
  5
155
330
14B
100
AcDbEntity
  8
100
  6
Continuous
 62
     7
370
    30
100
AcDbLine
 10
28.854579
 20
190.587252
 30
0.0
 11
27.874381
 21
189.913366
 31
0.0
  0
ENDBLK
  5
14D
330
14B
100
AcDbEntity
  8
0
100
AcDbBlockEnd
  0
BLOCK
  5
158
330
157
100
AcDbEntity
  8
0
100
AcDbBlockBegin
  2
G11
 70
     0
 10
0.0
 20
0.0
 30
0.0
  3
G11
  1

  0
LINE
  5
15A
330
157
100
AcDbEntity
  8
100
  6
Continuous
 62
     7
370
    30
100
AcDbLine
 10
48.887376
 20
176.680693
 30
0.0
 11
54.033416
 21
178.273515
 31
0.0
  0
LINE
  5
15B
330
157
100
AcDbEntity
  8
100
  6
Continuous
 62
     7
370
    30
100
AcDbLine
 10
54.033416
 20
178.273515
 30
0.0
 11
61.262376
 21
180.111386
 31
0.0
  0
LINE
  5
15C
330
157
100
AcDbEntity
  8
100
  6
Continuous
 62
     7
370
    30
100
AcDbLine
 10
61.262376
 20
180.111386
 30
0.0
 11
70.206683
 21
181.336634
 31
0.0
  0
LINE
  5
15D
330
157
100
AcDbEntity
  8
100
  6
Continuous
 62
     7
370
    30
100
AcDbLine
 10
70.206683
 20
181.336634
 30
0.0
 11
78.538366
 21
182.071782
 31
0.0
  0
LINE
  5
15E
330
157
100
AcDbEntity
  8
100
  6
Continuous
 62
     7
370
    30
100
AcDbLine
 10
78.538366
 20
182.071782
 30
0.0
 11
85.767327
 21
182.561881
 31
0.0
  0
LINE
  5
15F
330
157
100
AcDbEntity
  8
100
  6
Continuous
 62
     7
370
    30
100
AcDbLine
 10
85.767327
 20
182.561881
 30
0.0
 11
93.363861
 21
182.561881
 31
0.0
  0
LINE
  5
160
330
157
100
AcDbEntity
  8
100
  6
Continuous
 62
     7
370
    30
100
AcDbLine
 10
93.363861
 20
182.561881
 30
0.0
 11
101.450495
 21
182.316832
 31
0.0
  0
LINE
  5
161
330
157
100
AcDbEntity
  8
100
  6
Continuous
 62
     7
370
    30
100
AcDbLine
 10
101.450495
 20
182.316832
 30
0.0
 11
109.782178
 21
182.439356
 31
0.0
  0
LINE
  5
162
330
157
100
AcDbEntity
  8
100
  6
Continuous
 62
     7
370
    30
100
AcDbLine
 10
109.782178
 20
182.439356
 30
0.0
 11
116.52104
 21
182.071782
 31
0.0
  0
LINE
  5
163
330
157
100
AcDbEntity
  8
100
  6
Continuous
 62
     7
370
    30
100
AcDbLine
 10
116.52104
 20
182.071782
 30
0.0
 11
122.402228
 21
181.581683
 31
0.0
  0
LINE
  5
164
330
157
100
AcDbEntity
  8
100
  6
Continuous
 62
     7
370
    30
100
AcDbLine
 10
122.402228
 20
181.581683
 30
0.0
 11
128.89604
 21
181.091584
 31
0.0
  0
LINE
  5
165
330
157
100
AcDbEntity
  8
100
  6
Continuous
 62
     7
370
    30
100
AcDbLine
 10
128.89604
 20
181.091584
 30
0.0
 11
138.207921
 21
179.008663
 31
0.0
  0
LINE
  5
166
330
157
100
AcDbEntity
  8
100
  6
Continuous
 62
     7
370
    30
100
AcDbLine
 10
138.207921
 20
179.008663
 30
0.0
 11
142.986386
 21
177.783416
 31
0.0
  0
LINE
  5
167
330
157
100
AcDbEntity
  8
100
  6
Continuous
 62
     7
370
    30
100
AcDbLine
 10
142.986386
 20
177.783416
 30
0.0
 11
147.642327
 21
175.82302
 31
0.0
  0
LINE
  5
168
330
157
100
AcDbEntity
  8
100
  6
Continuous
 62
     7
370
    30
100
AcDbLine
 10
147.642327
 20
175.82302
 30
0.0
 11
124.852723
 21
175.57797
 31
0.0
  0
LINE
  5
169
330
157
100
AcDbEntity
  8
100
  6
Continuous
 62
     7
370
    30
100
AcDbLine
 10
124.852723
 20
175.57797
 30
0.0
 11
109.04703
 21
174.597772
 31
0.0
  0
LINE
  5
16A
330
157
100
AcDbEntity
  8
100
  6
Continuous
 62
     7
370
    30
100
AcDbLine
 10
109.04703
 20
174.597772
 30
0.0
 11
96.42698
 21
173.862624
 31
0.0
  0
LINE
  5
16B
330
157
100
AcDbEntity
  8
100
  6
Continuous
 62
     7
370
    30
100
AcDbLine
 10
96.42698
 20
173.862624
 30
0.0
 11
86.257426
 21
173.25
 31
0.0
  0
LINE
  5
16C
330
157
100
AcDbEntity
  8
100
  6
Continuous
 62
     7
370
    30
100
AcDbLine
 10
86.257426
 20
173.25
 30
0.0
 11
75.475248
 21
172.024752
 31
0.0
  0
LINE
  5
16D
330
157
100
AcDbEntity
  8
100
  6
Continuous
 62
     7
370
    30
100
AcDbLine
 10
75.475248
 20
172.024752
 30
0.0
 11
65.305693
 21
170.92203
 31
0.0
  0
LINE
  5
16E
330
157
100
AcDbEntity
  8
100
  6
Continuous
 62
     7
370
    30
100
AcDbLine
 10
65.305693
 20
170.92203
 30
0.0
 11
54.40099
 21
169.451733
 31
0.0
  0
LINE
  5
16F
330
157
100
AcDbEntity
  8
100
  6
Continuous
 62
     7
370
    30
100
AcDbLine
 10
54.40099
 20
169.451733
 30
0.0
 11
44.966584
 21
167.858911
 31
0.0
  0
LINE
  5
170
330
157
100
AcDbEntity
  8
100
  6
Continuous
 62
     7
370
    30
100
AcDbLine
 10
44.966584
 20
167.858911
 30
0.0
 11
38.105198
 21
166.511139
 31
0.0
  0
ENDBLK
  5
159
330
157
100
AcDbEntity
  8
0
100
AcDbBlockEnd
  0
BLOCK
  5
173
330
172
100
AcDbEntity
  8
0
100
AcDbBlockBegin
  2
G12
 70
     0
 10
0.0
 20
0.0
 30
0.0
  3
G12
  1

  0
LINE
  5
175
330
172
100
AcDbEntity
  8
100
  6
Continuous
 62
     7
370
    30
100
AcDbLine
 10
147.642327
 20
175.82302
 30
0.0
 11
159.282178
 21
175.945545
 31
0.0
  0
LINE
  5
176
330
172
100
AcDbEntity
  8
100
  6
Continuous
 62
     7
370
    30
100
AcDbLine
 10
159.282178
 20
175.945545
 30
0.0
 11
171.044554
 21
175.332921
 31
0.0
  0
LINE
  5
177
330
172
100
AcDbEntity
  8
100
  6
Continuous
 62
     7
370
    30
100
AcDbLine
 10
171.044554
 20
175.332921
 30
0.0
 11
182.071782
 21
174.352723
 31
0.0
  0
LINE
  5
178
330
172
100
AcDbEntity
  8
100
  6
Continuous
 62
     7
370
    30
100
AcDbLine
 10
182.071782
 20
174.352723
 30
0.0
 11
193.221535
 21
173.127475
 31
0.0
  0
LINE
  5
179
330
172
100
AcDbEntity
  8
100
  6
Continuous
 62
     7
370
    30
100
AcDbLine
 10
193.221535
 20
173.127475
 30
0.0
 11
201.063119
 21
172.024752
 31
0.0
  0
LINE
  5
17A
330
172
100
AcDbEntity
  8
100
  6
Continuous
 62
     7
370
    30
100
AcDbLine
 10
201.063119
 20
172.024752
 30
0.0
 11
210.375
 21
170.309406
 31
0.0
  0
LINE
  5
17B
330
172
100
AcDbEntity
  8
100
  6
Continuous
 62
     7
370
    30
100
AcDbLine
 10
210.375
 20
170.309406
 30
0.0
 11
221.524752
 21
167.491337
 31
0.0
  0
LINE
  5
17C
330
172
100
AcDbEntity
  8
100
  6
Continuous
 62
     7
370
    30
100
AcDbLine
 10
221.524752
 20
167.491337
 30
0.0
 11
226.915842
 21
165.163366
 31
0.0
  0
LINE
  5
17D
330
172
100
AcDbEntity
  8
100
  6
Continuous
 62
     7
370
    30
100
AcDbLine
 10
226.915842
 20
165.163366
 30
0.0
 11
231.326733
 21
162.590347
 31
0.0
  0
LINE
  5
17E
330
172
100
AcDbEntity
  8
100
  6
Continuous
 62
     7
370
    30
100
AcDbLine
 10
231.326733
 20
162.590347
 30
0.0
 11
233.654703
 21
160.139851
 31
0.0
  0
LINE
  5
17F
330
172
100
AcDbEntity
  8
100
  6
Continuous
 62
     7
370
    30
100
AcDbLine
 10
233.654703
 20
160.139851
 30
0.0
 11
234.87995
 21
156.831683
 31
0.0
  0
LINE
  5
180
330
172
100
AcDbEntity
  8
100
  6
Continuous
 62
     7
370
    30
100
AcDbLine
 10
234.87995
 20
156.831683
 30
0.0
 11
234.267327
 21
154.381188
 31
0.0
  0
LINE
  5
181
330
172
100
AcDbEntity
  8
100
  6
Continuous
 62
     7
370
    30
100
AcDbLine
 10
234.267327
 20
154.381188
 30
0.0
 11
232.184406
 21
152.053218
 31
0.0
  0
LINE
  5
182
330
172
100
AcDbEntity
  8
100
  6
Continuous
 62
     7
370
    30
100
AcDbLine
 10
232.184406
 20
152.053218
 30
0.0
 11
229.121287
 21
150.092822
 31
0.0
  0
LINE
  5
183
330
172
100
AcDbEntity
  8
100
  6
Continuous
 62
     7
370
    30
100
AcDbLine
 10
229.121287
 20
150.092822
 30
0.0
 11
221.892327
 21
146.784653
 31
0.0
  0
LINE
  5
184
330
172
100
AcDbEntity
  8
100
  6
Continuous
 62
     7
370
    30
100
AcDbLine
 10
221.892327
 20
146.784653
 30
0.0
 11
216.991337
 21
144.946782
 31
0.0
  0
LINE
  5
185
330
172
100
AcDbEntity
  8
100
  6
Continuous
 62
     7
370
    30
100
AcDbLine
 10
216.991337
 20
144.946782
 30
0.0
 11
210.375
 21
143.108911
 31
0.0
  0
LINE
  5
186
330
172
100
AcDbEntity
  8
100
  6
Continuous
 62
     7
370
    30
100
AcDbLine
 10
210.375
 20
143.108911
 30
0.0
 11
203.391089
 21
141.761139
 31
0.0
  0
LINE
  5
187
330
172
100
AcDbEntity
  8
100
  6
Continuous
 62
     7
370
    30
100
AcDbLine
 10
203.391089
 20
141.761139
 30
0.0
 11
198.735149
 21
140.903465
 31
0.0
  0
LINE
  5
188
330
172
100
AcDbEntity
  8
100
  6
Continuous
 62
     7
370
    30
100
AcDbLine
 10
198.735149
 20
140.903465
 30
0.0
 11
191.138614
 21
139.555693
 31
0.0
  0
LINE
  5
189
330
172
100
AcDbEntity
  8
100
  6
Continuous
 62
     7
370
    30
100
AcDbLine
 10
191.138614
 20
139.555693
 30
0.0
 11
182.929455
 21
138.69802
 31
0.0
  0
LINE
  5
18A
330
172
100
AcDbEntity
  8
100
  6
Continuous
 62
     7
370
    30
100
AcDbLine
 10
182.929455
 20
138.69802
 30
0.0
 11
173.49505
 21
137.962871
 31
0.0
  0
LINE
  5
18B
330
172
100
AcDbEntity
  8
100
  6
Continuous
 62
     7
370
    30
100
AcDbLine
 10
173.49505
 20
137.962871
 30
0.0
 11
163.815594
 21
136.982673
 31
0.0
  0
LINE
  5
18C
330
172
100
AcDbEntity
  8
100
  6
Continuous
 62
     7
370
    30
100
AcDbLine
 10
163.815594
 20
136.982673
 30
0.0
 11
155.72896
 21
136.37005
 31
0.0
  0
LINE
  5
18D
330
172
100
AcDbEntity
  8
100
  6
Continuous
 62
     7
370
    30
100
AcDbLine
 10
155.72896
 20
136.37005
 30
0.0
 11
150.337871
 21
136.37005
 31
0.0
  0
ENDBLK
  5
174
330
172
100
AcDbEntity
  8
0
100
AcDbBlockEnd
  0
BLOCK
  5
190
330
18F
100
AcDbEntity
  8
0
100
AcDbBlockBegin
  2
G13
 70
     0
 10
0.0
 20
0.0
 30
0.0
  3
G13
  1

  0
LINE
  5
192
330
18F
100
AcDbEntity
  8
100
  6
Continuous
 62
     7
370
    30
100
AcDbLine
 10
150.950495
 20
139.555693
 30
0.0
 11
157.199257
 21
139.923267
 31
0.0
  0
LINE
  5
193
330
18F
100
AcDbEntity
  8
100
  6
Continuous
 62
     7
370
    30
100
AcDbLine
 10
157.199257
 20
139.923267
 30
0.0
 11
164.918317
 21
140.290842
 31
0.0
  0
LINE
  5
194
330
18F
100
AcDbEntity
  8
100
  6
Continuous
 62
     7
370
    30
100
AcDbLine
 10
164.918317
 20
140.290842
 30
0.0
 11
174.720297
 21
141.516089
 31
0.0
  0
LINE
  5
195
330
18F
100
AcDbEntity
  8
100
  6
Continuous
 62
     7
370
    30
100
AcDbLine
 10
174.720297
 20
141.516089
 30
0.0
 11
183.419554
 21
142.618812
 31
0.0
  0
LINE
  5
196
330
18F
100
AcDbEntity
  8
100
  6
Continuous
 62
     7
370
    30
100
AcDbLine
 10
183.419554
 20
142.618812
 30
0.0
 11
191.261139
 21
143.721535
 31
0.0
  0
LINE
  5
197
330
18F
100
AcDbEntity
  8
100
  6
Continuous
 62
     7
370
    30
100
AcDbLine
 10
191.261139
 20
143.721535
 30
0.0
 11
199.592822
 21
145.436881
 31
0.0
  0
LINE
  5
198
330
18F
100
AcDbEntity
  8
100
  6
Continuous
 62
     7
370
    30
100
AcDbLine
 10
199.592822
 20
145.436881
 30
0.0
 11
206.209158
 21
146.907178
 31
0.0
  0
LINE
  5
199
330
18F
100
AcDbEntity
  8
100
  6
Continuous
 62
     7
370
    30
100
AcDbLine
 10
206.209158
 20
146.907178
 30
0.0
 11
211.477723
 21
148.377475
 31
0.0
  0
LINE
  5
19A
330
18F
100
AcDbEntity
  8
100
  6
Continuous
 62
     7
370
    30
100
AcDbLine
 10
211.477723
 20
148.377475
 30
0.0
 11
217.726485
 21
150.950495
 31
0.0
  0
LINE
  5
19B
330
18F
100
AcDbEntity
  8
100
  6
Continuous
 62
     7
370
    30
100
AcDbLine
 10
217.726485
 20
150.950495
 30
0.0
 11
221.279703
 21
153.64604
 31
0.0
  0
LINE
  5
19C
330
18F
100
AcDbEntity
  8
100
  6
Continuous
 62
     7
370
    30
100
AcDbLine
 10
221.279703
 20
153.64604
 30
0.0
 11
222.627475
 21
154.871287
 31
0.0
  0
ENDBLK
  5
191
330
18F
100
AcDbEntity
  8
0
100
AcDbBlockEnd
  0
BLOCK
  5
19F
330
19E
100
AcDbEntity
  8
0
100
AcDbBlockBegin
  2
G14
 70
     0
 10
0.0
 20
0.0
 30
0.0
  3
G14
  1

  0
LINE
  5
1A1
330
19E
100
AcDbEntity
  8
100
  6
Continuous
 62
     7
370
    30
100
AcDbLine
 10
222.014851
 20
149.357673
 30
0.0
 11
226.548267
 21
151.685644
 31
0.0
  0
LINE
  5
1A2
330
19E
100
AcDbEntity
  8
100
  6
Continuous
 62
     7
370
    30
100
AcDbLine
 10
226.548267
 20
151.685644
 30
0.0
 11
228.876238
 21
154.381188
 31
0.0
  0
LINE
  5
1A3
330
19E
100
AcDbEntity
  8
100
  6
Continuous
 62
     7
370
    30
100
AcDbLine
 10
228.876238
 20
154.381188
 30
0.0
 11
229.121287
 21
156.096535
 31
0.0
  0
LINE
  5
1A4
330
19E
100
AcDbEntity
  8
100
  6
Continuous
 62
     7
370
    30
100
AcDbLine
 10
229.121287
 20
156.096535
 30
0.0
 11
227.038366
 21
157.811881
 31
0.0
  0
LINE
  5
1A5
330
19E
100
AcDbEntity
  8
100
  6
Continuous
 62
     7
370
    30
100
AcDbLine
 10
227.038366
 20
157.811881
 30
0.0
 11
223.485149
 21
159.894802
 31
0.0
  0
LINE
  5
1A6
330
19E
100
AcDbEntity
  8
100
  6
Continuous
 62
     7
370
    30
100
AcDbLine
 10
223.485149
 20
159.894802
 30
0.0
 11
221.647277
 21
160.384901
 31
0.0
  0
ENDBLK
  5
1A0
330
19E
100
AcDbEntity
  8
0
100
AcDbBlockEnd
  0
BLOCK
  5
1A9
330
1A8
100
AcDbEntity
  8
0
100
AcDbBlockBegin
  2
G15
 70
     0
 10
0.0
 20
0.0
 30
0.0
  3
G15
  1

  0
LINE
  5
1AB
330
1A8
100
AcDbEntity
  8
100
  6
Continuous
 62
     7
370
    30
100
AcDbLine
 10
233.344433
 20
153.349718
 30
0.0
 11
233.164604
 21
155.72896
 31
0.0
  0
LINE
  5
1AC
330
1A8
100
AcDbEntity
  8
100
  6
Continuous
 62
     7
370
    30
100
AcDbLine
 10
233.164604
 20
155.72896
 30
0.0
 11
231.204208
 21
158.54703
 31
0.0
  0
LINE
  5
1AD
330
1A8
100
AcDbEntity
  8
100
  6
Continuous
 62
     7
370
    30
100
AcDbLine
 10
231.204208
 20
158.54703
 30
0.0
 11
226.180693
 21
161.12005
 31
0.0
  0
LINE
  5
1AE
330
1A8
100
AcDbEntity
  8
100
  6
Continuous
 62
     7
370
    30
100
AcDbLine
 10
226.180693
 20
161.12005
 30
0.0
 11
220.912129
 21
162.712871
 31
0.0
  0
LINE
  5
1AF
330
1A8
100
AcDbEntity
  8
100
  6
Continuous
 62
     7
370
    30
100
AcDbLine
 10
220.912129
 20
162.712871
 30
0.0
 11
214.540842
 21
164.550743
 31
0.0
  0
LINE
  5
1B0
330
1A8
100
AcDbEntity
  8
100
  6
Continuous
 62
     7
370
    30
100
AcDbLine
 10
214.540842
 20
164.550743
 30
0.0
 11
208.782178
 21
165.77599
 31
0.0
  0
LINE
  5
1B1
330
1A8
100
AcDbEntity
  8
100
  6
Continuous
 62
     7
370
    30
100
AcDbLine
 10
208.782178
 20
165.77599
 30
0.0
 11
202.288366
 21
166.633663
 31
0.0
  0
LINE
  5
1B2
330
1A8
100
AcDbEntity
  8
100
  6
Continuous
 62
     7
370
    30
100
AcDbLine
 10
202.288366
 20
166.633663
 30
0.0
 11
191.628713
 21
167.613861
 31
0.0
  0
LINE
  5
1B3
330
1A8
100
AcDbEntity
  8
100
  6
Continuous
 62
     7
370
    30
100
AcDbLine
 10
191.628713
 20
167.613861
 30
0.0
 11
181.336634
 21
168.34901
 31
0.0
  0
LINE
  5
1B4
330
1A8
100
AcDbEntity
  8
100
  6
Continuous
 62
     7
370
    30
100
AcDbLine
 10
181.336634
 20
168.34901
 30
0.0
 11
169.696782
 21
168.839109
 31
0.0
  0
LINE
  5
1B5
330
1A8
100
AcDbEntity
  8
100
  6
Continuous
 62
     7
370
    30
100
AcDbLine
 10
169.696782
 20
168.839109
 30
0.0
 11
158.056931
 21
169.206683
 31
0.0
  0
LINE
  5
1B6
330
1A8
100
AcDbEntity
  8
100
  6
Continuous
 62
     7
370
    30
100
AcDbLine
 10
158.056931
 20
169.206683
 30
0.0
 11
147.274752
 21
169.574257
 31
0.0
  0
LINE
  5
1B7
330
1A8
100
AcDbEntity
  8
100
  6
Continuous
 62
     7
370
    30
100
AcDbLine
 10
147.274752
 20
169.574257
 30
0.0
 11
136.615099
 21
169.696782
 31
0.0
  0
LINE
  5
1B8
330
1A8
100
AcDbEntity
  8
100
  6
Continuous
 62
     7
370
    30
100
AcDbLine
 10
136.615099
 20
169.696782
 30
0.0
 11
121.789604
 21
169.329208
 31
0.0
  0
LINE
  5
1B9
330
1A8
100
AcDbEntity
  8
100
  6
Continuous
 62
     7
370
    30
100
AcDbLine
 10
121.789604
 20
169.329208
 30
0.0
 11
106.596535
 21
168.471535
 31
0.0
  0
LINE
  5
1BA
330
1A8
100
AcDbEntity
  8
100
  6
Continuous
 62
     7
370
    30
100
AcDbLine
 10
106.596535
 20
168.471535
 30
0.0
 11
90.055693
 21
166.756188
 31
0.0
  0
LINE
  5
1BB
330
1A8
100
AcDbEntity
  8
100
  6
Continuous
 62
     7
370
    30
100
AcDbLine
 10
90.055693
 20
166.756188
 30
0.0
 11
76.087871
 21
165.653465
 31
0.0
  0
LINE
  5
1BC
330
1A8
100
AcDbEntity
  8
100
  6
Continuous
 62
     7
370
    30
100
AcDbLine
 10
76.087871
 20
165.653465
 30
0.0
 11
62.242574
 21
164.305693
 31
0.0
  0
LINE
  5
1BD
330
1A8
100
AcDbEntity
  8
100
  6
Continuous
 62
     7
370
    30
100
AcDbLine
 10
62.242574
 20
164.305693
 30
0.0
 11
51.82797
 21
162.835396
 31
0.0
  0
LINE
  5
1BE
330
1A8
100
AcDbEntity
  8
100
  6
Continuous
 62
     7
370
    30
100
AcDbLine
 10
51.82797
 20
162.835396
 30
0.0
 11
43.496287
 21
161.487624
 31
0.0
  0
LINE
  5
1BF
330
1A8
100
AcDbEntity
  8
100
  6
Continuous
 62
     7
370
    30
100
AcDbLine
 10
43.496287
 20
161.487624
 30
0.0
 11
36.512376
 21
160.139851
 31
0.0
  0
LINE
  5
1C0
330
1A8
100
AcDbEntity
  8
100
  6
Continuous
 62
     7
370
    30
100
AcDbLine
 10
36.512376
 20
160.139851
 30
0.0
 11
30.141089
 21
158.30198
 31
0.0
  0
LINE
  5
1C1
330
1A8
100
AcDbEntity
  8
100
  6
Continuous
 62
     7
370
    30
100
AcDbLine
 10
30.141089
 20
158.30198
 30
0.0
 11
23.769802
 21
156.096535
 31
0.0
  0
LINE
  5
1C2
330
1A8
100
AcDbEntity
  8
100
  6
Continuous
 62
     7
370
    30
100
AcDbLine
 10
23.769802
 20
156.096535
 30
0.0
 11
18.011139
 21
153.768564
 31
0.0
  0
LINE
  5
1C3
330
1A8
100
AcDbEntity
  8
100
  6
Continuous
 62
     7
370
    30
100
AcDbLine
 10
18.011139
 20
153.768564
 30
0.0
 11
16.295792
 21
152.420792
 31
0.0
  0
LINE
  5
1C4
330
1A8
100
AcDbEntity
  8
100
  6
Continuous
 62
     7
370
    30
100
AcDbLine
 10
16.295792
 20
152.420792
 30
0.0
 11
14.70297
 21
150.521658
 31
0.0
  0
LINE
  5
1C5
330
1A8
100
AcDbEntity
  8
100
  6
Continuous
 62
     7
370
    30
100
AcDbLine
 10
14.70297
 20
150.521658
 30
0.0
 11
14.70297
 21
148.5
 31
0.0
  0
LINE
  5
1C6
330
1A8
100
AcDbEntity
  8
100
  6
Continuous
 62
     7
370
    30
100
AcDbLine
 10
14.70297
 20
148.5
 30
0.0
 11
15.928218
 21
147.090965
 31
0.0
  0
LINE
  5
1C7
330
1A8
100
AcDbEntity
  8
100
  6
Continuous
 62
     7
370
    30
100
AcDbLine
 10
15.928218
 20
147.090965
 30
0.0
 11
18.011139
 21
145.559406
 31
0.0
  0
LINE
  5
1C8
330
1A8
100
AcDbEntity
  8
100
  6
Continuous
 62
     7
370
    30
100
AcDbLine
 10
18.011139
 20
145.559406
 30
0.0
 11
21.625619
 21
143.170173
 31
0.0
  0
LINE
  5
1C9
330
1A8
100
AcDbEntity
  8
100
  6
Continuous
 62
     7
370
    30
100
AcDbLine
 10
21.625619
 20
143.170173
 30
0.0
 11
25.913985
 21
141.209777
 31
0.0
  0
LINE
  5
1CA
330
1A8
100
AcDbEntity
  8
100
  6
Continuous
 62
     7
370
    30
100
AcDbLine
 10
25.913985
 20
141.209777
 30
0.0
 11
32.469059
 21
139.616955
 31
0.0
  0
LINE
  5
1CB
330
1A8
100
AcDbEntity
  8
100
  6
Continuous
 62
     7
370
    30
100
AcDbLine
 10
32.469059
 20
139.616955
 30
0.0
 11
38.350248
 21
138.269183
 31
0.0
  0
LINE
  5
1CC
330
1A8
100
AcDbEntity
  8
100
  6
Continuous
 62
     7
370
    30
100
AcDbLine
 10
38.350248
 20
138.269183
 30
0.0
 11
42.27104
 21
137.962871
 31
0.0
  0
LINE
  5
1CD
330
1A8
100
AcDbEntity
  8
100
  6
Continuous
 62
     7
370
    30
100
AcDbLine
 10
42.27104
 20
137.962871
 30
0.0
 11
44.047649
 21
137.779084
 31
0.0
  0
ENDBLK
  5
1AA
330
1A8
100
AcDbEntity
  8
0
100
AcDbBlockEnd
  0
BLOCK
  5
1D0
330
1CF
100
AcDbEntity
  8
0
100
AcDbBlockBegin
  2
G16
 70
     0
 10
0.0
 20
0.0
 30
0.0
  3
G16
  1

  0
LINE
  5
1D2
330
1CF
100
AcDbEntity
  8
100
  6
Continuous
 62
     7
370
    30
100
AcDbLine
 10
27.200495
 20
138.391708
 30
0.0
 11
25.852723
 21
138.269183
 31
0.0
  0
LINE
  5
1D3
330
1CF
100
AcDbEntity
  8
100
  6
Continuous
 62
     7
370
    30
100
AcDbLine
 10
25.852723
 20
138.269183
 30
0.0
 11
24.811262
 21
137.41151
 31
0.0
  0
LINE
  5
1D4
330
1CF
100
AcDbEntity
  8
100
  6
Continuous
 62
     7
370
    30
100
AcDbLine
 10
24.811262
 20
137.41151
 30
0.0
 11
24.443688
 21
135.941213
 31
0.0
  0
LINE
  5
1D5
330
1CF
100
AcDbEntity
  8
100
  6
Continuous
 62
     7
370
    30
100
AcDbLine
 10
24.443688
 20
135.941213
 30
0.0
 11
24.688738
 21
134.287129
 31
0.0
  0
LINE
  5
1D6
330
1CF
100
AcDbEntity
  8
100
  6
Continuous
 62
     7
370
    30
100
AcDbLine
 10
24.688738
 20
134.287129
 30
0.0
 11
25.668936
 21
132.939356
 31
0.0
  0
LINE
  5
1D7
330
1CF
100
AcDbEntity
  8
100
  6
Continuous
 62
     7
370
    30
100
AcDbLine
 10
25.668936
 20
132.939356
 30
0.0
 11
26.710396
 21
132.326733
 31
0.0
  0
LINE
  5
1D8
330
1CF
100
AcDbEntity
  8
100
  6
Continuous
 62
     7
370
    30
100
AcDbLine
 10
26.710396
 20
132.326733
 30
0.0
 11
27.874381
 21
132.26547
 31
0.0
  0
LINE
  5
1D9
330
1CF
100
AcDbEntity
  8
100
  6
Continuous
 62
     7
370
    30
100
AcDbLine
 10
27.874381
 20
132.26547
 30
0.0
 11
28.915842
 21
132.816832
 31
0.0
  0
LINE
  5
1DA
330
1CF
100
AcDbEntity
  8
100
  6
Continuous
 62
     7
370
    30
100
AcDbLine
 10
28.915842
 20
132.816832
 30
0.0
 11
29.773515
 21
133.79703
 31
0.0
  0
LINE
  5
1DB
330
1CF
100
AcDbEntity
  8
100
  6
Continuous
 62
     7
370
    30
100
AcDbLine
 10
29.773515
 20
133.79703
 30
0.0
 11
29.957302
 21
135.022277
 31
0.0
  0
LINE
  5
1DC
330
1CF
100
AcDbEntity
  8
100
  6
Continuous
 62
     7
370
    30
100
AcDbLine
 10
29.957302
 20
135.022277
 30
0.0
 11
29.65099
 21
136.798886
 31
0.0
  0
LINE
  5
1DD
330
1CF
100
AcDbEntity
  8
100
  6
Continuous
 62
     7
370
    30
100
AcDbLine
 10
29.65099
 20
136.798886
 30
0.0
 11
28.793317
 21
137.717822
 31
0.0
  0
LINE
  5
1DE
330
1CF
100
AcDbEntity
  8
100
  6
Continuous
 62
     7
370
    30
100
AcDbLine
 10
28.793317
 20
137.717822
 30
0.0
 11
27.813119
 21
138.269183
 31
0.0
  0
LINE
  5
1DF
330
1CF
100
AcDbEntity
  8
100
  6
Continuous
 62
     7
370
    30
100
AcDbLine
 10
27.813119
 20
138.269183
 30
0.0
 11
27.200495
 21
138.391708
 31
0.0
  0
ENDBLK
  5
1D1
330
1CF
100
AcDbEntity
  8
0
100
AcDbBlockEnd
  0
BLOCK
  5
1E2
330
1E1
100
AcDbEntity
  8
0
100
AcDbBlockBegin
  2
G17
 70
     0
 10
0.0
 20
0.0
 30
0.0
  3
G17
  1

  0
LINE
  5
1E4
330
1E1
100
AcDbEntity
  8
100
  6
Continuous
 62
     7
370
    30
100
AcDbLine
 10
26.753079
 20
138.351034
 30
0.0
 11
27.384282
 21
137.779084
 31
0.0
  0
LINE
  5
1E5
330
1E1
100
AcDbEntity
  8
100
  6
Continuous
 62
     7
370
    30
100
AcDbLine
 10
27.384282
 20
137.779084
 30
0.0
 11
27.935644
 21
137.227723
 31
0.0
  0
LINE
  5
1E6
330
1E1
100
AcDbEntity
  8
100
  6
Continuous
 62
     7
370
    30
100
AcDbLine
 10
27.935644
 20
137.227723
 30
0.0
 11
28.119431
 21
136.247525
 31
0.0
  0
LINE
  5
1E7
330
1E1
100
AcDbEntity
  8
100
  6
Continuous
 62
     7
370
    30
100
AcDbLine
 10
28.119431
 20
136.247525
 30
0.0
 11
28.180693
 21
135.08354
 31
0.0
  0
LINE
  5
1E8
330
1E1
100
AcDbEntity
  8
100
  6
Continuous
 62
     7
370
    30
100
AcDbLine
 10
28.180693
 20
135.08354
 30
0.0
 11
28.180693
 21
134.042079
 31
0.0
  0
LINE
  5
1E9
330
1E1
100
AcDbEntity
  8
100
  6
Continuous
 62
     7
370
    30
100
AcDbLine
 10
28.180693
 20
134.042079
 30
0.0
 11
27.629332
 21
133.306931
 31
0.0
  0
LINE
  5
1EA
330
1E1
100
AcDbEntity
  8
100
  6
Continuous
 62
     7
370
    30
100
AcDbLine
 10
27.629332
 20
133.306931
 30
0.0
 11
26.832921
 21
133.061881
 31
0.0
  0
LINE
  5
1EB
330
1E1
100
AcDbEntity
  8
100
  6
Continuous
 62
     7
370
    30
100
AcDbLine
 10
26.832921
 20
133.061881
 30
0.0
 11
26.132104
 21
132.666904
 31
0.0
  0
ENDBLK
  5
1E3
330
1E1
100
AcDbEntity
  8
0
100
AcDbBlockEnd
  0
BLOCK
  5
1EE
330
1ED
100
AcDbEntity
  8
0
100
AcDbBlockBegin
  2
G18
 70
     0
 10
0.0
 20
0.0
 30
0.0
  3
G18
  1

  0
LINE
  5
1F0
330
1ED
100
AcDbEntity
  8
100
  6
Continuous
 62
     7
370
    30
100
AcDbLine
 10
44.170173
 20
122.647277
 30
0.0
 11
26.771658
 21
123.99505
 31
0.0
  0
LINE
  5
1F1
330
1ED
100
AcDbEntity
  8
100
  6
Continuous
 62
     7
370
    30
100
AcDbLine
 10
26.771658
 20
123.99505
 30
0.0
 11
19.665223
 21
124.362624
 31
0.0
  0
LINE
  5
1F2
330
1ED
100
AcDbEntity
  8
100
  6
Continuous
 62
     7
370
    30
100
AcDbLine
 10
19.665223
 20
124.362624
 30
0.0
 11
13.048886
 21
126.32302
 31
0.0
  0
LINE
  5
1F3
330
1ED
100
AcDbEntity
  8
100
  6
Continuous
 62
     7
370
    30
100
AcDbLine
 10
13.048886
 20
126.32302
 30
0.0
 11
13.171411
 21
145.314356
 31
0.0
  0
LINE
  5
1F4
330
1ED
100
AcDbEntity
  8
100
  6
Continuous
 62
     7
370
    30
100
AcDbLine
 10
13.171411
 20
145.314356
 30
0.0
 11
11.456064
 21
147.519802
 31
0.0
  0
LINE
  5
1F5
330
1ED
100
AcDbEntity
  8
100
  6
Continuous
 62
     7
370
    30
100
AcDbLine
 10
11.456064
 20
147.519802
 30
0.0
 11
10.292079
 21
149.235149
 31
0.0
  0
LINE
  5
1F6
330
1ED
100
AcDbEntity
  8
100
  6
Continuous
 62
     7
370
    30
100
AcDbLine
 10
10.292079
 20
149.235149
 30
0.0
 11
10.292079
 21
151.685644
 31
0.0
  0
LINE
  5
1F7
330
1ED
100
AcDbEntity
  8
100
  6
Continuous
 62
     7
370
    30
100
AcDbLine
 10
10.292079
 20
151.685644
 30
0.0
 11
10.292079
 21
153.891089
 31
0.0
  0
LINE
  5
1F8
330
1ED
100
AcDbEntity
  8
100
  6
Continuous
 62
     7
370
    30
100
AcDbLine
 10
10.292079
 20
153.891089
 30
0.0
 11
11.701114
 21
155.361386
 31
0.0
  0
LINE
  5
1F9
330
1ED
100
AcDbEntity
  8
100
  6
Continuous
 62
     7
370
    30
100
AcDbLine
 10
11.701114
 20
155.361386
 30
0.0
 11
13.600248
 21
156.831683
 31
0.0
  0
ENDBLK
  5
1EF
330
1ED
100
AcDbEntity
  8
0
100
AcDbBlockEnd
  0
BLOCK
  5
1FC
330
1FB
100
AcDbEntity
  8
0
100
AcDbBlockBegin
  2
G19
 70
     0
 10
0.0
 20
0.0
 30
0.0
  3
G19
  1

  0
LINE
  5
1FE
330
1FB
100
AcDbEntity
  8
100
  6
Continuous
 62
     7
370
    30
100
AcDbLine
 10
19.910272
 20
142.618812
 30
0.0
 11
17.337252
 21
144.089109
 31
0.0
  0
LINE
  5
1FF
330
1FB
100
AcDbEntity
  8
100
  6
Continuous
 62
     7
370
    30
100
AcDbLine
 10
17.337252
 20
144.089109
 30
0.0
 11
15.131807
 21
146.17203
 31
0.0
  0
LINE
  5
200
330
1FB
100
AcDbEntity
  8
100
  6
Continuous
 62
     7
370
    30
100
AcDbLine
 10
15.131807
 20
146.17203
 30
0.0
 11
14.18224
 21
147.090965
 31
0.0
  0
LINE
  5
201
330
1FB
100
AcDbEntity
  8
100
  6
Continuous
 62
     7
370
    30
100
AcDbLine
 10
14.18224
 20
147.090965
 30
0.0
 11
13.998453
 21
148.009901
 31
0.0
  0
LINE
  5
202
330
1FB
100
AcDbEntity
  8
100
  6
Continuous
 62
     7
370
    30
100
AcDbLine
 10
13.998453
 20
148.009901
 30
0.0
 11
13.998453
 21
149.296411
 31
0.0
  0
LINE
  5
203
330
1FB
100
AcDbEntity
  8
100
  6
Continuous
 62
     7
370
    30
100
AcDbLine
 10
13.998453
 20
149.296411
 30
0.0
 11
14.18224
 21
150.276609
 31
0.0
  0
LINE
  5
204
330
1FB
100
AcDbEntity
  8
100
  6
Continuous
 62
     7
370
    30
100
AcDbLine
 10
14.18224
 20
150.276609
 30
0.0
 11
14.939412
 21
150.80357
 31
0.0
  0
ENDBLK
  5
1FD
330
1FB
100
AcDbEntity
  8
0
100
AcDbBlockEnd
  0
BLOCK
  5
207
330
206
100
AcDbEntity
  8
0
100
AcDbBlockBegin
  2
G20
 70
     0
 10
0.0
 20
0.0
 30
0.0
  3
G20
  1

  0
LINE
  5
209
330
206
100
AcDbEntity
  8
100
  6
Continuous
 62
     7
370
    30
100
AcDbLine
 10
21.472463
 20
141.424196
 30
0.0
 11
21.227413
 21
134.440285
 31
0.0
  0
LINE
  5
20A
330
206
100
AcDbEntity
  8
100
  6
Continuous
 62
     7
370
    30
100
AcDbLine
 10
21.227413
 20
134.440285
 30
0.0
 11
21.349938
 21
129.906869
 31
0.0
  0
LINE
  5
20B
330
206
100
AcDbEntity
  8
100
  6
Continuous
 62
     7
370
    30
100
AcDbLine
 10
21.349938
 20
129.906869
 30
0.0
 11
22.330136
 21
127.823948
 31
0.0
  0
LINE
  5
20C
330
206
100
AcDbEntity
  8
100
  6
Continuous
 62
     7
370
    30
100
AcDbLine
 10
22.330136
 20
127.823948
 30
0.0
 11
23.922958
 21
125.618502
 31
0.0
  0
LINE
  5
20D
330
206
100
AcDbEntity
  8
100
  6
Continuous
 62
     7
370
    30
100
AcDbLine
 10
23.922958
 20
125.618502
 30
0.0
 11
25.633428
 21
124.053924
 31
0.0
  0
ENDBLK
  5
208
330
206
100
AcDbEntity
  8
0
100
AcDbBlockEnd
  0
BLOCK
  5
210
330
20F
100
AcDbEntity
  8
0
100
AcDbBlockBegin
  2
G21
 70
     0
 10
0.0
 20
0.0
 30
0.0
  3
G21
  1

  0
LINE
  5
212
330
20F
100
AcDbEntity
  8
100
  6
Continuous
 62
     7
370
    30
100
AcDbLine
 10
16.546638
 20
144.8358
 30
0.0
 11
16.571473
 21
129.784344
 31
0.0
  0
LINE
  5
213
330
20F
100
AcDbEntity
  8
100
  6
Continuous
 62
     7
370
    30
100
AcDbLine
 10
16.571473
 20
129.784344
 30
0.0
 11
17.061572
 21
127.823948
 31
0.0
  0
LINE
  5
214
330
20F
100
AcDbEntity
  8
100
  6
Continuous
 62
     7
370
    30
100
AcDbLine
 10
17.061572
 20
127.823948
 30
0.0
 11
18.899443
 21
125.986077
 31
0.0
  0
LINE
  5
215
330
20F
100
AcDbEntity
  8
100
  6
Continuous
 62
     7
370
    30
100
AcDbLine
 10
18.899443
 20
125.986077
 30
0.0
 11
20.726553
 21
124.307727
 31
0.0
  0
ENDBLK
  5
211
330
20F
100
AcDbEntity
  8
0
100
AcDbBlockEnd
  0
BLOCK
  5
218
330
217
100
AcDbEntity
  8
0
100
AcDbBlockBegin
  2
G22
 70
     0
 10
0.0
 20
0.0
 30
0.0
  3
G22
  1

  0
LINE
  5
21A
330
217
100
AcDbEntity
  8
100
  6
Continuous
 62
     7
370
    30
100
AcDbLine
 10
49.775681
 20
147.060334
 30
0.0
 11
48.182859
 21
147.550433
 31
0.0
  0
LINE
  5
21B
330
217
100
AcDbEntity
  8
100
  6
Continuous
 62
     7
370
    30
100
AcDbLine
 10
48.182859
 20
147.550433
 30
0.0
 11
48.305384
 21
130.519493
 31
0.0
  0
LINE
  5
21C
330
217
100
AcDbEntity
  8
100
  6
Continuous
 62
     7
370
    30
100
AcDbLine
 10
48.305384
 20
130.519493
 30
0.0
 11
48.182859
 21
118.267017
 31
0.0
  0
LINE
  5
21D
330
217
100
AcDbEntity
  8
100
  6
Continuous
 62
     7
370
    30
100
AcDbLine
 10
48.182859
 20
118.267017
 30
0.0
 11
48.182859
 21
108.955136
 31
0.0
  0
LINE
  5
21E
330
217
100
AcDbEntity
  8
100
  6
Continuous
 62
     7
370
    30
100
AcDbLine
 10
48.182859
 20
108.955136
 30
0.0
 11
49.408106
 21
107.484839
 31
0.0
  0
LINE
  5
21F
330
217
100
AcDbEntity
  8
100
  6
Continuous
 62
     7
370
    30
100
AcDbLine
 10
49.408106
 20
107.484839
 30
0.0
 11
49.898205
 21
122.800433
 31
0.0
  0
LINE
  5
220
330
217
100
AcDbEntity
  8
100
  6
Continuous
 62
     7
370
    30
100
AcDbLine
 10
49.898205
 20
122.800433
 30
0.0
 11
48.226963
 21
122.677467
 31
0.0
  0
ENDBLK
  5
219
330
217
100
AcDbEntity
  8
0
100
AcDbBlockEnd
  0
BLOCK
  5
223
330
222
100
AcDbEntity
  8
0
100
AcDbBlockBegin
  2
G23
 70
     0
 10
0.0
 20
0.0
 30
0.0
  3
G23
  1

  0
LINE
  5
225
330
222
100
AcDbEntity
  8
100
  6
Continuous
 62
     7
370
    30
100
AcDbLine
 10
43.894493
 20
150.858601
 30
0.0
 11
45.854889
 21
151.716275
 31
0.0
  0
LINE
  5
226
330
222
100
AcDbEntity
  8
100
  6
Continuous
 62
     7
370
    30
100
AcDbLine
 10
45.854889
 20
151.716275
 30
0.0
 11
47.44771
 21
151.716275
 31
0.0
  0
LINE
  5
227
330
222
100
AcDbEntity
  8
100
  6
Continuous
 62
     7
370
    30
100
AcDbLine
 10
47.44771
 20
151.716275
 30
0.0
 11
48.672958
 21
151.103651
 31
0.0
  0
LINE
  5
228
330
222
100
AcDbEntity
  8
100
  6
Continuous
 62
     7
370
    30
100
AcDbLine
 10
48.672958
 20
151.103651
 30
0.0
 11
49.224319
 21
150.184715
 31
0.0
  0
LINE
  5
229
330
222
100
AcDbEntity
  8
100
  6
Continuous
 62
     7
370
    30
100
AcDbLine
 10
49.224319
 20
150.184715
 30
0.0
 11
49.163057
 21
149.327042
 31
0.0
  0
LINE
  5
22A
330
222
100
AcDbEntity
  8
100
  6
Continuous
 62
     7
370
    30
100
AcDbLine
 10
49.163057
 20
149.327042
 30
0.0
 11
48.519802
 21
148.714418
 31
0.0
  0
LINE
  5
22B
330
222
100
AcDbEntity
  8
100
  6
Continuous
 62
     7
370
    30
100
AcDbLine
 10
48.519802
 20
148.714418
 30
0.0
 11
48.244121
 21
148.469369
 31
0.0
  0
LINE
  5
22C
330
222
100
AcDbEntity
  8
100
  6
Continuous
 62
     7
370
    30
100
AcDbLine
 10
48.244121
 20
148.469369
 30
0.0
 11
48.182859
 21
147.550433
 31
0.0
  0
ENDBLK
  5
224
330
222
100
AcDbEntity
  8
0
100
AcDbBlockEnd
  0
BLOCK
  5
22F
330
22E
100
AcDbEntity
  8
0
100
AcDbBlockBegin
  2
G24
 70
     0
 10
0.0
 20
0.0
 30
0.0
  3
G24
  1

  0
LINE
  5
231
330
22E
100
AcDbEntity
  8
100
  6
Continuous
 62
     7
370
    30
100
AcDbLine
 10
43.894493
 20
150.858601
 30
0.0
 11
43.55755
 21
150.460396
 31
0.0
  0
LINE
  5
232
330
22E
100
AcDbEntity
  8
100
  6
Continuous
 62
     7
370
    30
100
AcDbLine
 10
43.55755
 20
150.460396
 30
0.0
 11
43.680074
 21
149.78651
 31
0.0
  0
LINE
  5
233
330
22E
100
AcDbEntity
  8
100
  6
Continuous
 62
     7
370
    30
100
AcDbLine
 10
43.680074
 20
149.78651
 30
0.0
 11
44.047649
 21
149.327042
 31
0.0
  0
LINE
  5
234
330
22E
100
AcDbEntity
  8
100
  6
Continuous
 62
     7
370
    30
100
AcDbLine
 10
44.047649
 20
149.327042
 30
0.0
 11
44.047649
 21
140.26021
 31
0.0
  0
LINE
  5
235
330
22E
100
AcDbEntity
  8
100
  6
Continuous
 62
     7
370
    30
100
AcDbLine
 10
44.047649
 20
140.26021
 30
0.0
 11
44.170173
 21
128.559097
 31
0.0
  0
LINE
  5
236
330
22E
100
AcDbEntity
  8
100
  6
Continuous
 62
     7
370
    30
100
AcDbLine
 10
44.170173
 20
128.559097
 30
0.0
 11
44.170173
 21
122.647277
 31
0.0
  0
LINE
  5
237
330
22E
100
AcDbEntity
  8
100
  6
Continuous
 62
     7
370
    30
100
AcDbLine
 10
44.170173
 20
122.647277
 30
0.0
 11
44.231436
 21
105.830755
 31
0.0
  0
ENDBLK
  5
230
330
22E
100
AcDbEntity
  8
0
100
AcDbBlockEnd
  0
BLOCK
  5
23A
330
239
100
AcDbEntity
  8
0
100
AcDbBlockBegin
  2
G25
 70
     0
 10
0.0
 20
0.0
 30
0.0
  3
G25
  1

  0
LINE
  5
23C
330
239
100
AcDbEntity
  8
100
  6
Continuous
 62
     7
370
    30
100
AcDbLine
 10
43.55755
 20
150.460396
 30
0.0
 11
42.27104
 21
151.164913
 31
0.0
  0
LINE
  5
23D
330
239
100
AcDbEntity
  8
100
  6
Continuous
 62
     7
370
    30
100
AcDbLine
 10
42.27104
 20
151.164913
 30
0.0
 11
41.107054
 21
152.083849
 31
0.0
  0
LINE
  5
23E
330
239
100
AcDbEntity
  8
100
  6
Continuous
 62
     7
370
    30
100
AcDbLine
 10
41.107054
 20
152.083849
 30
0.0
 11
40.678218
 21
153.125309
 31
0.0
  0
LINE
  5
23F
330
239
100
AcDbEntity
  8
100
  6
Continuous
 62
     7
370
    30
100
AcDbLine
 10
40.678218
 20
153.125309
 30
0.0
 11
40.73948
 21
153.737933
 31
0.0
  0
LINE
  5
240
330
239
100
AcDbEntity
  8
100
  6
Continuous
 62
     7
370
    30
100
AcDbLine
 10
40.73948
 20
153.737933
 30
0.0
 11
41.168317
 21
154.534344
 31
0.0
  0
LINE
  5
241
330
239
100
AcDbEntity
  8
100
  6
Continuous
 62
     7
370
    30
100
AcDbLine
 10
41.168317
 20
154.534344
 30
0.0
 11
42.02599
 21
155.146968
 31
0.0
  0
LINE
  5
242
330
239
100
AcDbEntity
  8
100
  6
Continuous
 62
     7
370
    30
100
AcDbLine
 10
42.02599
 20
155.146968
 30
0.0
 11
42.883663
 21
155.637067
 31
0.0
  0
LINE
  5
243
330
239
100
AcDbEntity
  8
100
  6
Continuous
 62
     7
370
    30
100
AcDbLine
 10
42.883663
 20
155.637067
 30
0.0
 11
43.741337
 21
156.004641
 31
0.0
  0
LINE
  5
244
330
239
100
AcDbEntity
  8
100
  6
Continuous
 62
     7
370
    30
100
AcDbLine
 10
43.741337
 20
156.004641
 30
0.0
 11
45.272896
 21
156.678527
 31
0.0
  0
LINE
  5
245
330
239
100
AcDbEntity
  8
100
  6
Continuous
 62
     7
370
    30
100
AcDbLine
 10
45.272896
 20
156.678527
 30
0.0
 11
47.17203
 21
157.046101
 31
0.0
  0
LINE
  5
246
330
239
100
AcDbEntity
  8
100
  6
Continuous
 62
     7
370
    30
100
AcDbLine
 10
47.17203
 20
157.046101
 30
0.0
 11
49.25495
 21
157.658725
 31
0.0
  0
LINE
  5
247
330
239
100
AcDbEntity
  8
100
  6
Continuous
 62
     7
370
    30
100
AcDbLine
 10
49.25495
 20
157.658725
 30
0.0
 11
51.399134
 21
157.965037
 31
0.0
  0
LINE
  5
248
330
239
100
AcDbEntity
  8
100
  6
Continuous
 62
     7
370
    30
100
AcDbLine
 10
51.399134
 20
157.965037
 30
0.0
 11
54.523515
 21
158.210087
 31
0.0
  0
LINE
  5
249
330
239
100
AcDbEntity
  8
100
  6
Continuous
 62
     7
370
    30
100
AcDbLine
 10
54.523515
 20
158.210087
 30
0.0
 11
60.956064
 21
158.914604
 31
0.0
  0
LINE
  5
24A
330
239
100
AcDbEntity
  8
100
  6
Continuous
 62
     7
370
    30
100
AcDbLine
 10
60.956064
 20
158.914604
 30
0.0
 11
68.0625
 21
159.83354
 31
0.0
  0
LINE
  5
24B
330
239
100
AcDbEntity
  8
100
  6
Continuous
 62
     7
370
    30
100
AcDbLine
 10
68.0625
 20
159.83354
 30
0.0
 11
81.172649
 21
160.568688
 31
0.0
  0
LINE
  5
24C
330
239
100
AcDbEntity
  8
100
  6
Continuous
 62
     7
370
    30
100
AcDbLine
 10
81.172649
 20
160.568688
 30
0.0
 11
86.686262
 21
160.323639
 31
0.0
  0
LINE
  5
24D
330
239
100
AcDbEntity
  8
100
  6
Continuous
 62
     7
370
    30
100
AcDbLine
 10
86.686262
 20
160.323639
 30
0.0
 11
87.850248
 21
159.894802
 31
0.0
  0
LINE
  5
24E
330
239
100
AcDbEntity
  8
100
  6
Continuous
 62
     7
370
    30
100
AcDbLine
 10
87.850248
 20
159.894802
 30
0.0
 11
87.788985
 21
131.346535
 31
0.0
  0
LINE
  5
24F
330
239
100
AcDbEntity
  8
100
  6
Continuous
 62
     7
370
    30
100
AcDbLine
 10
87.788985
 20
131.346535
 30
0.0
 11
87.788985
 21
107.821782
 31
0.0
  0
LINE
  5
250
330
239
100
AcDbEntity
  8
100
  6
Continuous
 62
     7
370
    30
100
AcDbLine
 10
87.788985
 20
107.821782
 30
0.0
 11
72.595916
 21
107.331683
 31
0.0
  0
LINE
  5
251
330
239
100
AcDbEntity
  8
100
  6
Continuous
 62
     7
370
    30
100
AcDbLine
 10
72.595916
 20
107.331683
 30
0.0
 11
51.399134
 21
106.106436
 31
0.0
  0
LINE
  5
252
330
239
100
AcDbEntity
  8
100
  6
Continuous
 62
     7
370
    30
100
AcDbLine
 10
51.399134
 20
106.106436
 30
0.0
 11
48.703589
 21
106.106436
 31
0.0
  0
LINE
  5
253
330
239
100
AcDbEntity
  8
100
  6
Continuous
 62
     7
370
    30
100
AcDbLine
 10
48.703589
 20
106.106436
 30
0.0
 11
42.944926
 21
105.248762
 31
0.0
  0
LINE
  5
254
330
239
100
AcDbEntity
  8
100
  6
Continuous
 62
     7
370
    30
100
AcDbLine
 10
42.944926
 20
105.248762
 30
0.0
 11
40.73948
 21
105.003713
 31
0.0
  0
LINE
  5
255
330
239
100
AcDbEntity
  8
100
  6
Continuous
 62
     7
370
    30
100
AcDbLine
 10
40.73948
 20
105.003713
 30
0.0
 11
40.616955
 21
103.410891
 31
0.0
  0
LINE
  5
256
330
239
100
AcDbEntity
  8
100
  6
Continuous
 62
     7
370
    30
100
AcDbLine
 10
40.616955
 20
103.410891
 30
0.0
 11
42.822401
 21
103.043317
 31
0.0
  0
LINE
  5
257
330
239
100
AcDbEntity
  8
100
  6
Continuous
 62
     7
370
    30
100
AcDbLine
 10
42.822401
 20
103.043317
 30
0.0
 11
44.905322
 21
103.043317
 31
0.0
  0
LINE
  5
258
330
239
100
AcDbEntity
  8
100
  6
Continuous
 62
     7
370
    30
100
AcDbLine
 10
44.905322
 20
103.043317
 30
0.0
 11
47.600866
 21
103.043317
 31
0.0
  0
LINE
  5
259
330
239
100
AcDbEntity
  8
100
  6
Continuous
 62
     7
370
    30
100
AcDbLine
 10
47.600866
 20
103.043317
 30
0.0
 11
54.584777
 21
103.655941
 31
0.0
  0
LINE
  5
25A
330
239
100
AcDbEntity
  8
100
  6
Continuous
 62
     7
370
    30
100
AcDbLine
 10
54.584777
 20
103.655941
 30
0.0
 11
64.509282
 21
104.513614
 31
0.0
  0
LINE
  5
25B
330
239
100
AcDbEntity
  8
100
  6
Continuous
 62
     7
370
    30
100
AcDbLine
 10
64.509282
 20
104.513614
 30
0.0
 11
81.050124
 21
104.636139
 31
0.0
  0
LINE
  5
25C
330
239
100
AcDbEntity
  8
100
  6
Continuous
 62
     7
370
    30
100
AcDbLine
 10
81.050124
 20
104.636139
 30
0.0
 11
88.891708
 21
105.003713
 31
0.0
  0
LINE
  5
25D
330
239
100
AcDbEntity
  8
100
  6
Continuous
 62
     7
370
    30
100
AcDbLine
 10
88.891708
 20
105.003713
 30
0.0
 11
96.610767
 21
104.881188
 31
0.0
  0
LINE
  5
25E
330
239
100
AcDbEntity
  8
100
  6
Continuous
 62
     7
370
    30
100
AcDbLine
 10
96.610767
 20
104.881188
 30
0.0
 11
110.578589
 21
105.003713
 31
0.0
  0
LINE
  5
25F
330
239
100
AcDbEntity
  8
100
  6
Continuous
 62
     7
370
    30
100
AcDbLine
 10
110.578589
 20
105.003713
 30
0.0
 11
121.973391
 21
105.493812
 31
0.0
  0
LINE
  5
260
330
239
100
AcDbEntity
  8
100
  6
Continuous
 62
     7
370
    30
100
AcDbLine
 10
121.973391
 20
105.493812
 30
0.0
 11
131.040223
 21
105.371287
 31
0.0
  0
LINE
  5
261
330
239
100
AcDbEntity
  8
100
  6
Continuous
 62
     7
370
    30
100
AcDbLine
 10
131.040223
 20
105.371287
 30
0.0
 11
139.004332
 21
105.126238
 31
0.0
  0
LINE
  5
262
330
239
100
AcDbEntity
  8
100
  6
Continuous
 62
     7
370
    30
100
AcDbLine
 10
139.004332
 20
105.126238
 30
0.0
 11
144.517946
 21
105.126238
 31
0.0
  0
LINE
  5
263
330
239
100
AcDbEntity
  8
100
  6
Continuous
 62
     7
370
    30
100
AcDbLine
 10
144.517946
 20
105.126238
 30
0.0
 11
147.45854
 21
105.003713
 31
0.0
  0
LINE
  5
264
330
239
100
AcDbEntity
  8
100
  6
Continuous
 62
     7
370
    30
100
AcDbLine
 10
147.45854
 20
105.003713
 30
0.0
 11
152.604579
 21
105.493812
 31
0.0
  0
LINE
  5
265
330
239
100
AcDbEntity
  8
100
  6
Continuous
 62
     7
370
    30
100
AcDbLine
 10
152.604579
 20
105.493812
 30
0.0
 11
152.604579
 21
106.964109
 31
0.0
  0
LINE
  5
266
330
239
100
AcDbEntity
  8
100
  6
Continuous
 62
     7
370
    30
100
AcDbLine
 10
152.604579
 20
106.964109
 30
0.0
 11
150.521658
 21
107.209158
 31
0.0
  0
LINE
  5
267
330
239
100
AcDbEntity
  8
100
  6
Continuous
 62
     7
370
    30
100
AcDbLine
 10
150.521658
 20
107.209158
 30
0.0
 11
146.723391
 21
107.454208
 31
0.0
  0
LINE
  5
268
330
239
100
AcDbEntity
  8
100
  6
Continuous
 62
     7
370
    30
100
AcDbLine
 10
146.723391
 20
107.454208
 30
0.0
 11
142.55755
 21
107.699257
 31
0.0
  0
LINE
  5
269
330
239
100
AcDbEntity
  8
100
  6
Continuous
 62
     7
370
    30
100
AcDbLine
 10
142.55755
 20
107.699257
 30
0.0
 11
140.352104
 21
107.821782
 31
0.0
  0
LINE
  5
26A
330
239
100
AcDbEntity
  8
100
  6
Continuous
 62
     7
370
    30
100
AcDbLine
 10
140.352104
 20
107.821782
 30
0.0
 11
115.724629
 21
108.066832
 31
0.0
  0
LINE
  5
26B
330
239
100
AcDbEntity
  8
100
  6
Continuous
 62
     7
370
    30
100
AcDbLine
 10
115.724629
 20
108.066832
 30
0.0
 11
87.788985
 21
107.821782
 31
0.0
  0
ENDBLK
  5
23B
330
239
100
AcDbEntity
  8
0
100
AcDbBlockEnd
  0
BLOCK
  5
26E
330
26D
100
AcDbEntity
  8
0
100
AcDbBlockBegin
  2
G26
 70
     0
 10
0.0
 20
0.0
 30
0.0
  3
G26
  1

  0
LINE
  5
270
330
26D
100
AcDbEntity
  8
100
  6
Continuous
 62
     7
370
    30
100
AcDbLine
 10
92.935704
 20
107.866929
 30
0.0
 11
92.322401
 21
135.512376
 31
0.0
  0
LINE
  5
271
330
26D
100
AcDbEntity
  8
100
  6
Continuous
 62
     7
370
    30
100
AcDbLine
 10
92.322401
 20
135.512376
 30
0.0
 11
92.077351
 21
159.649752
 31
0.0
  0
LINE
  5
272
330
26D
100
AcDbEntity
  8
100
  6
Continuous
 62
     7
370
    30
100
AcDbLine
 10
92.077351
 20
159.649752
 30
0.0
 11
90.974629
 21
160.721844
 31
0.0
  0
LINE
  5
273
330
26D
100
AcDbEntity
  8
100
  6
Continuous
 62
     7
370
    30
100
AcDbLine
 10
90.974629
 20
160.721844
 30
0.0
 11
89.994431
 21
160.721844
 31
0.0
  0
LINE
  5
274
330
26D
100
AcDbEntity
  8
100
  6
Continuous
 62
     7
370
    30
100
AcDbLine
 10
89.994431
 20
160.721844
 30
0.0
 11
88.95297
 21
160.660582
 31
0.0
  0
LINE
  5
275
330
26D
100
AcDbEntity
  8
100
  6
Continuous
 62
     7
370
    30
100
AcDbLine
 10
88.95297
 20
160.660582
 30
0.0
 11
88.309715
 21
160.231745
 31
0.0
  0
LINE
  5
276
330
26D
100
AcDbEntity
  8
100
  6
Continuous
 62
     7
370
    30
100
AcDbLine
 10
88.309715
 20
160.231745
 30
0.0
 11
87.850248
 21
159.894802
 31
0.0
  0
ENDBLK
  5
26F
330
26D
100
AcDbEntity
  8
0
100
AcDbBlockEnd
  0
BLOCK
  5
279
330
278
100
AcDbEntity
  8
0
100
AcDbBlockBegin
  2
G27
 70
     0
 10
0.0
 20
0.0
 30
0.0
  3
G27
  1

  0
LINE
  5
27B
330
278
100
AcDbEntity
  8
100
  6
Continuous
 62
     7
370
    30
100
AcDbLine
 10
92.077351
 20
159.649752
 30
0.0
 11
96.518874
 21
159.956064
 31
0.0
  0
LINE
  5
27C
330
278
100
AcDbEntity
  8
100
  6
Continuous
 62
     7
370
    30
100
AcDbLine
 10
96.518874
 20
159.956064
 30
0.0
 11
103.502785
 21
160.446163
 31
0.0
  0
LINE
  5
27D
330
278
100
AcDbEntity
  8
100
  6
Continuous
 62
     7
370
    30
100
AcDbLine
 10
103.502785
 20
160.446163
 30
0.0
 11
111.099319
 21
160.446163
 31
0.0
  0
LINE
  5
27E
330
278
100
AcDbEntity
  8
100
  6
Continuous
 62
     7
370
    30
100
AcDbLine
 10
111.099319
 20
160.446163
 30
0.0
 11
117.348082
 21
160.323639
 31
0.0
  0
LINE
  5
27F
330
278
100
AcDbEntity
  8
100
  6
Continuous
 62
     7
370
    30
100
AcDbLine
 10
117.348082
 20
160.323639
 30
0.0
 11
121.881498
 21
159.83354
 31
0.0
  0
LINE
  5
280
330
278
100
AcDbEntity
  8
100
  6
Continuous
 62
     7
370
    30
100
AcDbLine
 10
121.881498
 20
159.83354
 30
0.0
 11
126.169864
 21
159.220916
 31
0.0
  0
LINE
  5
281
330
278
100
AcDbEntity
  8
100
  6
Continuous
 62
     7
370
    30
100
AcDbLine
 10
126.169864
 20
159.220916
 30
0.0
 11
131.560953
 21
158.608292
 31
0.0
  0
LINE
  5
282
330
278
100
AcDbEntity
  8
100
  6
Continuous
 62
     7
370
    30
100
AcDbLine
 10
131.560953
 20
158.608292
 30
0.0
 11
139.034963
 21
156.770421
 31
0.0
  0
LINE
  5
283
330
278
100
AcDbEntity
  8
100
  6
Continuous
 62
     7
370
    30
100
AcDbLine
 10
139.034963
 20
156.770421
 30
0.0
 11
142.220606
 21
155.790223
 31
0.0
  0
LINE
  5
284
330
278
100
AcDbEntity
  8
100
  6
Continuous
 62
     7
370
    30
100
AcDbLine
 10
142.220606
 20
155.790223
 30
0.0
 11
144.181002
 21
154.564975
 31
0.0
  0
LINE
  5
285
330
278
100
AcDbEntity
  8
100
  6
Continuous
 62
     7
370
    30
100
AcDbLine
 10
144.181002
 20
154.564975
 30
0.0
 11
144.426052
 21
153.094678
 31
0.0
  0
LINE
  5
286
330
278
100
AcDbEntity
  8
100
  6
Continuous
 62
     7
370
    30
100
AcDbLine
 10
144.426052
 20
153.094678
 30
0.0
 11
143.445854
 21
151.991955
 31
0.0
  0
LINE
  5
287
330
278
100
AcDbEntity
  8
100
  6
Continuous
 62
     7
370
    30
100
AcDbLine
 10
143.445854
 20
151.991955
 30
0.0
 11
142.343131
 21
151.134282
 31
0.0
  0
ENDBLK
  5
27A
330
278
100
AcDbEntity
  8
0
100
AcDbBlockEnd
  0
BLOCK
  5
28A
330
289
100
AcDbEntity
  8
0
100
AcDbBlockBegin
  2
G28
 70
     0
 10
0.0
 20
0.0
 30
0.0
  3
G28
  1

  0
LINE
  5
28C
330
289
100
AcDbEntity
  8
100
  6
Continuous
 62
     7
370
    30
100
AcDbLine
 10
142.220606
 20
155.790223
 30
0.0
 11
142.465656
 21
138.636757
 31
0.0
  0
LINE
  5
28D
330
289
100
AcDbEntity
  8
100
  6
Continuous
 62
     7
370
    30
100
AcDbLine
 10
142.465656
 20
138.636757
 30
0.0
 11
142.710705
 21
124.423886
 31
0.0
  0
LINE
  5
28E
330
289
100
AcDbEntity
  8
100
  6
Continuous
 62
     7
370
    30
100
AcDbLine
 10
142.710705
 20
124.423886
 30
0.0
 11
142.55755
 21
107.699257
 31
0.0
  0
ENDBLK
  5
28B
330
289
100
AcDbEntity
  8
0
100
AcDbBlockEnd
  0
BLOCK
  5
291
330
290
100
AcDbEntity
  8
0
100
AcDbBlockBegin
  2
G29
 70
     0
 10
0.0
 20
0.0
 30
0.0
  3
G29
  1

  0
LINE
  5
293
330
290
100
AcDbEntity
  8
100
  6
Continuous
 62
     7
370
    30
100
AcDbLine
 10
145.385653
 20
107.532898
 30
0.0
 11
145.773824
 21
111.068688
 31
0.0
  0
LINE
  5
294
330
290
100
AcDbEntity
  8
100
  6
Continuous
 62
     7
370
    30
100
AcDbLine
 10
145.773824
 20
111.068688
 30
0.0
 11
146.44771
 21
110.884901
 31
0.0
  0
LINE
  5
295
330
290
100
AcDbEntity
  8
100
  6
Continuous
 62
     7
370
    30
100
AcDbLine
 10
146.44771
 20
110.884901
 30
0.0
 11
146.325186
 21
132.081683
 31
0.0
  0
LINE
  5
296
330
290
100
AcDbEntity
  8
100
  6
Continuous
 62
     7
370
    30
100
AcDbLine
 10
146.325186
 20
132.081683
 30
0.0
 11
145.467512
 21
148.990099
 31
0.0
  0
LINE
  5
297
330
290
100
AcDbEntity
  8
100
  6
Continuous
 62
     7
370
    30
100
AcDbLine
 10
145.467512
 20
148.990099
 30
0.0
 11
142.328269
 21
148.253863
 31
0.0
  0
ENDBLK
  5
292
330
290
100
AcDbEntity
  8
0
100
AcDbBlockEnd
  0
BLOCK
  5
29A
330
299
100
AcDbEntity
  8
0
100
AcDbBlockBegin
  2
G30
 70
     0
 10
0.0
 20
0.0
 30
0.0
  3
G30
  1

  0
LINE
  5
29C
330
299
100
AcDbEntity
  8
100
  6
Continuous
 62
     7
370
    30
100
AcDbLine
 10
145.467512
 20
148.990099
 30
0.0
 11
145.344988
 21
152.298267
 31
0.0
  0
LINE
  5
29D
330
299
100
AcDbEntity
  8
100
  6
Continuous
 62
     7
370
    30
100
AcDbLine
 10
145.344988
 20
152.298267
 30
0.0
 11
147.060334
 21
153.033416
 31
0.0
  0
LINE
  5
29E
330
299
100
AcDbEntity
  8
100
  6
Continuous
 62
     7
370
    30
100
AcDbLine
 10
147.060334
 20
153.033416
 30
0.0
 11
149.388304
 21
153.033416
 31
0.0
  0
LINE
  5
29F
330
299
100
AcDbEntity
  8
100
  6
Continuous
 62
     7
370
    30
100
AcDbLine
 10
149.388304
 20
153.033416
 30
0.0
 11
149.878403
 21
151.685644
 31
0.0
  0
LINE
  5
2A0
330
299
100
AcDbEntity
  8
100
  6
Continuous
 62
     7
370
    30
100
AcDbLine
 10
149.878403
 20
151.685644
 30
0.0
 11
149.878403
 21
146.049505
 31
0.0
  0
LINE
  5
2A1
330
299
100
AcDbEntity
  8
100
  6
Continuous
 62
     7
370
    30
100
AcDbLine
 10
149.878403
 20
146.049505
 30
0.0
 11
150.123453
 21
137.472772
 31
0.0
  0
LINE
  5
2A2
330
299
100
AcDbEntity
  8
100
  6
Continuous
 62
     7
370
    30
100
AcDbLine
 10
150.123453
 20
137.472772
 30
0.0
 11
150.245978
 21
126.32302
 31
0.0
  0
LINE
  5
2A3
330
299
100
AcDbEntity
  8
100
  6
Continuous
 62
     7
370
    30
100
AcDbLine
 10
150.245978
 20
126.32302
 30
0.0
 11
150.123453
 21
114.193069
 31
0.0
  0
LINE
  5
2A4
330
299
100
AcDbEntity
  8
100
  6
Continuous
 62
     7
370
    30
100
AcDbLine
 10
150.123453
 20
114.193069
 30
0.0
 11
150.521658
 21
107.209158
 31
0.0
  0
ENDBLK
  5
29B
330
299
100
AcDbEntity
  8
0
100
AcDbBlockEnd
  0
BLOCK
  5
2A7
330
2A6
100
AcDbEntity
  8
0
100
AcDbBlockBegin
  2
G31
 70
     0
 10
0.0
 20
0.0
 30
0.0
  3
G31
  1

  0
LINE
  5
2A9
330
2A6
100
AcDbEntity
  8
100
  6
Continuous
 62
     7
370
    30
100
AcDbLine
 10
149.878403
 20
150.82797
 30
0.0
 11
153.799196
 21
152.053218
 31
0.0
  0
LINE
  5
2AA
330
2A6
100
AcDbEntity
  8
100
  6
Continuous
 62
     7
370
    30
100
AcDbLine
 10
153.799196
 20
152.053218
 30
0.0
 11
154.534344
 21
153.278465
 31
0.0
  0
LINE
  5
2AB
330
2A6
100
AcDbEntity
  8
100
  6
Continuous
 62
     7
370
    30
100
AcDbLine
 10
154.534344
 20
153.278465
 30
0.0
 11
154.534344
 21
154.748762
 31
0.0
  0
LINE
  5
2AC
330
2A6
100
AcDbEntity
  8
100
  6
Continuous
 62
     7
370
    30
100
AcDbLine
 10
154.534344
 20
154.748762
 30
0.0
 11
153.92172
 21
156.096535
 31
0.0
  0
LINE
  5
2AD
330
2A6
100
AcDbEntity
  8
100
  6
Continuous
 62
     7
370
    30
100
AcDbLine
 10
153.92172
 20
156.096535
 30
0.0
 11
152.573948
 21
157.444307
 31
0.0
  0
LINE
  5
2AE
330
2A6
100
AcDbEntity
  8
100
  6
Continuous
 62
     7
370
    30
100
AcDbLine
 10
152.573948
 20
157.444307
 30
0.0
 11
149.02073
 21
158.54703
 31
0.0
  0
LINE
  5
2AF
330
2A6
100
AcDbEntity
  8
100
  6
Continuous
 62
     7
370
    30
100
AcDbLine
 10
149.02073
 20
158.54703
 30
0.0
 11
144.36479
 21
160.262376
 31
0.0
  0
LINE
  5
2B0
330
2A6
100
AcDbEntity
  8
100
  6
Continuous
 62
     7
370
    30
100
AcDbLine
 10
144.36479
 20
160.262376
 30
0.0
 11
138.606126
 21
161.365099
 31
0.0
  0
LINE
  5
2B1
330
2A6
100
AcDbEntity
  8
100
  6
Continuous
 62
     7
370
    30
100
AcDbLine
 10
138.606126
 20
161.365099
 30
0.0
 11
133.460087
 21
161.855198
 31
0.0
  0
LINE
  5
2B2
330
2A6
100
AcDbEntity
  8
100
  6
Continuous
 62
     7
370
    30
100
AcDbLine
 10
133.460087
 20
161.855198
 30
0.0
 11
124.760829
 21
162.835396
 31
0.0
  0
LINE
  5
2B3
330
2A6
100
AcDbEntity
  8
100
  6
Continuous
 62
     7
370
    30
100
AcDbLine
 10
124.760829
 20
162.835396
 30
0.0
 11
111.160582
 21
163.325495
 31
0.0
  0
LINE
  5
2B4
330
2A6
100
AcDbEntity
  8
100
  6
Continuous
 62
     7
370
    30
100
AcDbLine
 10
111.160582
 20
163.325495
 30
0.0
 11
102.828899
 21
163.570545
 31
0.0
  0
LINE
  5
2B5
330
2A6
100
AcDbEntity
  8
100
  6
Continuous
 62
     7
370
    30
100
AcDbLine
 10
102.828899
 20
163.570545
 30
0.0
 11
93.394493
 21
163.815594
 31
0.0
  0
LINE
  5
2B6
330
2A6
100
AcDbEntity
  8
100
  6
Continuous
 62
     7
370
    30
100
AcDbLine
 10
93.394493
 20
163.815594
 30
0.0
 11
82.367265
 21
163.938119
 31
0.0
  0
ENDBLK
  5
2A8
330
2A6
100
AcDbEntity
  8
0
100
AcDbBlockEnd
  0
BLOCK
  5
2B9
330
2B8
100
AcDbEntity
  8
0
100
AcDbBlockBegin
  2
G32
 70
     0
 10
0.0
 20
0.0
 30
0.0
  3
G32
  1

  0
LINE
  5
2BB
330
2B8
100
AcDbEntity
  8
100
  6
Continuous
 62
     7
370
    30
100
AcDbLine
 10
105.769493
 20
164.673267
 30
0.0
 11
119.002166
 21
164.673267
 31
0.0
  0
LINE
  5
2BC
330
2B8
100
AcDbEntity
  8
100
  6
Continuous
 62
     7
370
    30
100
AcDbLine
 10
119.002166
 20
164.673267
 30
0.0
 11
130.029394
 21
164.060644
 31
0.0
  0
LINE
  5
2BD
330
2B8
100
AcDbEntity
  8
100
  6
Continuous
 62
     7
370
    30
100
AcDbLine
 10
130.029394
 20
164.060644
 30
0.0
 11
138.9737
 21
163.325495
 31
0.0
  0
LINE
  5
2BE
330
2B8
100
AcDbEntity
  8
100
  6
Continuous
 62
     7
370
    30
100
AcDbLine
 10
138.9737
 20
163.325495
 30
0.0
 11
146.44771
 21
161.855198
 31
0.0
  0
LINE
  5
2BF
330
2B8
100
AcDbEntity
  8
100
  6
Continuous
 62
     7
370
    30
100
AcDbLine
 10
146.44771
 20
161.855198
 30
0.0
 11
151.716275
 21
160.017327
 31
0.0
  0
LINE
  5
2C0
330
2B8
100
AcDbEntity
  8
100
  6
Continuous
 62
     7
370
    30
100
AcDbLine
 10
151.716275
 20
160.017327
 30
0.0
 11
155.269493
 21
158.669554
 31
0.0
  0
LINE
  5
2C1
330
2B8
100
AcDbEntity
  8
100
  6
Continuous
 62
     7
370
    30
100
AcDbLine
 10
155.269493
 20
158.669554
 30
0.0
 11
156.617265
 21
156.464109
 31
0.0
  0
LINE
  5
2C2
330
2B8
100
AcDbEntity
  8
100
  6
Continuous
 62
     7
370
    30
100
AcDbLine
 10
156.617265
 20
156.464109
 30
0.0
 11
156.402847
 21
155.392017
 31
0.0
  0
LINE
  5
2C3
330
2B8
100
AcDbEntity
  8
100
  6
Continuous
 62
     7
370
    30
100
AcDbLine
 10
156.402847
 20
155.392017
 30
0.0
 11
155.422649
 21
154.473082
 31
0.0
  0
LINE
  5
2C4
330
2B8
100
AcDbEntity
  8
100
  6
Continuous
 62
     7
370
    30
100
AcDbLine
 10
155.422649
 20
154.473082
 30
0.0
 11
154.534344
 21
153.799196
 31
0.0
  0
ENDBLK
  5
2BA
330
2B8
100
AcDbEntity
  8
0
100
AcDbBlockEnd
  0
BLOCK
  5
2C7
330
2C6
100
AcDbEntity
  8
0
100
AcDbBlockBegin
  2
G33
 70
     0
 10
0.0
 20
0.0
 30
0.0
  3
G33
  1

  0
LINE
  5
2C9
330
2C6
100
AcDbEntity
  8
100
  6
Continuous
 62
     7
370
    30
100
AcDbLine
 10
150.797339
 20
152.482054
 30
0.0
 11
151.716275
 21
153.40099
 31
0.0
  0
LINE
  5
2CA
330
2C6
100
AcDbEntity
  8
100
  6
Continuous
 62
     7
370
    30
100
AcDbLine
 10
151.716275
 20
153.40099
 30
0.0
 11
151.655012
 21
155.116337
 31
0.0
  0
LINE
  5
2CB
330
2C6
100
AcDbEntity
  8
100
  6
Continuous
 62
     7
370
    30
100
AcDbLine
 10
151.655012
 20
155.116337
 30
0.0
 11
149.510829
 21
156.770421
 31
0.0
  0
LINE
  5
2CC
330
2C6
100
AcDbEntity
  8
100
  6
Continuous
 62
     7
370
    30
100
AcDbLine
 10
149.510829
 20
156.770421
 30
0.0
 11
145.773824
 21
158.118193
 31
0.0
  0
LINE
  5
2CD
330
2C6
100
AcDbEntity
  8
100
  6
Continuous
 62
     7
370
    30
100
AcDbLine
 10
145.773824
 20
158.118193
 30
0.0
 11
141.117884
 21
159.282178
 31
0.0
  0
LINE
  5
2CE
330
2C6
100
AcDbEntity
  8
100
  6
Continuous
 62
     7
370
    30
100
AcDbLine
 10
141.117884
 20
159.282178
 30
0.0
 11
135.236696
 21
160.201114
 31
0.0
  0
LINE
  5
2CF
330
2C6
100
AcDbEntity
  8
100
  6
Continuous
 62
     7
370
    30
100
AcDbLine
 10
135.236696
 20
160.201114
 30
0.0
 11
128.007735
 21
160.752475
 31
0.0
  0
LINE
  5
2D0
330
2C6
100
AcDbEntity
  8
100
  6
Continuous
 62
     7
370
    30
100
AcDbLine
 10
128.007735
 20
160.752475
 30
0.0
 11
119.492265
 21
161.487624
 31
0.0
  0
LINE
  5
2D1
330
2C6
100
AcDbEntity
  8
100
  6
Continuous
 62
     7
370
    30
100
AcDbLine
 10
119.492265
 20
161.487624
 30
0.0
 11
111.89573
 21
161.977723
 31
0.0
  0
LINE
  5
2D2
330
2C6
100
AcDbEntity
  8
100
  6
Continuous
 62
     7
370
    30
100
AcDbLine
 10
111.89573
 20
161.977723
 30
0.0
 11
106.320854
 21
161.91646
 31
0.0
  0
ENDBLK
  5
2C8
330
2C6
100
AcDbEntity
  8
0
100
AcDbBlockEnd
  0
BLOCK
  5
2D5
330
2D4
100
AcDbEntity
  8
0
100
AcDbBlockBegin
  2
G34
 70
     0
 10
0.0
 20
0.0
 30
0.0
  3
G34
  1

  0
LINE
  5
2D7
330
2D4
100
AcDbEntity
  8
100
  6
Continuous
 62
     7
370
    30
100
AcDbLine
 10
48.366646
 20
160.201114
 30
0.0
 11
44.323329
 21
159.220916
 31
0.0
  0
LINE
  5
2D8
330
2D4
100
AcDbEntity
  8
100
  6
Continuous
 62
     7
370
    30
100
AcDbLine
 10
44.323329
 20
159.220916
 30
0.0
 11
41.137686
 21
157.689356
 31
0.0
  0
LINE
  5
2D9
330
2D4
100
AcDbEntity
  8
100
  6
Continuous
 62
     7
370
    30
100
AcDbLine
 10
41.137686
 20
157.689356
 30
0.0
 11
39.422339
 21
155.545173
 31
0.0
  0
LINE
  5
2DA
330
2D4
100
AcDbEntity
  8
100
  6
Continuous
 62
     7
370
    30
100
AcDbLine
 10
39.422339
 20
155.545173
 30
0.0
 11
39.238552
 21
153.217203
 31
0.0
  0
LINE
  5
2DB
330
2D4
100
AcDbEntity
  8
100
  6
Continuous
 62
     7
370
    30
100
AcDbLine
 10
39.238552
 20
153.217203
 30
0.0
 11
40.525062
 21
151.930693
 31
0.0
  0
LINE
  5
2DC
330
2D4
100
AcDbEntity
  8
100
  6
Continuous
 62
     7
370
    30
100
AcDbLine
 10
40.525062
 20
151.930693
 30
0.0
 11
41.589731
 21
151.702789
 31
0.0
  0
ENDBLK
  5
2D6
330
2D4
100
AcDbEntity
  8
0
100
AcDbBlockEnd
  0
BLOCK
  5
2DF
330
2DE
100
AcDbEntity
  8
0
100
AcDbBlockBegin
  2
G35
 70
     0
 10
0.0
 20
0.0
 30
0.0
  3
G35
  1

  0
LINE
  5
2E1
330
2DE
100
AcDbEntity
  8
100
  6
Continuous
 62
     7
370
    30
100
AcDbLine
 10
44.935953
 20
160.568688
 30
0.0
 11
40.034963
 21
158.975866
 31
0.0
  0
LINE
  5
2E2
330
2DE
100
AcDbEntity
  8
100
  6
Continuous
 62
     7
370
    30
100
AcDbLine
 10
40.034963
 20
158.975866
 30
0.0
 11
37.461943
 21
157.137995
 31
0.0
  0
LINE
  5
2E3
330
2DE
100
AcDbEntity
  8
100
  6
Continuous
 62
     7
370
    30
100
AcDbLine
 10
37.461943
 20
157.137995
 30
0.0
 11
36.849319
 21
154.6875
 31
0.0
  0
LINE
  5
2E4
330
2DE
100
AcDbEntity
  8
100
  6
Continuous
 62
     7
370
    30
100
AcDbLine
 10
36.849319
 20
154.6875
 30
0.0
 11
37.952042
 21
152.604579
 31
0.0
  0
LINE
  5
2E5
330
2DE
100
AcDbEntity
  8
100
  6
Continuous
 62
     7
370
    30
100
AcDbLine
 10
37.952042
 20
152.604579
 30
0.0
 11
39.17729
 21
151.624381
 31
0.0
  0
ENDBLK
  5
2E0
330
2DE
100
AcDbEntity
  8
0
100
AcDbBlockEnd
  0
BLOCK
  5
2E8
330
2E7
100
AcDbEntity
  8
0
100
AcDbBlockBegin
  2
G36
 70
     0
 10
0.0
 20
0.0
 30
0.0
  3
G36
  1

  0
LINE
  5
2EA
330
2E7
100
AcDbEntity
  8
100
  6
Continuous
 62
     7
370
    30
100
AcDbLine
 10
51.797339
 20
160.936262
 30
0.0
 11
59.0263
 21
161.91646
 31
0.0
  0
LINE
  5
2EB
330
2E7
100
AcDbEntity
  8
100
  6
Continuous
 62
     7
370
    30
100
AcDbLine
 10
59.0263
 20
161.91646
 30
0.0
 11
65.030012
 21
162.406559
 31
0.0
  0
LINE
  5
2EC
330
2E7
100
AcDbEntity
  8
100
  6
Continuous
 62
     7
370
    30
100
AcDbLine
 10
65.030012
 20
162.406559
 30
0.0
 11
70.421101
 21
162.896658
 31
0.0
  0
LINE
  5
2ED
330
2E7
100
AcDbEntity
  8
100
  6
Continuous
 62
     7
370
    30
100
AcDbLine
 10
70.421101
 20
162.896658
 30
0.0
 11
75.934715
 21
163.141708
 31
0.0
  0
LINE
  5
2EE
330
2E7
100
AcDbEntity
  8
100
  6
Continuous
 62
     7
370
    30
100
AcDbLine
 10
75.934715
 20
163.141708
 30
0.0
 11
78.262686
 21
163.141708
 31
0.0
  0
ENDBLK
  5
2E9
330
2E7
100
AcDbEntity
  8
0
100
AcDbBlockEnd
  0
BLOCK
  5
2F1
330
2F0
100
AcDbEntity
  8
0
100
AcDbBlockBegin
  2
G37
 70
     0
 10
0.0
 20
0.0
 30
0.0
  3
G37
  1

  0
LINE
  5
2F3
330
2F0
100
AcDbEntity
  8
100
  6
Continuous
 62
     7
370
    30
100
AcDbLine
 10
44.445854
 20
57.035272
 30
0.0
 11
42.240408
 21
55.810025
 31
0.0
  0
LINE
  5
2F4
330
2F0
100
AcDbEntity
  8
100
  6
Continuous
 62
     7
370
    30
100
AcDbLine
 10
42.240408
 20
55.810025
 30
0.0
 11
41.995359
 21
52.624381
 31
0.0
  0
LINE
  5
2F5
330
2F0
100
AcDbEntity
  8
100
  6
Continuous
 62
     7
370
    30
100
AcDbLine
 10
41.995359
 20
52.624381
 30
0.0
 11
43.710705
 21
51.644183
 31
0.0
  0
LINE
  5
2F6
330
2F0
100
AcDbEntity
  8
100
  6
Continuous
 62
     7
370
    30
100
AcDbLine
 10
43.710705
 20
51.644183
 30
0.0
 11
49.836943
 21
49.928837
 31
0.0
  0
LINE
  5
2F7
330
2F0
100
AcDbEntity
  8
100
  6
Continuous
 62
     7
370
    30
100
AcDbLine
 10
49.836943
 20
49.928837
 30
0.0
 11
57.065903
 21
48.948639
 31
0.0
  0
LINE
  5
2F8
330
2F0
100
AcDbEntity
  8
100
  6
Continuous
 62
     7
370
    30
100
AcDbLine
 10
57.065903
 20
48.948639
 30
0.0
 11
70.788676
 21
47.968441
 31
0.0
  0
LINE
  5
2F9
330
2F0
100
AcDbEntity
  8
100
  6
Continuous
 62
     7
370
    30
100
AcDbLine
 10
70.788676
 20
47.968441
 30
0.0
 11
86.349319
 21
47.723391
 31
0.0
  0
LINE
  5
2FA
330
2F0
100
AcDbEntity
  8
100
  6
Continuous
 62
     7
370
    30
100
AcDbLine
 10
86.349319
 20
47.723391
 30
0.0
 11
94.068379
 21
47.845916
 31
0.0
  0
LINE
  5
2FB
330
2F0
100
AcDbEntity
  8
100
  6
Continuous
 62
     7
370
    30
100
AcDbLine
 10
94.068379
 20
47.845916
 30
0.0
 11
103.13521
 21
48.090965
 31
0.0
  0
LINE
  5
2FC
330
2F0
100
AcDbEntity
  8
100
  6
Continuous
 62
     7
370
    30
100
AcDbLine
 10
103.13521
 20
48.090965
 30
0.0
 11
113.18224
 21
48.581064
 31
0.0
  0
LINE
  5
2FD
330
2F0
100
AcDbEntity
  8
100
  6
Continuous
 62
     7
370
    30
100
AcDbLine
 10
113.18224
 20
48.581064
 30
0.0
 11
122.371597
 21
48.948639
 31
0.0
  0
LINE
  5
2FE
330
2F0
100
AcDbEntity
  8
100
  6
Continuous
 62
     7
370
    30
100
AcDbLine
 10
122.371597
 20
48.948639
 30
0.0
 11
130.70328
 21
49.438738
 31
0.0
  0
LINE
  5
2FF
330
2F0
100
AcDbEntity
  8
100
  6
Continuous
 62
     7
370
    30
100
AcDbLine
 10
130.70328
 20
49.438738
 30
0.0
 11
138.667389
 21
50.296411
 31
0.0
  0
LINE
  5
300
330
2F0
100
AcDbEntity
  8
100
  6
Continuous
 62
     7
370
    30
100
AcDbLine
 10
138.667389
 20
50.296411
 30
0.0
 11
144.181002
 21
50.78651
 31
0.0
  0
LINE
  5
301
330
2F0
100
AcDbEntity
  8
100
  6
Continuous
 62
     7
370
    30
100
AcDbLine
 10
144.181002
 20
50.78651
 30
0.0
 11
147.366646
 21
51.644183
 31
0.0
  0
LINE
  5
302
330
2F0
100
AcDbEntity
  8
100
  6
Continuous
 62
     7
370
    30
100
AcDbLine
 10
147.366646
 20
51.644183
 30
0.0
 11
151.532488
 21
53.849629
 31
0.0
  0
LINE
  5
303
330
2F0
100
AcDbEntity
  8
100
  6
Continuous
 62
     7
370
    30
100
AcDbLine
 10
151.532488
 20
53.849629
 30
0.0
 11
153.247834
 21
55.564975
 31
0.0
  0
LINE
  5
304
330
2F0
100
AcDbEntity
  8
100
  6
Continuous
 62
     7
370
    30
100
AcDbLine
 10
153.247834
 20
55.564975
 30
0.0
 11
153.247834
 21
57.770421
 31
0.0
  0
LINE
  5
305
330
2F0
100
AcDbEntity
  8
100
  6
Continuous
 62
     7
370
    30
100
AcDbLine
 10
153.247834
 20
57.770421
 30
0.0
 11
151.164913
 21
58.505569
 31
0.0
  0
LINE
  5
306
330
2F0
100
AcDbEntity
  8
100
  6
Continuous
 62
     7
370
    30
100
AcDbLine
 10
151.164913
 20
58.505569
 30
0.0
 11
151.287438
 21
56.912748
 31
0.0
  0
LINE
  5
307
330
2F0
100
AcDbEntity
  8
100
  6
Continuous
 62
     7
370
    30
100
AcDbLine
 10
151.287438
 20
56.912748
 30
0.0
 11
151.440594
 21
55.871287
 31
0.0
  0
LINE
  5
308
330
2F0
100
AcDbEntity
  8
100
  6
Continuous
 62
     7
370
    30
100
AcDbLine
 10
151.440594
 20
55.871287
 30
0.0
 11
150.399134
 21
55.289295
 31
0.0
  0
LINE
  5
309
330
2F0
100
AcDbEntity
  8
100
  6
Continuous
 62
     7
370
    30
100
AcDbLine
 10
150.399134
 20
55.289295
 30
0.0
 11
148.438738
 21
54.737933
 31
0.0
  0
LINE
  5
30A
330
2F0
100
AcDbEntity
  8
100
  6
Continuous
 62
     7
370
    30
100
AcDbLine
 10
148.438738
 20
54.737933
 30
0.0
 11
146.386448
 21
54.492884
 31
0.0
  0
LINE
  5
30B
330
2F0
100
AcDbEntity
  8
100
  6
Continuous
 62
     7
370
    30
100
AcDbLine
 10
146.386448
 20
54.492884
 30
0.0
 11
142.986386
 21
53.788366
 31
0.0
  0
LINE
  5
30C
330
2F0
100
AcDbEntity
  8
100
  6
Continuous
 62
     7
370
    30
100
AcDbLine
 10
142.986386
 20
53.788366
 30
0.0
 11
141.27104
 21
53.665842
 31
0.0
  0
LINE
  5
30D
330
2F0
100
AcDbEntity
  8
100
  6
Continuous
 62
     7
370
    30
100
AcDbLine
 10
141.27104
 20
53.665842
 30
0.0
 11
136.247525
 21
52.930693
 31
0.0
  0
LINE
  5
30E
330
2F0
100
AcDbEntity
  8
100
  6
Continuous
 62
     7
370
    30
100
AcDbLine
 10
136.247525
 20
52.930693
 30
0.0
 11
131.591584
 21
52.930693
 31
0.0
  0
LINE
  5
30F
330
2F0
100
AcDbEntity
  8
100
  6
Continuous
 62
     7
370
    30
100
AcDbLine
 10
131.591584
 20
52.930693
 30
0.0
 11
123.872525
 21
52.440594
 31
0.0
  0
LINE
  5
310
330
2F0
100
AcDbEntity
  8
100
  6
Continuous
 62
     7
370
    30
100
AcDbLine
 10
123.872525
 20
52.440594
 30
0.0
 11
117.623762
 21
52.195545
 31
0.0
  0
LINE
  5
311
330
2F0
100
AcDbEntity
  8
100
  6
Continuous
 62
     7
370
    30
100
AcDbLine
 10
117.623762
 20
52.195545
 30
0.0
 11
110.762376
 21
51.950495
 31
0.0
  0
LINE
  5
312
330
2F0
100
AcDbEntity
  8
100
  6
Continuous
 62
     7
370
    30
100
AcDbLine
 10
110.762376
 20
51.950495
 30
0.0
 11
104.14604
 21
51.82797
 31
0.0
  0
LINE
  5
313
330
2F0
100
AcDbEntity
  8
100
  6
Continuous
 62
     7
370
    30
100
AcDbLine
 10
104.14604
 20
51.82797
 30
0.0
 11
98.75495
 21
51.460396
 31
0.0
  0
LINE
  5
314
330
2F0
100
AcDbEntity
  8
100
  6
Continuous
 62
     7
370
    30
100
AcDbLine
 10
98.75495
 20
51.460396
 30
0.0
 11
93.976485
 21
51.460396
 31
0.0
  0
LINE
  5
315
330
2F0
100
AcDbEntity
  8
100
  6
Continuous
 62
     7
370
    30
100
AcDbLine
 10
93.976485
 20
51.460396
 30
0.0
 11
91.893564
 21
50.480198
 31
0.0
  0
LINE
  5
316
330
2F0
100
AcDbEntity
  8
100
  6
Continuous
 62
     7
370
    30
100
AcDbLine
 10
91.893564
 20
50.480198
 30
0.0
 11
90.300743
 21
50.480198
 31
0.0
  0
LINE
  5
317
330
2F0
100
AcDbEntity
  8
100
  6
Continuous
 62
     7
370
    30
100
AcDbLine
 10
90.300743
 20
50.480198
 30
0.0
 11
88.95297
 21
51.337871
 31
0.0
  0
LINE
  5
318
330
2F0
100
AcDbEntity
  8
100
  6
Continuous
 62
     7
370
    30
100
AcDbLine
 10
88.95297
 20
51.337871
 30
0.0
 11
85.767327
 21
51.337871
 31
0.0
  0
LINE
  5
319
330
2F0
100
AcDbEntity
  8
100
  6
Continuous
 62
     7
370
    30
100
AcDbLine
 10
85.767327
 20
51.337871
 30
0.0
 11
75.720297
 21
51.705446
 31
0.0
  0
LINE
  5
31A
330
2F0
100
AcDbEntity
  8
100
  6
Continuous
 62
     7
370
    30
100
AcDbLine
 10
75.720297
 20
51.705446
 30
0.0
 11
66.408416
 21
52.318069
 31
0.0
  0
LINE
  5
31B
330
2F0
100
AcDbEntity
  8
100
  6
Continuous
 62
     7
370
    30
100
AcDbLine
 10
66.408416
 20
52.318069
 30
0.0
 11
58.689356
 21
52.930693
 31
0.0
  0
LINE
  5
31C
330
2F0
100
AcDbEntity
  8
100
  6
Continuous
 62
     7
370
    30
100
AcDbLine
 10
58.689356
 20
52.930693
 30
0.0
 11
53.788366
 21
53.298267
 31
0.0
  0
LINE
  5
31D
330
2F0
100
AcDbEntity
  8
100
  6
Continuous
 62
     7
370
    30
100
AcDbLine
 10
53.788366
 20
53.298267
 30
0.0
 11
51.460396
 21
54.768564
 31
0.0
  0
LINE
  5
31E
330
2F0
100
AcDbEntity
  8
100
  6
Continuous
 62
     7
370
    30
100
AcDbLine
 10
51.460396
 20
54.768564
 30
0.0
 11
51.950495
 21
55.748762
 31
0.0
  0
LINE
  5
31F
330
2F0
100
AcDbEntity
  8
100
  6
Continuous
 62
     7
370
    30
100
AcDbLine
 10
51.950495
 20
55.748762
 30
0.0
 11
51.950495
 21
58.076733
 31
0.0
  0
LINE
  5
320
330
2F0
100
AcDbEntity
  8
100
  6
Continuous
 62
     7
370
    30
100
AcDbLine
 10
51.950495
 20
58.076733
 30
0.0
 11
49.132426
 21
58.199257
 31
0.0
  0
ENDBLK
  5
2F2
330
2F0
100
AcDbEntity
  8
0
100
AcDbBlockEnd
  0
BLOCK
  5
323
330
322
100
AcDbEntity
  8
0
100
AcDbBlockBegin
  2
G38
 70
     0
 10
0.0
 20
0.0
 30
0.0
  3
G38
  1

  0
LINE
  5
325
330
322
100
AcDbEntity
  8
100
  6
Continuous
 62
     7
370
    30
100
AcDbLine
 10
42.135722
 20
54.449099
 30
0.0
 11
46.069307
 21
52.930693
 31
0.0
  0
LINE
  5
326
330
322
100
AcDbEntity
  8
100
  6
Continuous
 62
     7
370
    30
100
AcDbLine
 10
46.069307
 20
52.930693
 30
0.0
 11
49.990099
 21
52.318069
 31
0.0
  0
LINE
  5
327
330
322
100
AcDbEntity
  8
100
  6
Continuous
 62
     7
370
    30
100
AcDbLine
 10
49.990099
 20
52.318069
 30
0.0
 11
56.483911
 21
51.705446
 31
0.0
  0
LINE
  5
328
330
322
100
AcDbEntity
  8
100
  6
Continuous
 62
     7
370
    30
100
AcDbLine
 10
56.483911
 20
51.705446
 30
0.0
 11
66.163366
 21
50.970297
 31
0.0
  0
LINE
  5
329
330
322
100
AcDbEntity
  8
100
  6
Continuous
 62
     7
370
    30
100
AcDbLine
 10
66.163366
 20
50.970297
 30
0.0
 11
75.230198
 21
50.602723
 31
0.0
  0
LINE
  5
32A
330
322
100
AcDbEntity
  8
100
  6
Continuous
 62
     7
370
    30
100
AcDbLine
 10
75.230198
 20
50.602723
 30
0.0
 11
85.032178
 21
50.112624
 31
0.0
  0
LINE
  5
32B
330
322
100
AcDbEntity
  8
100
  6
Continuous
 62
     7
370
    30
100
AcDbLine
 10
85.032178
 20
50.112624
 30
0.0
 11
91.893564
 21
50.480198
 31
0.0
  0
LINE
  5
32C
330
322
100
AcDbEntity
  8
100
  6
Continuous
 62
     7
370
    30
100
AcDbLine
 10
91.893564
 20
50.480198
 30
0.0
 11
101.818069
 21
50.357673
 31
0.0
  0
LINE
  5
32D
330
322
100
AcDbEntity
  8
100
  6
Continuous
 62
     7
370
    30
100
AcDbLine
 10
101.818069
 20
50.357673
 30
0.0
 11
108.679455
 21
50.602723
 31
0.0
  0
LINE
  5
32E
330
322
100
AcDbEntity
  8
100
  6
Continuous
 62
     7
370
    30
100
AcDbLine
 10
108.679455
 20
50.602723
 30
0.0
 11
117.256188
 21
50.725248
 31
0.0
  0
LINE
  5
32F
330
322
100
AcDbEntity
  8
100
  6
Continuous
 62
     7
370
    30
100
AcDbLine
 10
117.256188
 20
50.725248
 30
0.0
 11
125.342822
 21
51.215347
 31
0.0
  0
LINE
  5
330
330
322
100
AcDbEntity
  8
100
  6
Continuous
 62
     7
370
    30
100
AcDbLine
 10
125.342822
 20
51.215347
 30
0.0
 11
132.326733
 21
51.705446
 31
0.0
  0
LINE
  5
331
330
322
100
AcDbEntity
  8
100
  6
Continuous
 62
     7
370
    30
100
AcDbLine
 10
132.326733
 20
51.705446
 30
0.0
 11
139.793535
 21
53.449621
 31
0.0
  0
ENDBLK
  5
324
330
322
100
AcDbEntity
  8
0
100
AcDbBlockEnd
  0
BLOCK
  5
334
330
333
100
AcDbEntity
  8
0
100
AcDbBlockBegin
  2
G39
 70
     0
 10
0.0
 20
0.0
 30
0.0
  3
G39
  1

  0
LINE
  5
336
330
333
100
AcDbEntity
  8
100
  6
Continuous
 62
     7
370
    30
100
AcDbLine
 10
44.844059
 20
55.871287
 30
0.0
 11
47.17203
 21
55.381188
 31
0.0
  0
LINE
  5
337
330
333
100
AcDbEntity
  8
100
  6
Continuous
 62
     7
370
    30
100
AcDbLine
 10
47.17203
 20
55.381188
 30
0.0
 11
49.25495
 21
56.361386
 31
0.0
  0
LINE
  5
338
330
333
100
AcDbEntity
  8
100
  6
Continuous
 62
     7
370
    30
100
AcDbLine
 10
49.25495
 20
56.361386
 30
0.0
 11
49.25495
 21
59.54703
 31
0.0
  0
LINE
  5
339
330
333
100
AcDbEntity
  8
100
  6
Continuous
 62
     7
370
    30
100
AcDbLine
 10
49.25495
 20
59.54703
 30
0.0
 11
48.029703
 21
60.894802
 31
0.0
  0
LINE
  5
33A
330
333
100
AcDbEntity
  8
100
  6
Continuous
 62
     7
370
    30
100
AcDbLine
 10
48.029703
 20
60.894802
 30
0.0
 11
48.029703
 21
79.886139
 31
0.0
  0
LINE
  5
33B
330
333
100
AcDbEntity
  8
100
  6
Continuous
 62
     7
370
    30
100
AcDbLine
 10
48.029703
 20
79.886139
 30
0.0
 11
48.029703
 21
96.059406
 31
0.0
  0
LINE
  5
33C
330
333
100
AcDbEntity
  8
100
  6
Continuous
 62
     7
370
    30
100
AcDbLine
 10
48.029703
 20
96.059406
 30
0.0
 11
48.152228
 21
98.387376
 31
0.0
  0
LINE
  5
33D
330
333
100
AcDbEntity
  8
100
  6
Continuous
 62
     7
370
    30
100
AcDbLine
 10
48.152228
 20
98.387376
 30
0.0
 11
49.622525
 21
101.205446
 31
0.0
  0
LINE
  5
33E
330
333
100
AcDbEntity
  8
100
  6
Continuous
 62
     7
370
    30
100
AcDbLine
 10
49.622525
 20
101.205446
 30
0.0
 11
51.092822
 21
101.818069
 31
0.0
  0
LINE
  5
33F
330
333
100
AcDbEntity
  8
100
  6
Continuous
 62
     7
370
    30
100
AcDbLine
 10
51.092822
 20
101.818069
 30
0.0
 11
51.215347
 21
89.320545
 31
0.0
  0
LINE
  5
340
330
333
100
AcDbEntity
  8
100
  6
Continuous
 62
     7
370
    30
100
AcDbLine
 10
51.215347
 20
89.320545
 30
0.0
 11
51.215347
 21
73.759901
 31
0.0
  0
LINE
  5
341
330
333
100
AcDbEntity
  8
100
  6
Continuous
 62
     7
370
    30
100
AcDbLine
 10
51.215347
 20
73.759901
 30
0.0
 11
51.705446
 21
65.183168
 31
0.0
  0
LINE
  5
342
330
333
100
AcDbEntity
  8
100
  6
Continuous
 62
     7
370
    30
100
AcDbLine
 10
51.705446
 20
65.183168
 30
0.0
 11
51.950495
 21
58.076733
 31
0.0
  0
ENDBLK
  5
335
330
333
100
AcDbEntity
  8
0
100
AcDbBlockEnd
  0
BLOCK
  5
345
330
344
100
AcDbEntity
  8
0
100
AcDbBlockBegin
  2
G40
 70
     0
 10
0.0
 20
0.0
 30
0.0
  3
G40
  1

  0
LINE
  5
347
330
344
100
AcDbEntity
  8
100
  6
Continuous
 62
     7
370
    30
100
AcDbLine
 10
44.905322
 20
103.043317
 30
0.0
 11
44.59901
 21
92.138614
 31
0.0
  0
LINE
  5
348
330
344
100
AcDbEntity
  8
100
  6
Continuous
 62
     7
370
    30
100
AcDbLine
 10
44.59901
 20
92.138614
 30
0.0
 11
44.476485
 21
80.743812
 31
0.0
  0
LINE
  5
349
330
344
100
AcDbEntity
  8
100
  6
Continuous
 62
     7
370
    30
100
AcDbLine
 10
44.476485
 20
80.743812
 30
0.0
 11
44.108911
 21
71.92203
 31
0.0
  0
LINE
  5
34A
330
344
100
AcDbEntity
  8
100
  6
Continuous
 62
     7
370
    30
100
AcDbLine
 10
44.108911
 20
71.92203
 30
0.0
 11
44.445854
 21
57.035272
 31
0.0
  0
ENDBLK
  5
346
330
344
100
AcDbEntity
  8
0
100
AcDbBlockEnd
  0
BLOCK
  5
34D
330
34C
100
AcDbEntity
  8
0
100
AcDbBlockBegin
  2
G41
 70
     0
 10
0.0
 20
0.0
 30
0.0
  3
G41
  1

  0
LINE
  5
34F
330
34C
100
AcDbEntity
  8
100
  6
Continuous
 62
     7
370
    30
100
AcDbLine
 10
88.14671
 20
104.968791
 30
0.0
 11
88.769183
 21
99.306312
 31
0.0
  0
LINE
  5
350
330
34C
100
AcDbEntity
  8
100
  6
Continuous
 62
     7
370
    30
100
AcDbLine
 10
88.769183
 20
99.306312
 30
0.0
 11
88.585396
 21
93.241337
 31
0.0
  0
LINE
  5
351
330
34C
100
AcDbEntity
  8
100
  6
Continuous
 62
     7
370
    30
100
AcDbLine
 10
88.585396
 20
93.241337
 30
0.0
 11
88.524134
 21
83.500619
 31
0.0
  0
LINE
  5
352
330
34C
100
AcDbEntity
  8
100
  6
Continuous
 62
     7
370
    30
100
AcDbLine
 10
88.524134
 20
83.500619
 30
0.0
 11
88.524134
 21
74.678837
 31
0.0
  0
LINE
  5
353
330
34C
100
AcDbEntity
  8
100
  6
Continuous
 62
     7
370
    30
100
AcDbLine
 10
88.524134
 20
74.678837
 30
0.0
 11
88.891708
 21
62.855198
 31
0.0
  0
LINE
  5
354
330
34C
100
AcDbEntity
  8
100
  6
Continuous
 62
     7
370
    30
100
AcDbLine
 10
88.891708
 20
62.855198
 30
0.0
 11
88.830446
 21
58.505569
 31
0.0
  0
LINE
  5
355
330
34C
100
AcDbEntity
  8
100
  6
Continuous
 62
     7
370
    30
100
AcDbLine
 10
88.830446
 20
58.505569
 30
0.0
 11
88.95297
 21
51.337871
 31
0.0
  0
ENDBLK
  5
34E
330
34C
100
AcDbEntity
  8
0
100
AcDbBlockEnd
  0
BLOCK
  5
358
330
357
100
AcDbEntity
  8
0
100
AcDbBlockBegin
  2
G42
 70
     0
 10
0.0
 20
0.0
 30
0.0
  3
G42
  1

  0
LINE
  5
35A
330
357
100
AcDbEntity
  8
100
  6
Continuous
 62
     7
370
    30
100
AcDbLine
 10
93.976485
 20
51.460396
 30
0.0
 11
93.976485
 21
69.961634
 31
0.0
  0
LINE
  5
35B
330
357
100
AcDbEntity
  8
100
  6
Continuous
 62
     7
370
    30
100
AcDbLine
 10
93.976485
 20
69.961634
 30
0.0
 11
93.363861
 21
83.684406
 31
0.0
  0
LINE
  5
35C
330
357
100
AcDbEntity
  8
100
  6
Continuous
 62
     7
370
    30
100
AcDbLine
 10
93.363861
 20
83.684406
 30
0.0
 11
93.302599
 21
96.42698
 31
0.0
  0
LINE
  5
35D
330
357
100
AcDbEntity
  8
100
  6
Continuous
 62
     7
370
    30
100
AcDbLine
 10
93.302599
 20
96.42698
 30
0.0
 11
93.059417
 21
104.937559
 31
0.0
  0
ENDBLK
  5
359
330
357
100
AcDbEntity
  8
0
100
AcDbBlockEnd
  0
BLOCK
  5
360
330
35F
100
AcDbEntity
  8
0
100
AcDbBlockBegin
  2
G43
 70
     0
 10
0.0
 20
0.0
 30
0.0
  3
G43
  1

  0
LINE
  5
362
330
35F
100
AcDbEntity
  8
100
  6
Continuous
 62
     7
370
    30
100
AcDbLine
 10
142.128713
 20
103.778465
 30
0.0
 11
142.251238
 21
87.237624
 31
0.0
  0
LINE
  5
363
330
35F
100
AcDbEntity
  8
100
  6
Continuous
 62
     7
370
    30
100
AcDbLine
 10
142.251238
 20
87.237624
 30
0.0
 11
142.373762
 21
60.649752
 31
0.0
  0
LINE
  5
364
330
35F
100
AcDbEntity
  8
100
  6
Continuous
 62
     7
370
    30
100
AcDbLine
 10
142.373762
 20
60.649752
 30
0.0
 11
144.456683
 21
58.934406
 31
0.0
  0
LINE
  5
365
330
35F
100
AcDbEntity
  8
100
  6
Continuous
 62
     7
370
    30
100
AcDbLine
 10
144.456683
 20
58.934406
 30
0.0
 11
146.417079
 21
59.669554
 31
0.0
  0
LINE
  5
366
330
35F
100
AcDbEntity
  8
100
  6
Continuous
 62
     7
370
    30
100
AcDbLine
 10
146.417079
 20
59.669554
 30
0.0
 11
147.274752
 21
60.772277
 31
0.0
  0
LINE
  5
367
330
35F
100
AcDbEntity
  8
100
  6
Continuous
 62
     7
370
    30
100
AcDbLine
 10
147.274752
 20
60.772277
 30
0.0
 11
146.784653
 21
100.347772
 31
0.0
  0
LINE
  5
368
330
35F
100
AcDbEntity
  8
100
  6
Continuous
 62
     7
370
    30
100
AcDbLine
 10
146.784653
 20
100.347772
 30
0.0
 11
145.681931
 21
101.32797
 31
0.0
  0
LINE
  5
369
330
35F
100
AcDbEntity
  8
100
  6
Continuous
 62
     7
370
    30
100
AcDbLine
 10
145.681931
 20
101.32797
 30
0.0
 11
145.681931
 21
102.553218
 31
0.0
  0
LINE
  5
36A
330
35F
100
AcDbEntity
  8
100
  6
Continuous
 62
     7
370
    30
100
AcDbLine
 10
145.681931
 20
102.553218
 30
0.0
 11
145.681931
 21
104.329827
 31
0.0
  0
LINE
  5
36B
330
35F
100
AcDbEntity
  8
100
  6
Continuous
 62
     7
370
    30
100
AcDbLine
 10
145.681931
 20
104.329827
 30
0.0
 11
142.128713
 21
103.778465
 31
0.0
  0
ENDBLK
  5
361
330
35F
100
AcDbEntity
  8
0
100
AcDbBlockEnd
  0
BLOCK
  5
36E
330
36D
100
AcDbEntity
  8
0
100
AcDbBlockBegin
  2
G44
 70
     0
 10
0.0
 20
0.0
 30
0.0
  3
G44
  1

  0
LINE
  5
370
330
36D
100
AcDbEntity
  8
100
  6
Continuous
 62
     7
370
    30
100
AcDbLine
 10
146.600866
 20
58.321782
 30
0.0
 11
147.45854
 21
56.116337
 31
0.0
  0
LINE
  5
371
330
36D
100
AcDbEntity
  8
100
  6
Continuous
 62
     7
370
    30
100
AcDbLine
 10
147.45854
 20
56.116337
 30
0.0
 11
148.438738
 21
54.737933
 31
0.0
  0
ENDBLK
  5
36F
330
36D
100
AcDbEntity
  8
0
100
AcDbBlockEnd
  0
BLOCK
  5
374
330
373
100
AcDbEntity
  8
0
100
AcDbBlockBegin
  2
G45
 70
     0
 10
0.0
 20
0.0
 30
0.0
  3
G45
  1

  0
LINE
  5
376
330
373
100
AcDbEntity
  8
100
  6
Continuous
 62
     7
370
    30
100
AcDbLine
 10
141.758651
 20
53.700671
 30
0.0
 11
142.006188
 21
56.483911
 31
0.0
  0
LINE
  5
377
330
373
100
AcDbEntity
  8
100
  6
Continuous
 62
     7
370
    30
100
AcDbLine
 10
142.006188
 20
56.483911
 30
0.0
 11
142.373762
 21
60.649752
 31
0.0
  0
ENDBLK
  5
375
330
373
100
AcDbEntity
  8
0
100
AcDbBlockEnd
  0
BLOCK
  5
37A
330
379
100
AcDbEntity
  8
0
100
AcDbBlockBegin
  2
G46
 70
     0
 10
0.0
 20
0.0
 30
0.0
  3
G46
  1

  0
LINE
  5
37C
330
379
100
AcDbEntity
  8
100
  6
Continuous
 62
     7
370
    30
100
AcDbLine
 10
150.31199
 20
105.27547
 30
0.0
 11
151.07302
 21
74.617574
 31
0.0
  0
LINE
  5
37D
330
379
100
AcDbEntity
  8
100
  6
Continuous
 62
     7
370
    30
100
AcDbLine
 10
151.07302
 20
74.617574
 30
0.0
 11
151.164913
 21
58.505569
 31
0.0
  0
ENDBLK
  5
37B
330
379
100
AcDbEntity
  8
0
100
AcDbBlockEnd
  0
BLOCK
  5
380
330
37F
100
AcDbEntity
  8
0
100
AcDbBlockBegin
  2
G47
 70
     0
 10
0.0
 20
0.0
 30
0.0
  3
G47
  1

  0
LINE
  5
382
330
37F
100
AcDbEntity
  8
100
  6
Continuous
 62
     7
370
    30
100
AcDbLine
 10
141.223615
 20
50.523631
 30
0.0
 11
139.555693
 21
41.780941
 31
0.0
  0
LINE
  5
383
330
37F
100
AcDbEntity
  8
100
  6
Continuous
 62
     7
370
    30
100
AcDbLine
 10
139.555693
 20
41.780941
 30
0.0
 11
136.615099
 21
35.654703
 31
0.0
  0
LINE
  5
384
330
37F
100
AcDbEntity
  8
100
  6
Continuous
 62
     7
370
    30
100
AcDbLine
 10
136.615099
 20
35.654703
 30
0.0
 11
132.939356
 21
29.89604
 31
0.0
  0
LINE
  5
385
330
37F
100
AcDbEntity
  8
100
  6
Continuous
 62
     7
370
    30
100
AcDbLine
 10
132.939356
 20
29.89604
 30
0.0
 11
128.038366
 21
24.259901
 31
0.0
  0
LINE
  5
386
330
37F
100
AcDbEntity
  8
100
  6
Continuous
 62
     7
370
    30
100
AcDbLine
 10
128.038366
 20
24.259901
 30
0.0
 11
123.382426
 21
20.706683
 31
0.0
  0
LINE
  5
387
330
37F
100
AcDbEntity
  8
100
  6
Continuous
 62
     7
370
    30
100
AcDbLine
 10
123.382426
 20
20.706683
 30
0.0
 11
117.746287
 21
17.030941
 31
0.0
  0
LINE
  5
388
330
37F
100
AcDbEntity
  8
100
  6
Continuous
 62
     7
370
    30
100
AcDbLine
 10
117.746287
 20
17.030941
 30
0.0
 11
112.232673
 21
14.94802
 31
0.0
  0
LINE
  5
389
330
37F
100
AcDbEntity
  8
100
  6
Continuous
 62
     7
370
    30
100
AcDbLine
 10
112.232673
 20
14.94802
 30
0.0
 11
106.964109
 21
13.845297
 31
0.0
  0
LINE
  5
38A
330
37F
100
AcDbEntity
  8
100
  6
Continuous
 62
     7
370
    30
100
AcDbLine
 10
106.964109
 20
13.845297
 30
0.0
 11
101.205446
 21
12.497525
 31
0.0
  0
LINE
  5
38B
330
37F
100
AcDbEntity
  8
100
  6
Continuous
 62
     7
370
    30
100
AcDbLine
 10
101.205446
 20
12.497525
 30
0.0
 11
95.691832
 21
12.007426
 31
0.0
  0
LINE
  5
38C
330
37F
100
AcDbEntity
  8
100
  6
Continuous
 62
     7
370
    30
100
AcDbLine
 10
95.691832
 20
12.007426
 30
0.0
 11
95.691832
 21
8.944307
 31
0.0
  0
LINE
  5
38D
330
37F
100
AcDbEntity
  8
100
  6
Continuous
 62
     7
370
    30
100
AcDbLine
 10
95.691832
 20
8.944307
 30
0.0
 11
96.059406
 21
5.636139
 31
0.0
  0
LINE
  5
38E
330
37F
100
AcDbEntity
  8
100
  6
Continuous
 62
     7
370
    30
100
AcDbLine
 10
96.059406
 20
5.636139
 30
0.0
 11
96.488243
 21
3.85953
 31
0.0
  0
LINE
  5
38F
330
37F
100
AcDbEntity
  8
100
  6
Continuous
 62
     7
370
    30
100
AcDbLine
 10
96.488243
 20
3.85953
 30
0.0
 11
97.100866
 21
3.920792
 31
0.0
  0
LINE
  5
390
330
37F
100
AcDbEntity
  8
100
  6
Continuous
 62
     7
370
    30
100
AcDbLine
 10
97.100866
 20
3.920792
 30
0.0
 11
97.529703
 21
5.636139
 31
0.0
  0
LINE
  5
391
330
37F
100
AcDbEntity
  8
100
  6
Continuous
 62
     7
370
    30
100
AcDbLine
 10
97.529703
 20
5.636139
 30
0.0
 11
97.836015
 21
8.086634
 31
0.0
  0
LINE
  5
392
330
37F
100
AcDbEntity
  8
100
  6
Continuous
 62
     7
370
    30
100
AcDbLine
 10
97.836015
 20
8.086634
 30
0.0
 11
98.081064
 21
10.843441
 31
0.0
  0
LINE
  5
393
330
37F
100
AcDbEntity
  8
100
  6
Continuous
 62
     7
370
    30
100
AcDbLine
 10
98.081064
 20
10.843441
 30
0.0
 11
98.20551
 21
12.230864
 31
0.0
  0
ENDBLK
  5
381
330
37F
100
AcDbEntity
  8
0
100
AcDbBlockEnd
  0
BLOCK
  5
396
330
395
100
AcDbEntity
  8
0
100
AcDbBlockBegin
  2
G48
 70
     0
 10
0.0
 20
0.0
 30
0.0
  3
G48
  1

  0
LINE
  5
398
330
395
100
AcDbEntity
  8
100
  6
Continuous
 62
     7
370
    30
100
AcDbLine
 10
101.946904
 20
12.671058
 30
0.0
 11
101.756807
 21
9.434406
 31
0.0
  0
LINE
  5
399
330
395
100
AcDbEntity
  8
100
  6
Continuous
 62
     7
370
    30
100
AcDbLine
 10
101.756807
 20
9.434406
 30
0.0
 11
101.511757
 21
6.861386
 31
0.0
  0
LINE
  5
39A
330
395
100
AcDbEntity
  8
100
  6
Continuous
 62
     7
370
    30
100
AcDbLine
 10
101.511757
 20
6.861386
 30
0.0
 11
101.021658
 21
3.85953
 31
0.0
  0
LINE
  5
39B
330
395
100
AcDbEntity
  8
100
  6
Continuous
 62
     7
370
    30
100
AcDbLine
 10
101.021658
 20
3.85953
 30
0.0
 11
100.531559
 21
2.205446
 31
0.0
  0
LINE
  5
39C
330
395
100
AcDbEntity
  8
100
  6
Continuous
 62
     7
370
    30
100
AcDbLine
 10
100.531559
 20
2.205446
 30
0.0
 11
99.122525
 21
3.491955
 31
0.0
  0
LINE
  5
39D
330
395
100
AcDbEntity
  8
100
  6
Continuous
 62
     7
370
    30
100
AcDbLine
 10
99.122525
 20
3.491955
 30
0.0
 11
97.100866
 21
3.920792
 31
0.0
  0
ENDBLK
  5
397
330
395
100
AcDbEntity
  8
0
100
AcDbBlockEnd
  0
BLOCK
  5
3A0
330
39F
100
AcDbEntity
  8
0
100
AcDbBlockBegin
  2
G49
 70
     0
 10
0.0
 20
0.0
 30
0.0
  3
G49
  1

  0
LINE
  5
3A2
330
39F
100
AcDbEntity
  8
100
  6
Continuous
 62
     7
370
    30
100
AcDbLine
 10
99.306312
 20
-1.531559
 30
0.0
 11
98.693688
 21
-3.737005
 31
0.0
  0
LINE
  5
3A3
330
39F
100
AcDbEntity
  8
100
  6
Continuous
 62
     7
370
    30
100
AcDbLine
 10
98.693688
 20
-3.737005
 30
0.0
 11
98.081064
 21
-5.084777
 31
0.0
  0
LINE
  5
3A4
330
39F
100
AcDbEntity
  8
100
  6
Continuous
 62
     7
370
    30
100
AcDbLine
 10
98.081064
 20
-5.084777
 30
0.0
 11
95.875619
 21
-5.609038
 31
0.0
  0
LINE
  5
3A5
330
39F
100
AcDbEntity
  8
100
  6
Continuous
 62
     7
370
    30
100
AcDbLine
 10
95.875619
 20
-5.609038
 30
0.0
 11
94.282797
 21
-5.023515
 31
0.0
  0
LINE
  5
3A6
330
39F
100
AcDbEntity
  8
100
  6
Continuous
 62
     7
370
    30
100
AcDbLine
 10
94.282797
 20
-5.023515
 30
0.0
 11
93.608911
 21
-3.185644
 31
0.0
  0
LINE
  5
3A7
330
39F
100
AcDbEntity
  8
100
  6
Continuous
 62
     7
370
    30
100
AcDbLine
 10
93.608911
 20
-3.185644
 30
0.0
 11
92.996287
 21
-1.409035
 31
0.0
  0
LINE
  5
3A8
330
39F
100
AcDbEntity
  8
100
  6
Continuous
 62
     7
370
    30
100
AcDbLine
 10
92.996287
 20
-1.409035
 30
0.0
 11
92.261139
 21
2.082921
 31
0.0
  0
LINE
  5
3A9
330
39F
100
AcDbEntity
  8
100
  6
Continuous
 62
     7
370
    30
100
AcDbLine
 10
92.261139
 20
2.082921
 30
0.0
 11
91.709777
 21
5.881188
 31
0.0
  0
LINE
  5
3AA
330
39F
100
AcDbEntity
  8
100
  6
Continuous
 62
     7
370
    30
100
AcDbLine
 10
91.709777
 20
5.881188
 30
0.0
 11
91.158416
 21
9.985767
 31
0.0
  0
LINE
  5
3AB
330
39F
100
AcDbEntity
  8
100
  6
Continuous
 62
     7
370
    30
100
AcDbLine
 10
91.158416
 20
9.985767
 30
0.0
 11
90.852104
 21
15.376856
 31
0.0
  0
LINE
  5
3AC
330
39F
100
AcDbEntity
  8
100
  6
Continuous
 62
     7
370
    30
100
AcDbLine
 10
90.852104
 20
15.376856
 30
0.0
 11
90.300743
 21
20.829208
 31
0.0
  0
LINE
  5
3AD
330
39F
100
AcDbEntity
  8
100
  6
Continuous
 62
     7
370
    30
100
AcDbLine
 10
90.300743
 20
20.829208
 30
0.0
 11
89.749381
 21
30.263614
 31
0.0
  0
LINE
  5
3AE
330
39F
100
AcDbEntity
  8
100
  6
Continuous
 62
     7
370
    30
100
AcDbLine
 10
89.749381
 20
30.263614
 30
0.0
 11
89.320545
 21
38.288985
 31
0.0
  0
LINE
  5
3AF
330
39F
100
AcDbEntity
  8
100
  6
Continuous
 62
     7
370
    30
100
AcDbLine
 10
89.320545
 20
38.288985
 30
0.0
 11
89.195358
 21
47.768566
 31
0.0
  0
ENDBLK
  5
3A1
330
39F
100
AcDbEntity
  8
0
100
AcDbBlockEnd
  0
BLOCK
  5
3B2
330
3B1
100
AcDbEntity
  8
0
100
AcDbBlockBegin
  2
G50
 70
     0
 10
0.0
 20
0.0
 30
0.0
  3
G50
  1

  0
LINE
  5
3B4
330
3B1
100
AcDbEntity
  8
100
  6
Continuous
 62
     7
370
    30
100
AcDbLine
 10
94.068379
 20
47.845916
 30
0.0
 11
94.282797
 21
37.921411
 31
0.0
  0
LINE
  5
3B5
330
3B1
100
AcDbEntity
  8
100
  6
Continuous
 62
     7
370
    30
100
AcDbLine
 10
94.282797
 20
37.921411
 30
0.0
 11
94.466584
 21
28.548267
 31
0.0
  0
LINE
  5
3B6
330
3B1
100
AcDbEntity
  8
100
  6
Continuous
 62
     7
370
    30
100
AcDbLine
 10
94.466584
 20
28.548267
 30
0.0
 11
94.895421
 21
21.441832
 31
0.0
  0
LINE
  5
3B7
330
3B1
100
AcDbEntity
  8
100
  6
Continuous
 62
     7
370
    30
100
AcDbLine
 10
94.895421
 20
21.441832
 30
0.0
 11
95.691832
 21
12.007426
 31
0.0
  0
ENDBLK
  5
3B3
330
3B1
100
AcDbEntity
  8
0
100
AcDbBlockEnd
  0
BLOCK
  5
3BA
330
3B9
100
AcDbEntity
  8
0
100
AcDbBlockBegin
  2
G51
 70
     0
 10
0.0
 20
0.0
 30
0.0
  3
G51
  1

  0
LINE
  5
3BC
330
3B9
100
AcDbEntity
  8
100
  6
Continuous
 62
     7
370
    30
100
AcDbLine
 10
91.029449
 20
12.25559
 30
0.0
 11
86.87005
 21
13.232673
 31
0.0
  0
LINE
  5
3BD
330
3B9
100
AcDbEntity
  8
100
  6
Continuous
 62
     7
370
    30
100
AcDbLine
 10
86.87005
 20
13.232673
 30
0.0
 11
81.233911
 21
15.131807
 31
0.0
  0
LINE
  5
3BE
330
3B9
100
AcDbEntity
  8
100
  6
Continuous
 62
     7
370
    30
100
AcDbLine
 10
81.233911
 20
15.131807
 30
0.0
 11
75.781559
 21
17.766089
 31
0.0
  0
LINE
  5
3BF
330
3B9
100
AcDbEntity
  8
100
  6
Continuous
 62
     7
370
    30
100
AcDbLine
 10
75.781559
 20
17.766089
 30
0.0
 11
70.941832
 21
20.645421
 31
0.0
  0
LINE
  5
3C0
330
3B9
100
AcDbEntity
  8
100
  6
Continuous
 62
     7
370
    30
100
AcDbLine
 10
70.941832
 20
20.645421
 30
0.0
 11
66.469678
 21
24.259901
 31
0.0
  0
LINE
  5
3C1
330
3B9
100
AcDbEntity
  8
100
  6
Continuous
 62
     7
370
    30
100
AcDbLine
 10
66.469678
 20
24.259901
 30
0.0
 11
62.732673
 21
28.119431
 31
0.0
  0
LINE
  5
3C2
330
3B9
100
AcDbEntity
  8
100
  6
Continuous
 62
     7
370
    30
100
AcDbLine
 10
62.732673
 20
28.119431
 30
0.0
 11
59.730817
 21
32.469059
 31
0.0
  0
LINE
  5
3C3
330
3B9
100
AcDbEntity
  8
100
  6
Continuous
 62
     7
370
    30
100
AcDbLine
 10
59.730817
 20
32.469059
 30
0.0
 11
57.647896
 21
35.961015
 31
0.0
  0
LINE
  5
3C4
330
3B9
100
AcDbEntity
  8
100
  6
Continuous
 62
     7
370
    30
100
AcDbLine
 10
57.647896
 20
35.961015
 30
0.0
 11
56.055074
 21
39.69802
 31
0.0
  0
LINE
  5
3C5
330
3B9
100
AcDbEntity
  8
100
  6
Continuous
 62
     7
370
    30
100
AcDbLine
 10
56.055074
 20
39.69802
 30
0.0
 11
54.462252
 21
43.55755
 31
0.0
  0
LINE
  5
3C6
330
3B9
100
AcDbEntity
  8
100
  6
Continuous
 62
     7
370
    30
100
AcDbLine
 10
54.462252
 20
43.55755
 30
0.0
 11
53.298267
 21
47.907178
 31
0.0
  0
LINE
  5
3C7
330
3B9
100
AcDbEntity
  8
100
  6
Continuous
 62
     7
370
    30
100
AcDbLine
 10
53.298267
 20
47.907178
 30
0.0
 11
53.00025
 21
49.499914
 31
0.0
  0
ENDBLK
  5
3BB
330
3B9
100
AcDbEntity
  8
0
100
AcDbBlockEnd
  0
BLOCK
  5
3CA
330
3C9
100
AcDbEntity
  8
0
100
AcDbBlockBegin
  2
G52
 70
     0
 10
0.0
 20
0.0
 30
0.0
  3
G52
  1

  0
LINE
  5
3CC
330
3C9
100
AcDbEntity
  8
100
  6
Continuous
 62
     7
370
    30
100
AcDbLine
 10
49.344981
 20
50.066586
 30
0.0
 11
49.74505
 21
45.579208
 31
0.0
  0
LINE
  5
3CD
330
3C9
100
AcDbEntity
  8
100
  6
Continuous
 62
     7
370
    30
100
AcDbLine
 10
49.74505
 20
45.579208
 30
0.0
 11
50.663985
 21
41.842203
 31
0.0
  0
LINE
  5
3CE
330
3C9
100
AcDbEntity
  8
100
  6
Continuous
 62
     7
370
    30
100
AcDbLine
 10
50.663985
 20
41.842203
 30
0.0
 11
51.889233
 21
38.105198
 31
0.0
  0
LINE
  5
3CF
330
3C9
100
AcDbEntity
  8
100
  6
Continuous
 62
     7
370
    30
100
AcDbLine
 10
51.889233
 20
38.105198
 30
0.0
 11
53.35953
 21
34.061881
 31
0.0
  0
LINE
  5
3D0
330
3C9
100
AcDbEntity
  8
100
  6
Continuous
 62
     7
370
    30
100
AcDbLine
 10
53.35953
 20
34.061881
 30
0.0
 11
54.891089
 21
30.814975
 31
0.0
  0
LINE
  5
3D1
330
3C9
100
AcDbEntity
  8
100
  6
Continuous
 62
     7
370
    30
100
AcDbLine
 10
54.891089
 20
30.814975
 30
0.0
 11
57.647896
 21
26.281559
 31
0.0
  0
LINE
  5
3D2
330
3C9
100
AcDbEntity
  8
100
  6
Continuous
 62
     7
370
    30
100
AcDbLine
 10
57.647896
 20
26.281559
 30
0.0
 11
60.282178
 21
22.42203
 31
0.0
  0
LINE
  5
3D3
330
3C9
100
AcDbEntity
  8
100
  6
Continuous
 62
     7
370
    30
100
AcDbLine
 10
60.282178
 20
22.42203
 30
0.0
 11
63.038985
 21
18.868812
 31
0.0
  0
LINE
  5
3D4
330
3C9
100
AcDbEntity
  8
100
  6
Continuous
 62
     7
370
    30
100
AcDbLine
 10
63.038985
 20
18.868812
 30
0.0
 11
65.857054
 21
15.98948
 31
0.0
  0
LINE
  5
3D5
330
3C9
100
AcDbEntity
  8
100
  6
Continuous
 62
     7
370
    30
100
AcDbLine
 10
65.857054
 20
15.98948
 30
0.0
 11
68.613861
 21
13.232673
 31
0.0
  0
LINE
  5
3D6
330
3C9
100
AcDbEntity
  8
100
  6
Continuous
 62
     7
370
    30
100
AcDbLine
 10
68.613861
 20
13.232673
 30
0.0
 11
71.67698
 21
10.659653
 31
0.0
  0
LINE
  5
3D7
330
3C9
100
AcDbEntity
  8
100
  6
Continuous
 62
     7
370
    30
100
AcDbLine
 10
71.67698
 20
10.659653
 30
0.0
 11
74.617574
 21
8.576733
 31
0.0
  0
LINE
  5
3D8
330
3C9
100
AcDbEntity
  8
100
  6
Continuous
 62
     7
370
    30
100
AcDbLine
 10
74.617574
 20
8.576733
 30
0.0
 11
78.354579
 21
6.555074
 31
0.0
  0
LINE
  5
3D9
330
3C9
100
AcDbEntity
  8
100
  6
Continuous
 62
     7
370
    30
100
AcDbLine
 10
78.354579
 20
6.555074
 30
0.0
 11
82.214109
 21
4.962252
 31
0.0
  0
LINE
  5
3DA
330
3C9
100
AcDbEntity
  8
100
  6
Continuous
 62
     7
370
    30
100
AcDbLine
 10
82.214109
 20
4.962252
 30
0.0
 11
85.093441
 21
3.920792
 31
0.0
  0
LINE
  5
3DB
330
3C9
100
AcDbEntity
  8
100
  6
Continuous
 62
     7
370
    30
100
AcDbLine
 10
85.093441
 20
3.920792
 30
0.0
 11
87.850248
 21
3.063119
 31
0.0
  0
LINE
  5
3DC
330
3C9
100
AcDbEntity
  8
100
  6
Continuous
 62
     7
370
    30
100
AcDbLine
 10
87.850248
 20
3.063119
 30
0.0
 11
92.261139
 21
2.082921
 31
0.0
  0
ENDBLK
  5
3CB
330
3C9
100
AcDbEntity
  8
0
100
AcDbBlockEnd
  0
BLOCK
  5
3DF
330
3DE
100
AcDbEntity
  8
0
100
AcDbBlockBegin
  2
G53
 70
     0
 10
0.0
 20
0.0
 30
0.0
  3
G53
  1

  0
LINE
  5
3E1
330
3DE
100
AcDbEntity
  8
100
  6
Continuous
 62
     7
370
    30
100
AcDbLine
 10
93.323758
 20
-2.358699
 30
0.0
 11
89.504332
 21
-1.776609
 31
0.0
  0
LINE
  5
3E2
330
3DE
100
AcDbEntity
  8
100
  6
Continuous
 62
     7
370
    30
100
AcDbLine
 10
89.504332
 20
-1.776609
 30
0.0
 11
84.113243
 21
0.0
 31
0.0
  0
LINE
  5
3E3
330
3DE
100
AcDbEntity
  8
100
  6
Continuous
 62
     7
370
    30
100
AcDbLine
 10
84.113243
 20
0.0
 30
0.0
 11
78.722153
 21
1.960396
 31
0.0
  0
LINE
  5
3E4
330
3DE
100
AcDbEntity
  8
100
  6
Continuous
 62
     7
370
    30
100
AcDbLine
 10
78.722153
 20
1.960396
 30
0.0
 11
74.433787
 21
4.227104
 31
0.0
  0
LINE
  5
3E5
330
3DE
100
AcDbEntity
  8
100
  6
Continuous
 62
     7
370
    30
100
AcDbLine
 10
74.433787
 20
4.227104
 30
0.0
 11
70.758045
 21
6.738861
 31
0.0
  0
LINE
  5
3E6
330
3DE
100
AcDbEntity
  8
100
  6
Continuous
 62
     7
370
    30
100
AcDbLine
 10
70.758045
 20
6.738861
 30
0.0
 11
67.143564
 21
9.434406
 31
0.0
  0
LINE
  5
3E7
330
3DE
100
AcDbEntity
  8
100
  6
Continuous
 62
     7
370
    30
100
AcDbLine
 10
67.143564
 20
9.434406
 30
0.0
 11
62.365099
 21
13.845297
 31
0.0
  0
LINE
  5
3E8
330
3DE
100
AcDbEntity
  8
100
  6
Continuous
 62
     7
370
    30
100
AcDbLine
 10
62.365099
 20
13.845297
 30
0.0
 11
59.30198
 21
17.092203
 31
0.0
  0
LINE
  5
3E9
330
3DE
100
AcDbEntity
  8
100
  6
Continuous
 62
     7
370
    30
100
AcDbLine
 10
59.30198
 20
17.092203
 30
0.0
 11
56.545173
 21
20.951733
 31
0.0
  0
LINE
  5
3EA
330
3DE
100
AcDbEntity
  8
100
  6
Continuous
 62
     7
370
    30
100
AcDbLine
 10
56.545173
 20
20.951733
 30
0.0
 11
53.910891
 21
24.566213
 31
0.0
  0
LINE
  5
3EB
330
3DE
100
AcDbEntity
  8
100
  6
Continuous
 62
     7
370
    30
100
AcDbLine
 10
53.910891
 20
24.566213
 30
0.0
 11
51.521658
 21
28.977104
 31
0.0
  0
LINE
  5
3EC
330
3DE
100
AcDbEntity
  8
100
  6
Continuous
 62
     7
370
    30
100
AcDbLine
 10
51.521658
 20
28.977104
 30
0.0
 11
49.5
 21
33.142946
 31
0.0
  0
LINE
  5
3ED
330
3DE
100
AcDbEntity
  8
100
  6
Continuous
 62
     7
370
    30
100
AcDbLine
 10
49.5
 20
33.142946
 30
0.0
 11
48.029703
 21
37.247525
 31
0.0
  0
LINE
  5
3EE
330
3DE
100
AcDbEntity
  8
100
  6
Continuous
 62
     7
370
    30
100
AcDbLine
 10
48.029703
 20
37.247525
 30
0.0
 11
46.92698
 21
42.332302
 31
0.0
  0
LINE
  5
3EF
330
3DE
100
AcDbEntity
  8
100
  6
Continuous
 62
     7
370
    30
100
AcDbLine
 10
46.92698
 20
42.332302
 30
0.0
 11
46.069307
 21
46.314356
 31
0.0
  0
LINE
  5
3F0
330
3DE
100
AcDbEntity
  8
100
  6
Continuous
 62
     7
370
    30
100
AcDbLine
 10
46.069307
 20
46.314356
 30
0.0
 11
45.836483
 21
51.048966
 31
0.0
  0
ENDBLK
  5
3E0
330
3DE
100
AcDbEntity
  8
0
100
AcDbBlockEnd
  0
BLOCK
  5
3F3
330
3F2
100
AcDbEntity
  8
0
100
AcDbBlockBegin
  2
G54
 70
     0
 10
0.0
 20
0.0
 30
0.0
  3
G54
  1

  0
LINE
  5
3F5
330
3F2
100
AcDbEntity
  8
100
  6
Continuous
 62
     7
370
    30
100
AcDbLine
 10
100.531559
 20
2.205446
 30
0.0
 11
101.266708
 21
1.654084
 31
0.0
  0
LINE
  5
3F6
330
3F2
100
AcDbEntity
  8
100
  6
Continuous
 62
     7
370
    30
100
AcDbLine
 10
101.266708
 20
1.654084
 30
0.0
 11
103.655941
 21
1.837871
 31
0.0
  0
LINE
  5
3F7
330
3F2
100
AcDbEntity
  8
100
  6
Continuous
 62
     7
370
    30
100
AcDbLine
 10
103.655941
 20
1.837871
 30
0.0
 11
109.169554
 21
3.001856
 31
0.0
  0
LINE
  5
3F8
330
3F2
100
AcDbEntity
  8
100
  6
Continuous
 62
     7
370
    30
100
AcDbLine
 10
109.169554
 20
3.001856
 30
0.0
 11
114.805693
 21
5.14604
 31
0.0
  0
LINE
  5
3F9
330
3F2
100
AcDbEntity
  8
100
  6
Continuous
 62
     7
370
    30
100
AcDbLine
 10
114.805693
 20
5.14604
 30
0.0
 11
120.441832
 21
8.454208
 31
0.0
  0
LINE
  5
3FA
330
3F2
100
AcDbEntity
  8
100
  6
Continuous
 62
     7
370
    30
100
AcDbLine
 10
120.441832
 20
8.454208
 30
0.0
 11
124.301361
 21
11.027228
 31
0.0
  0
LINE
  5
3FB
330
3F2
100
AcDbEntity
  8
100
  6
Continuous
 62
     7
370
    30
100
AcDbLine
 10
124.301361
 20
11.027228
 30
0.0
 11
127.915842
 21
13.600248
 31
0.0
  0
LINE
  5
3FC
330
3F2
100
AcDbEntity
  8
100
  6
Continuous
 62
     7
370
    30
100
AcDbLine
 10
127.915842
 20
13.600248
 30
0.0
 11
132.694307
 21
17.827351
 31
0.0
  0
LINE
  5
3FD
330
3F2
100
AcDbEntity
  8
100
  6
Continuous
 62
     7
370
    30
100
AcDbLine
 10
132.694307
 20
17.827351
 30
0.0
 11
136.676361
 21
22.544554
 31
0.0
  0
LINE
  5
3FE
330
3F2
100
AcDbEntity
  8
100
  6
Continuous
 62
     7
370
    30
100
AcDbLine
 10
136.676361
 20
22.544554
 30
0.0
 11
139.494431
 21
26.832921
 31
0.0
  0
LINE
  5
3FF
330
3F2
100
AcDbEntity
  8
100
  6
Continuous
 62
     7
370
    30
100
AcDbLine
 10
139.494431
 20
26.832921
 30
0.0
 11
142.006188
 21
31.366337
 31
0.0
  0
LINE
  5
400
330
3F2
100
AcDbEntity
  8
100
  6
Continuous
 62
     7
370
    30
100
AcDbLine
 10
142.006188
 20
31.366337
 30
0.0
 11
143.660272
 21
35.287129
 31
0.0
  0
LINE
  5
401
330
3F2
100
AcDbEntity
  8
100
  6
Continuous
 62
     7
370
    30
100
AcDbLine
 10
143.660272
 20
35.287129
 30
0.0
 11
145.314356
 21
40.249381
 31
0.0
  0
LINE
  5
402
330
3F2
100
AcDbEntity
  8
100
  6
Continuous
 62
     7
370
    30
100
AcDbLine
 10
145.314356
 20
40.249381
 30
0.0
 11
146.723391
 21
45.211634
 31
0.0
  0
LINE
  5
403
330
3F2
100
AcDbEntity
  8
100
  6
Continuous
 62
     7
370
    30
100
AcDbLine
 10
146.723391
 20
45.211634
 30
0.0
 11
147.21349
 21
50.112624
 31
0.0
  0
LINE
  5
404
330
3F2
100
AcDbEntity
  8
100
  6
Continuous
 62
     7
370
    30
100
AcDbLine
 10
147.21349
 20
50.112624
 30
0.0
 11
147.366646
 21
51.644183
 31
0.0
  0
ENDBLK
  5
3F4
330
3F2
100
AcDbEntity
  8
0
100
AcDbBlockEnd
  0
BLOCK
  5
407
330
406
100
AcDbEntity
  8
0
100
AcDbBlockBegin
  2
G55
 70
     0
 10
0.0
 20
0.0
 30
0.0
  3
G55
  1

  0
LINE
  5
409
330
406
100
AcDbEntity
  8
100
  6
Continuous
 62
     7
370
    30
100
AcDbLine
 10
151.532488
 20
53.849629
 30
0.0
 11
151.07302
 21
48.581064
 31
0.0
  0
LINE
  5
40A
330
406
100
AcDbEntity
  8
100
  6
Continuous
 62
     7
370
    30
100
AcDbLine
 10
151.07302
 20
48.581064
 30
0.0
 11
150.215347
 21
44.231436
 31
0.0
  0
LINE
  5
40B
330
406
100
AcDbEntity
  8
100
  6
Continuous
 62
     7
370
    30
100
AcDbLine
 10
150.215347
 20
44.231436
 30
0.0
 11
149.112624
 21
39.575495
 31
0.0
  0
LINE
  5
40C
330
406
100
AcDbEntity
  8
100
  6
Continuous
 62
     7
370
    30
100
AcDbLine
 10
149.112624
 20
39.575495
 30
0.0
 11
147.826114
 21
36.022277
 31
0.0
  0
LINE
  5
40D
330
406
100
AcDbEntity
  8
100
  6
Continuous
 62
     7
370
    30
100
AcDbLine
 10
147.826114
 20
36.022277
 30
0.0
 11
145.92698
 21
31.060025
 31
0.0
  0
LINE
  5
40E
330
406
100
AcDbEntity
  8
100
  6
Continuous
 62
     7
370
    30
100
AcDbLine
 10
145.92698
 20
31.060025
 30
0.0
 11
144.211634
 21
27.384282
 31
0.0
  0
LINE
  5
40F
330
406
100
AcDbEntity
  8
100
  6
Continuous
 62
     7
370
    30
100
AcDbLine
 10
144.211634
 20
27.384282
 30
0.0
 11
141.454827
 21
22.850866
 31
0.0
  0
LINE
  5
410
330
406
100
AcDbEntity
  8
100
  6
Continuous
 62
     7
370
    30
100
AcDbLine
 10
141.454827
 20
22.850866
 30
0.0
 11
139.004332
 21
19.542698
 31
0.0
  0
LINE
  5
411
330
406
100
AcDbEntity
  8
100
  6
Continuous
 62
     7
370
    30
100
AcDbLine
 10
139.004332
 20
19.542698
 30
0.0
 11
135.451114
 21
15.193069
 31
0.0
  0
LINE
  5
412
330
406
100
AcDbEntity
  8
100
  6
Continuous
 62
     7
370
    30
100
AcDbLine
 10
135.451114
 20
15.193069
 30
0.0
 11
132.326733
 21
11.823639
 31
0.0
  0
LINE
  5
413
330
406
100
AcDbEntity
  8
100
  6
Continuous
 62
     7
370
    30
100
AcDbLine
 10
132.326733
 20
11.823639
 30
0.0
 11
128.528465
 21
9.005569
 31
0.0
  0
LINE
  5
414
330
406
100
AcDbEntity
  8
100
  6
Continuous
 62
     7
370
    30
100
AcDbLine
 10
128.528465
 20
9.005569
 30
0.0
 11
123.566213
 21
5.513614
 31
0.0
  0
LINE
  5
415
330
406
100
AcDbEntity
  8
100
  6
Continuous
 62
     7
370
    30
100
AcDbLine
 10
123.566213
 20
5.513614
 30
0.0
 11
119.767946
 21
3.185644
 31
0.0
  0
LINE
  5
416
330
406
100
AcDbEntity
  8
100
  6
Continuous
 62
     7
370
    30
100
AcDbLine
 10
119.767946
 20
3.185644
 30
0.0
 11
114.928218
 21
0.735149
 31
0.0
  0
LINE
  5
417
330
406
100
AcDbEntity
  8
100
  6
Continuous
 62
     7
370
    30
100
AcDbLine
 10
114.928218
 20
0.735149
 30
0.0
 11
111.068688
 21
-0.796411
 31
0.0
  0
LINE
  5
418
330
406
100
AcDbEntity
  8
100
  6
Continuous
 62
     7
370
    30
100
AcDbLine
 10
111.068688
 20
-0.796411
 30
0.0
 11
107.454208
 21
-1.409035
 31
0.0
  0
LINE
  5
419
330
406
100
AcDbEntity
  8
100
  6
Continuous
 62
     7
370
    30
100
AcDbLine
 10
107.454208
 20
-1.409035
 30
0.0
 11
103.227104
 21
-2.021658
 31
0.0
  0
LINE
  5
41A
330
406
100
AcDbEntity
  8
100
  6
Continuous
 62
     7
370
    30
100
AcDbLine
 10
103.227104
 20
-2.021658
 30
0.0
 11
100.715347
 21
-2.021658
 31
0.0
  0
LINE
  5
41B
330
406
100
AcDbEntity
  8
100
  6
Continuous
 62
     7
370
    30
100
AcDbLine
 10
100.715347
 20
-2.021658
 30
0.0
 11
99.306312
 21
-1.531559
 31
0.0
  0
LINE
  5
41C
330
406
100
AcDbEntity
  8
100
  6
Continuous
 62
     7
370
    30
100
AcDbLine
 10
99.306312
 20
-1.531559
 30
0.0
 11
98.509901
 21
-1.347772
 31
0.0
  0
LINE
  5
41D
330
406
100
AcDbEntity
  8
100
  6
Continuous
 62
     7
370
    30
100
AcDbLine
 10
98.509901
 20
-1.347772
 30
0.0
 11
97.652228
 21
-1.347772
 31
0.0
  0
LINE
  5
41E
330
406
100
AcDbEntity
  8
100
  6
Continuous
 62
     7
370
    30
100
AcDbLine
 10
97.652228
 20
-1.347772
 30
0.0
 11
97.131498
 21
-1.500928
 31
0.0
  0
LINE
  5
41F
330
406
100
AcDbEntity
  8
100
  6
Continuous
 62
     7
370
    30
100
AcDbLine
 10
97.131498
 20
-1.500928
 30
0.0
 11
97.590965
 21
-2.021658
 31
0.0
  0
ENDBLK
  5
408
330
406
100
AcDbEntity
  8
0
100
AcDbBlockEnd
  0
BLOCK
  5
422
330
421
100
AcDbEntity
  8
0
100
AcDbBlockBegin
  2
G56
 70
     0
 10
0.0
 20
0.0
 30
0.0
  3
G56
  1

  0
LINE
  5
424
330
421
100
AcDbEntity
  8
100
  6
Continuous
 62
     7
370
    30
100
AcDbLine
 10
97.131498
 20
-1.500928
 30
0.0
 11
96.702661
 21
0.0
 31
0.0
  0
LINE
  5
425
330
421
100
AcDbEntity
  8
100
  6
Continuous
 62
     7
370
    30
100
AcDbLine
 10
96.702661
 20
0.0
 30
0.0
 11
96.549505
 21
1.80724
 31
0.0
  0
LINE
  5
426
330
421
100
AcDbEntity
  8
100
  6
Continuous
 62
     7
370
    30
100
AcDbLine
 10
96.549505
 20
1.80724
 30
0.0
 11
96.42698
 21
2.971225
 31
0.0
  0
LINE
  5
427
330
421
100
AcDbEntity
  8
100
  6
Continuous
 62
     7
370
    30
100
AcDbLine
 10
96.42698
 20
2.971225
 30
0.0
 11
96.488243
 21
3.85953
 31
0.0
  0
ENDBLK
  5
423
330
421
100
AcDbEntity
  8
0
100
AcDbBlockEnd
  0
ENDSEC
  0
SECTION
  2
ENTITIES
  0
INSERT
  5
429
330
1F
100
AcDbEntity
  8
0
100
AcDbBlockReference
  2
G1
 10
0.0
 20
0.0
 30
0.0
  0
LINE
  5
42A
330
1F
100
AcDbEntity
  8
101
  6
Continuous
 62
     7
370
    30
100
AcDbLine
 10
96.42698
 20
2.971225
 30
0.0
 11
96.488243
 21
3.85953
 31
0.0
  0
LINE
  5
42B
330
1F
100
AcDbEntity
  8
101
  6
Continuous
 62
     7
370
    30
100
AcDbLine
 10
96.549505
 20
1.80724
 30
0.0
 11
96.42698
 21
2.971225
 31
0.0
  0
LINE
  5
42C
330
1F
100
AcDbEntity
  8
101
  6
Continuous
 62
     7
370
    30
100
AcDbLine
 10
96.702661
 20
0.0
 30
0.0
 11
96.549505
 21
1.80724
 31
0.0
  0
LINE
  5
42D
330
1F
100
AcDbEntity
  8
101
  6
Continuous
 62
     7
370
    30
100
AcDbLine
 10
97.131498
 20
-1.500928
 30
0.0
 11
96.702661
 21
0.0
 31
0.0
  0
LINE
  5
42E
330
1F
100
AcDbEntity
  8
101
  6
Continuous
 62
     7
370
    30
100
AcDbLine
 10
97.590965
 20
-2.021658
 30
0.0
 11
97.131498
 21
-1.500928
 31
0.0
  0
LINE
  5
42F
330
1F
100
AcDbEntity
  8
101
  6
Continuous
 62
     7
370
    30
100
AcDbLine
 10
97.652228
 20
-1.347772
 30
0.0
 11
97.131498
 21
-1.500928
 31
0.0
  0
LINE
  5
430
330
1F
100
AcDbEntity
  8
101
  6
Continuous
 62
     7
370
    30
100
AcDbLine
 10
98.509901
 20
-1.347772
 30
0.0
 11
97.652228
 21
-1.347772
 31
0.0
  0
LINE
  5
431
330
1F
100
AcDbEntity
  8
101
  6
Continuous
 62
     7
370
    30
100
AcDbLine
 10
99.306312
 20
-1.531559
 30
0.0
 11
98.509901
 21
-1.347772
 31
0.0
  0
LINE
  5
432
330
1F
100
AcDbEntity
  8
101
  6
Continuous
 62
     7
370
    30
100
AcDbLine
 10
100.715347
 20
-2.021658
 30
0.0
 11
99.306312
 21
-1.531559
 31
0.0
  0
LINE
  5
433
330
1F
100
AcDbEntity
  8
101
  6
Continuous
 62
     7
370
    30
100
AcDbLine
 10
103.227104
 20
-2.021658
 30
0.0
 11
100.715347
 21
-2.021658
 31
0.0
  0
LINE
  5
434
330
1F
100
AcDbEntity
  8
101
  6
Continuous
 62
     7
370
    30
100
AcDbLine
 10
107.454208
 20
-1.409035
 30
0.0
 11
103.227104
 21
-2.021658
 31
0.0
  0
LINE
  5
435
330
1F
100
AcDbEntity
  8
101
  6
Continuous
 62
     7
370
    30
100
AcDbLine
 10
111.068688
 20
-0.796411
 30
0.0
 11
107.454208
 21
-1.409035
 31
0.0
  0
LINE
  5
436
330
1F
100
AcDbEntity
  8
101
  6
Continuous
 62
     7
370
    30
100
AcDbLine
 10
114.928218
 20
0.735149
 30
0.0
 11
111.068688
 21
-0.796411
 31
0.0
  0
LINE
  5
437
330
1F
100
AcDbEntity
  8
101
  6
Continuous
 62
     7
370
    30
100
AcDbLine
 10
119.767946
 20
3.185644
 30
0.0
 11
114.928218
 21
0.735149
 31
0.0
  0
LINE
  5
438
330
1F
100
AcDbEntity
  8
101
  6
Continuous
 62
     7
370
    30
100
AcDbLine
 10
123.566213
 20
5.513614
 30
0.0
 11
119.767946
 21
3.185644
 31
0.0
  0
LINE
  5
439
330
1F
100
AcDbEntity
  8
101
  6
Continuous
 62
     7
370
    30
100
AcDbLine
 10
128.528465
 20
9.005569
 30
0.0
 11
123.566213
 21
5.513614
 31
0.0
  0
LINE
  5
43A
330
1F
100
AcDbEntity
  8
101
  6
Continuous
 62
     7
370
    30
100
AcDbLine
 10
132.326733
 20
11.823639
 30
0.0
 11
128.528465
 21
9.005569
 31
0.0
  0
LINE
  5
43B
330
1F
100
AcDbEntity
  8
101
  6
Continuous
 62
     7
370
    30
100
AcDbLine
 10
135.451114
 20
15.193069
 30
0.0
 11
132.326733
 21
11.823639
 31
0.0
  0
LINE
  5
43C
330
1F
100
AcDbEntity
  8
101
  6
Continuous
 62
     7
370
    30
100
AcDbLine
 10
139.004332
 20
19.542698
 30
0.0
 11
135.451114
 21
15.193069
 31
0.0
  0
LINE
  5
43D
330
1F
100
AcDbEntity
  8
101
  6
Continuous
 62
     7
370
    30
100
AcDbLine
 10
141.454827
 20
22.850866
 30
0.0
 11
139.004332
 21
19.542698
 31
0.0
  0
LINE
  5
43E
330
1F
100
AcDbEntity
  8
101
  6
Continuous
 62
     7
370
    30
100
AcDbLine
 10
144.211634
 20
27.384282
 30
0.0
 11
141.454827
 21
22.850866
 31
0.0
  0
LINE
  5
43F
330
1F
100
AcDbEntity
  8
101
  6
Continuous
 62
     7
370
    30
100
AcDbLine
 10
145.92698
 20
31.060025
 30
0.0
 11
144.211634
 21
27.384282
 31
0.0
  0
LINE
  5
440
330
1F
100
AcDbEntity
  8
101
  6
Continuous
 62
     7
370
    30
100
AcDbLine
 10
147.826114
 20
36.022277
 30
0.0
 11
145.92698
 21
31.060025
 31
0.0
  0
LINE
  5
441
330
1F
100
AcDbEntity
  8
101
  6
Continuous
 62
     7
370
    30
100
AcDbLine
 10
149.112624
 20
39.575495
 30
0.0
 11
147.826114
 21
36.022277
 31
0.0
  0
LINE
  5
442
330
1F
100
AcDbEntity
  8
101
  6
Continuous
 62
     7
370
    30
100
AcDbLine
 10
150.215347
 20
44.231436
 30
0.0
 11
149.112624
 21
39.575495
 31
0.0
  0
LINE
  5
443
330
1F
100
AcDbEntity
  8
101
  6
Continuous
 62
     7
370
    30
100
AcDbLine
 10
151.07302
 20
48.581064
 30
0.0
 11
150.215347
 21
44.231436
 31
0.0
  0
LINE
  5
444
330
1F
100
AcDbEntity
  8
101
  6
Continuous
 62
     7
370
    30
100
AcDbLine
 10
151.532488
 20
53.849629
 30
0.0
 11
151.07302
 21
48.581064
 31
0.0
  0
LINE
  5
445
330
1F
100
AcDbEntity
  8
101
  6
Continuous
 62
     7
370
    30
100
AcDbLine
 10
147.21349
 20
50.112624
 30
0.0
 11
147.366646
 21
51.644183
 31
0.0
  0
LINE
  5
446
330
1F
100
AcDbEntity
  8
101
  6
Continuous
 62
     7
370
    30
100
AcDbLine
 10
146.723391
 20
45.211634
 30
0.0
 11
147.21349
 21
50.112624
 31
0.0
  0
LINE
  5
447
330
1F
100
AcDbEntity
  8
101
  6
Continuous
 62
     7
370
    30
100
AcDbLine
 10
145.314356
 20
40.249381
 30
0.0
 11
146.723391
 21
45.211634
 31
0.0
  0
LINE
  5
448
330
1F
100
AcDbEntity
  8
101
  6
Continuous
 62
     7
370
    30
100
AcDbLine
 10
143.660272
 20
35.287129
 30
0.0
 11
145.314356
 21
40.249381
 31
0.0
  0
LINE
  5
449
330
1F
100
AcDbEntity
  8
101
  6
Continuous
 62
     7
370
    30
100
AcDbLine
 10
142.006188
 20
31.366337
 30
0.0
 11
143.660272
 21
35.287129
 31
0.0
  0
LINE
  5
44A
330
1F
100
AcDbEntity
  8
101
  6
Continuous
 62
     7
370
    30
100
AcDbLine
 10
139.494431
 20
26.832921
 30
0.0
 11
142.006188
 21
31.366337
 31
0.0
  0
LINE
  5
44B
330
1F
100
AcDbEntity
  8
101
  6
Continuous
 62
     7
370
    30
100
AcDbLine
 10
136.676361
 20
22.544554
 30
0.0
 11
139.494431
 21
26.832921
 31
0.0
  0
LINE
  5
44C
330
1F
100
AcDbEntity
  8
101
  6
Continuous
 62
     7
370
    30
100
AcDbLine
 10
132.694307
 20
17.827351
 30
0.0
 11
136.676361
 21
22.544554
 31
0.0
  0
LINE
  5
44D
330
1F
100
AcDbEntity
  8
101
  6
Continuous
 62
     7
370
    30
100
AcDbLine
 10
127.915842
 20
13.600248
 30
0.0
 11
132.694307
 21
17.827351
 31
0.0
  0
LINE
  5
44E
330
1F
100
AcDbEntity
  8
101
  6
Continuous
 62
     7
370
    30
100
AcDbLine
 10
124.301361
 20
11.027228
 30
0.0
 11
127.915842
 21
13.600248
 31
0.0
  0
LINE
  5
44F
330
1F
100
AcDbEntity
  8
101
  6
Continuous
 62
     7
370
    30
100
AcDbLine
 10
120.441832
 20
8.454208
 30
0.0
 11
124.301361
 21
11.027228
 31
0.0
  0
LINE
  5
450
330
1F
100
AcDbEntity
  8
101
  6
Continuous
 62
     7
370
    30
100
AcDbLine
 10
114.805693
 20
5.14604
 30
0.0
 11
120.441832
 21
8.454208
 31
0.0
  0
LINE
  5
451
330
1F
100
AcDbEntity
  8
101
  6
Continuous
 62
     7
370
    30
100
AcDbLine
 10
109.169554
 20
3.001856
 30
0.0
 11
114.805693
 21
5.14604
 31
0.0
  0
LINE
  5
452
330
1F
100
AcDbEntity
  8
101
  6
Continuous
 62
     7
370
    30
100
AcDbLine
 10
103.655941
 20
1.837871
 30
0.0
 11
109.169554
 21
3.001856
 31
0.0
  0
LINE
  5
453
330
1F
100
AcDbEntity
  8
101
  6
Continuous
 62
     7
370
    30
100
AcDbLine
 10
101.266708
 20
1.654084
 30
0.0
 11
103.655941
 21
1.837871
 31
0.0
  0
LINE
  5
454
330
1F
100
AcDbEntity
  8
101
  6
Continuous
 62
     7
370
    30
100
AcDbLine
 10
100.531559
 20
2.205446
 30
0.0
 11
101.266708
 21
1.654084
 31
0.0
  0
LINE
  5
455
330
1F
100
AcDbEntity
  8
101
  6
Continuous
 62
     7
370
    30
100
AcDbLine
 10
99.122525
 20
3.491955
 30
0.0
 11
100.531559
 21
2.205446
 31
0.0
  0
LINE
  5
456
330
1F
100
AcDbEntity
  8
101
  6
Continuous
 62
     7
370
    30
100
AcDbLine
 10
97.100866
 20
3.920792
 30
0.0
 11
99.122525
 21
3.491955
 31
0.0
  0
LINE
  5
457
330
1F
100
AcDbEntity
  8
101
  6
Continuous
 62
     7
370
    30
100
AcDbLine
 10
46.069307
 20
46.314356
 30
0.0
 11
45.836483
 21
51.048966
 31
0.0
  0
LINE
  5
458
330
1F
100
AcDbEntity
  8
101
  6
Continuous
 62
     7
370
    30
100
AcDbLine
 10
46.92698
 20
42.332302
 30
0.0
 11
46.069307
 21
46.314356
 31
0.0
  0
LINE
  5
459
330
1F
100
AcDbEntity
  8
101
  6
Continuous
 62
     7
370
    30
100
AcDbLine
 10
48.029703
 20
37.247525
 30
0.0
 11
46.92698
 21
42.332302
 31
0.0
  0
LINE
  5
45A
330
1F
100
AcDbEntity
  8
101
  6
Continuous
 62
     7
370
    30
100
AcDbLine
 10
49.5
 20
33.142946
 30
0.0
 11
48.029703
 21
37.247525
 31
0.0
  0
LINE
  5
45B
330
1F
100
AcDbEntity
  8
101
  6
Continuous
 62
     7
370
    30
100
AcDbLine
 10
51.521658
 20
28.977104
 30
0.0
 11
49.5
 21
33.142946
 31
0.0
  0
LINE
  5
45C
330
1F
100
AcDbEntity
  8
101
  6
Continuous
 62
     7
370
    30
100
AcDbLine
 10
53.910891
 20
24.566213
 30
0.0
 11
51.521658
 21
28.977104
 31
0.0
  0
LINE
  5
45D
330
1F
100
AcDbEntity
  8
101
  6
Continuous
 62
     7
370
    30
100
AcDbLine
 10
56.545173
 20
20.951733
 30
0.0
 11
53.910891
 21
24.566213
 31
0.0
  0
LINE
  5
45E
330
1F
100
AcDbEntity
  8
101
  6
Continuous
 62
     7
370
    30
100
AcDbLine
 10
59.30198
 20
17.092203
 30
0.0
 11
56.545173
 21
20.951733
 31
0.0
  0
LINE
  5
45F
330
1F
100
AcDbEntity
  8
101
  6
Continuous
 62
     7
370
    30
100
AcDbLine
 10
62.365099
 20
13.845297
 30
0.0
 11
59.30198
 21
17.092203
 31
0.0
  0
LINE
  5
460
330
1F
100
AcDbEntity
  8
101
  6
Continuous
 62
     7
370
    30
100
AcDbLine
 10
67.143564
 20
9.434406
 30
0.0
 11
62.365099
 21
13.845297
 31
0.0
  0
LINE
  5
461
330
1F
100
AcDbEntity
  8
101
  6
Continuous
 62
     7
370
    30
100
AcDbLine
 10
70.758045
 20
6.738861
 30
0.0
 11
67.143564
 21
9.434406
 31
0.0
  0
LINE
  5
462
330
1F
100
AcDbEntity
  8
101
  6
Continuous
 62
     7
370
    30
100
AcDbLine
 10
74.433787
 20
4.227104
 30
0.0
 11
70.758045
 21
6.738861
 31
0.0
  0
LINE
  5
463
330
1F
100
AcDbEntity
  8
101
  6
Continuous
 62
     7
370
    30
100
AcDbLine
 10
78.722153
 20
1.960396
 30
0.0
 11
74.433787
 21
4.227104
 31
0.0
  0
LINE
  5
464
330
1F
100
AcDbEntity
  8
101
  6
Continuous
 62
     7
370
    30
100
AcDbLine
 10
84.113243
 20
0.0
 30
0.0
 11
78.722153
 21
1.960396
 31
0.0
  0
LINE
  5
465
330
1F
100
AcDbEntity
  8
101
  6
Continuous
 62
     7
370
    30
100
AcDbLine
 10
89.504332
 20
-1.776609
 30
0.0
 11
84.113243
 21
0.0
 31
0.0
  0
LINE
  5
466
330
1F
100
AcDbEntity
  8
101
  6
Continuous
 62
     7
370
    30
100
AcDbLine
 10
93.323758
 20
-2.358699
 30
0.0
 11
89.504332
 21
-1.776609
 31
0.0
  0
LINE
  5
467
330
1F
100
AcDbEntity
  8
101
  6
Continuous
 62
     7
370
    30
100
AcDbLine
 10
87.850248
 20
3.063119
 30
0.0
 11
92.261139
 21
2.082921
 31
0.0
  0
LINE
  5
468
330
1F
100
AcDbEntity
  8
101
  6
Continuous
 62
     7
370
    30
100
AcDbLine
 10
85.093441
 20
3.920792
 30
0.0
 11
87.850248
 21
3.063119
 31
0.0
  0
LINE
  5
469
330
1F
100
AcDbEntity
  8
101
  6
Continuous
 62
     7
370
    30
100
AcDbLine
 10
82.214109
 20
4.962252
 30
0.0
 11
85.093441
 21
3.920792
 31
0.0
  0
LINE
  5
46A
330
1F
100
AcDbEntity
  8
101
  6
Continuous
 62
     7
370
    30
100
AcDbLine
 10
78.354579
 20
6.555074
 30
0.0
 11
82.214109
 21
4.962252
 31
0.0
  0
LINE
  5
46B
330
1F
100
AcDbEntity
  8
101
  6
Continuous
 62
     7
370
    30
100
AcDbLine
 10
74.617574
 20
8.576733
 30
0.0
 11
78.354579
 21
6.555074
 31
0.0
  0
LINE
  5
46C
330
1F
100
AcDbEntity
  8
101
  6
Continuous
 62
     7
370
    30
100
AcDbLine
 10
71.67698
 20
10.659653
 30
0.0
 11
74.617574
 21
8.576733
 31
0.0
  0
LINE
  5
46D
330
1F
100
AcDbEntity
  8
101
  6
Continuous
 62
     7
370
    30
100
AcDbLine
 10
68.613861
 20
13.232673
 30
0.0
 11
71.67698
 21
10.659653
 31
0.0
  0
LINE
  5
46E
330
1F
100
AcDbEntity
  8
101
  6
Continuous
 62
     7
370
    30
100
AcDbLine
 10
65.857054
 20
15.98948
 30
0.0
 11
68.613861
 21
13.232673
 31
0.0
  0
LINE
  5
46F
330
1F
100
AcDbEntity
  8
101
  6
Continuous
 62
     7
370
    30
100
AcDbLine
 10
63.038985
 20
18.868812
 30
0.0
 11
65.857054
 21
15.98948
 31
0.0
  0
LINE
  5
470
330
1F
100
AcDbEntity
  8
101
  6
Continuous
 62
     7
370
    30
100
AcDbLine
 10
60.282178
 20
22.42203
 30
0.0
 11
63.038985
 21
18.868812
 31
0.0
  0
LINE
  5
471
330
1F
100
AcDbEntity
  8
101
  6
Continuous
 62
     7
370
    30
100
AcDbLine
 10
57.647896
 20
26.281559
 30
0.0
 11
60.282178
 21
22.42203
 31
0.0
  0
LINE
  5
472
330
1F
100
AcDbEntity
  8
101
  6
Continuous
 62
     7
370
    30
100
AcDbLine
 10
54.891089
 20
30.814975
 30
0.0
 11
57.647896
 21
26.281559
 31
0.0
  0
LINE
  5
473
330
1F
100
AcDbEntity
  8
101
  6
Continuous
 62
     7
370
    30
100
AcDbLine
 10
53.35953
 20
34.061881
 30
0.0
 11
54.891089
 21
30.814975
 31
0.0
  0
LINE
  5
474
330
1F
100
AcDbEntity
  8
101
  6
Continuous
 62
     7
370
    30
100
AcDbLine
 10
51.889233
 20
38.105198
 30
0.0
 11
53.35953
 21
34.061881
 31
0.0
  0
LINE
  5
475
330
1F
100
AcDbEntity
  8
101
  6
Continuous
 62
     7
370
    30
100
AcDbLine
 10
50.663985
 20
41.842203
 30
0.0
 11
51.889233
 21
38.105198
 31
0.0
  0
LINE
  5
476
330
1F
100
AcDbEntity
  8
101
  6
Continuous
 62
     7
370
    30
100
AcDbLine
 10
49.74505
 20
45.579208
 30
0.0
 11
50.663985
 21
41.842203
 31
0.0
  0
LINE
  5
477
330
1F
100
AcDbEntity
  8
101
  6
Continuous
 62
     7
370
    30
100
AcDbLine
 10
49.344981
 20
50.066586
 30
0.0
 11
49.74505
 21
45.579208
 31
0.0
  0
LINE
  5
478
330
1F
100
AcDbEntity
  8
101
  6
Continuous
 62
     7
370
    30
100
AcDbLine
 10
53.298267
 20
47.907178
 30
0.0
 11
53.00025
 21
49.499914
 31
0.0
  0
LINE
  5
479
330
1F
100
AcDbEntity
  8
101
  6
Continuous
 62
     7
370
    30
100
AcDbLine
 10
54.462252
 20
43.55755
 30
0.0
 11
53.298267
 21
47.907178
 31
0.0
  0
LINE
  5
47A
330
1F
100
AcDbEntity
  8
101
  6
Continuous
 62
     7
370
    30
100
AcDbLine
 10
56.055074
 20
39.69802
 30
0.0
 11
54.462252
 21
43.55755
 31
0.0
  0
LINE
  5
47B
330
1F
100
AcDbEntity
  8
101
  6
Continuous
 62
     7
370
    30
100
AcDbLine
 10
57.647896
 20
35.961015
 30
0.0
 11
56.055074
 21
39.69802
 31
0.0
  0
LINE
  5
47C
330
1F
100
AcDbEntity
  8
101
  6
Continuous
 62
     7
370
    30
100
AcDbLine
 10
59.730817
 20
32.469059
 30
0.0
 11
57.647896
 21
35.961015
 31
0.0
  0
LINE
  5
47D
330
1F
100
AcDbEntity
  8
101
  6
Continuous
 62
     7
370
    30
100
AcDbLine
 10
62.732673
 20
28.119431
 30
0.0
 11
59.730817
 21
32.469059
 31
0.0
  0
LINE
  5
47E
330
1F
100
AcDbEntity
  8
101
  6
Continuous
 62
     7
370
    30
100
AcDbLine
 10
66.469678
 20
24.259901
 30
0.0
 11
62.732673
 21
28.119431
 31
0.0
  0
LINE
  5
47F
330
1F
100
AcDbEntity
  8
101
  6
Continuous
 62
     7
370
    30
100
AcDbLine
 10
70.941832
 20
20.645421
 30
0.0
 11
66.469678
 21
24.259901
 31
0.0
  0
LINE
  5
480
330
1F
100
AcDbEntity
  8
101
  6
Continuous
 62
     7
370
    30
100
AcDbLine
 10
75.781559
 20
17.766089
 30
0.0
 11
70.941832
 21
20.645421
 31
0.0
  0
LINE
  5
481
330
1F
100
AcDbEntity
  8
101
  6
Continuous
 62
     7
370
    30
100
AcDbLine
 10
81.233911
 20
15.131807
 30
0.0
 11
75.781559
 21
17.766089
 31
0.0
  0
LINE
  5
482
330
1F
100
AcDbEntity
  8
101
  6
Continuous
 62
     7
370
    30
100
AcDbLine
 10
86.87005
 20
13.232673
 30
0.0
 11
81.233911
 21
15.131807
 31
0.0
  0
LINE
  5
483
330
1F
100
AcDbEntity
  8
101
  6
Continuous
 62
     7
370
    30
100
AcDbLine
 10
91.029449
 20
12.25559
 30
0.0
 11
86.87005
 21
13.232673
 31
0.0
  0
LINE
  5
484
330
1F
100
AcDbEntity
  8
101
  6
Continuous
 62
     7
370
    30
100
AcDbLine
 10
94.895421
 20
21.441832
 30
0.0
 11
95.691832
 21
12.007426
 31
0.0
  0
LINE
  5
485
330
1F
100
AcDbEntity
  8
101
  6
Continuous
 62
     7
370
    30
100
AcDbLine
 10
94.466584
 20
28.548267
 30
0.0
 11
94.895421
 21
21.441832
 31
0.0
  0
LINE
  5
486
330
1F
100
AcDbEntity
  8
101
  6
Continuous
 62
     7
370
    30
100
AcDbLine
 10
94.282797
 20
37.921411
 30
0.0
 11
94.466584
 21
28.548267
 31
0.0
  0
LINE
  5
487
330
1F
100
AcDbEntity
  8
101
  6
Continuous
 62
     7
370
    30
100
AcDbLine
 10
94.068379
 20
47.845916
 30
0.0
 11
94.282797
 21
37.921411
 31
0.0
  0
LINE
  5
488
330
1F
100
AcDbEntity
  8
101
  6
Continuous
 62
     7
370
    30
100
AcDbLine
 10
89.320545
 20
38.288985
 30
0.0
 11
89.195358
 21
47.768566
 31
0.0
  0
LINE
  5
489
330
1F
100
AcDbEntity
  8
101
  6
Continuous
 62
     7
370
    30
100
AcDbLine
 10
89.749381
 20
30.263614
 30
0.0
 11
89.320545
 21
38.288985
 31
0.0
  0
LINE
  5
48A
330
1F
100
AcDbEntity
  8
101
  6
Continuous
 62
     7
370
    30
100
AcDbLine
 10
90.300743
 20
20.829208
 30
0.0
 11
89.749381
 21
30.263614
 31
0.0
  0
LINE
  5
48B
330
1F
100
AcDbEntity
  8
101
  6
Continuous
 62
     7
370
    30
100
AcDbLine
 10
90.852104
 20
15.376856
 30
0.0
 11
90.300743
 21
20.829208
 31
0.0
  0
LINE
  5
48C
330
1F
100
AcDbEntity
  8
101
  6
Continuous
 62
     7
370
    30
100
AcDbLine
 10
91.158416
 20
9.985767
 30
0.0
 11
90.852104
 21
15.376856
 31
0.0
  0
LINE
  5
48D
330
1F
100
AcDbEntity
  8
101
  6
Continuous
 62
     7
370
    30
100
AcDbLine
 10
91.709777
 20
5.881188
 30
0.0
 11
91.158416
 21
9.985767
 31
0.0
  0
LINE
  5
48E
330
1F
100
AcDbEntity
  8
101
  6
Continuous
 62
     7
370
    30
100
AcDbLine
 10
92.261139
 20
2.082921
 30
0.0
 11
91.709777
 21
5.881188
 31
0.0
  0
LINE
  5
48F
330
1F
100
AcDbEntity
  8
101
  6
Continuous
 62
     7
370
    30
100
AcDbLine
 10
92.996287
 20
-1.409035
 30
0.0
 11
92.261139
 21
2.082921
 31
0.0
  0
LINE
  5
490
330
1F
100
AcDbEntity
  8
101
  6
Continuous
 62
     7
370
    30
100
AcDbLine
 10
93.608911
 20
-3.185644
 30
0.0
 11
92.996287
 21
-1.409035
 31
0.0
  0
LINE
  5
491
330
1F
100
AcDbEntity
  8
101
  6
Continuous
 62
     7
370
    30
100
AcDbLine
 10
94.282797
 20
-5.023515
 30
0.0
 11
93.608911
 21
-3.185644
 31
0.0
  0
LINE
  5
492
330
1F
100
AcDbEntity
  8
101
  6
Continuous
 62
     7
370
    30
100
AcDbLine
 10
95.875619
 20
-5.609038
 30
0.0
 11
94.282797
 21
-5.023515
 31
0.0
  0
LINE
  5
493
330
1F
100
AcDbEntity
  8
101
  6
Continuous
 62
     7
370
    30
100
AcDbLine
 10
98.081064
 20
-5.084777
 30
0.0
 11
95.875619
 21
-5.609038
 31
0.0
  0
LINE
  5
494
330
1F
100
AcDbEntity
  8
101
  6
Continuous
 62
     7
370
    30
100
AcDbLine
 10
98.693688
 20
-3.737005
 30
0.0
 11
98.081064
 21
-5.084777
 31
0.0
  0
LINE
  5
495
330
1F
100
AcDbEntity
  8
101
  6
Continuous
 62
     7
370
    30
100
AcDbLine
 10
99.306312
 20
-1.531559
 30
0.0
 11
98.693688
 21
-3.737005
 31
0.0
  0
LINE
  5
496
330
1F
100
AcDbEntity
  8
101
  6
Continuous
 62
     7
370
    30
100
AcDbLine
 10
101.021658
 20
3.85953
 30
0.0
 11
100.531559
 21
2.205446
 31
0.0
  0
LINE
  5
497
330
1F
100
AcDbEntity
  8
101
  6
Continuous
 62
     7
370
    30
100
AcDbLine
 10
101.511757
 20
6.861386
 30
0.0
 11
101.021658
 21
3.85953
 31
0.0
  0
LINE
  5
498
330
1F
100
AcDbEntity
  8
101
  6
Continuous
 62
     7
370
    30
100
AcDbLine
 10
101.756807
 20
9.434406
 30
0.0
 11
101.511757
 21
6.861386
 31
0.0
  0
LINE
  5
499
330
1F
100
AcDbEntity
  8
101
  6
Continuous
 62
     7
370
    30
100
AcDbLine
 10
101.946904
 20
12.671058
 30
0.0
 11
101.756807
 21
9.434406
 31
0.0
  0
LINE
  5
49A
330
1F
100
AcDbEntity
  8
101
  6
Continuous
 62
     7
370
    30
100
AcDbLine
 10
98.081064
 20
10.843441
 30
0.0
 11
98.20551
 21
12.230864
 31
0.0
  0
LINE
  5
49B
330
1F
100
AcDbEntity
  8
101
  6
Continuous
 62
     7
370
    30
100
AcDbLine
 10
97.836015
 20
8.086634
 30
0.0
 11
98.081064
 21
10.843441
 31
0.0
  0
LINE
  5
49C
330
1F
100
AcDbEntity
  8
101
  6
Continuous
 62
     7
370
    30
100
AcDbLine
 10
97.529703
 20
5.636139
 30
0.0
 11
97.836015
 21
8.086634
 31
0.0
  0
LINE
  5
49D
330
1F
100
AcDbEntity
  8
101
  6
Continuous
 62
     7
370
    30
100
AcDbLine
 10
97.100866
 20
3.920792
 30
0.0
 11
97.529703
 21
5.636139
 31
0.0
  0
LINE
  5
49E
330
1F
100
AcDbEntity
  8
101
  6
Continuous
 62
     7
370
    30
100
AcDbLine
 10
96.488243
 20
3.85953
 30
0.0
 11
97.100866
 21
3.920792
 31
0.0
  0
LINE
  5
49F
330
1F
100
AcDbEntity
  8
101
  6
Continuous
 62
     7
370
    30
100
AcDbLine
 10
96.059406
 20
5.636139
 30
0.0
 11
96.488243
 21
3.85953
 31
0.0
  0
LINE
  5
4A0
330
1F
100
AcDbEntity
  8
101
  6
Continuous
 62
     7
370
    30
100
AcDbLine
 10
95.691832
 20
8.944307
 30
0.0
 11
96.059406
 21
5.636139
 31
0.0
  0
LINE
  5
4A1
330
1F
100
AcDbEntity
  8
101
  6
Continuous
 62
     7
370
    30
100
AcDbLine
 10
95.691832
 20
12.007426
 30
0.0
 11
95.691832
 21
8.944307
 31
0.0
  0
LINE
  5
4A2
330
1F
100
AcDbEntity
  8
101
  6
Continuous
 62
     7
370
    30
100
AcDbLine
 10
101.205446
 20
12.497525
 30
0.0
 11
95.691832
 21
12.007426
 31
0.0
  0
LINE
  5
4A3
330
1F
100
AcDbEntity
  8
101
  6
Continuous
 62
     7
370
    30
100
AcDbLine
 10
106.964109
 20
13.845297
 30
0.0
 11
101.205446
 21
12.497525
 31
0.0
  0
LINE
  5
4A4
330
1F
100
AcDbEntity
  8
101
  6
Continuous
 62
     7
370
    30
100
AcDbLine
 10
112.232673
 20
14.94802
 30
0.0
 11
106.964109
 21
13.845297
 31
0.0
  0
LINE
  5
4A5
330
1F
100
AcDbEntity
  8
101
  6
Continuous
 62
     7
370
    30
100
AcDbLine
 10
117.746287
 20
17.030941
 30
0.0
 11
112.232673
 21
14.94802
 31
0.0
  0
LINE
  5
4A6
330
1F
100
AcDbEntity
  8
101
  6
Continuous
 62
     7
370
    30
100
AcDbLine
 10
123.382426
 20
20.706683
 30
0.0
 11
117.746287
 21
17.030941
 31
0.0
  0
LINE
  5
4A7
330
1F
100
AcDbEntity
  8
101
  6
Continuous
 62
     7
370
    30
100
AcDbLine
 10
128.038366
 20
24.259901
 30
0.0
 11
123.382426
 21
20.706683
 31
0.0
  0
LINE
  5
4A8
330
1F
100
AcDbEntity
  8
101
  6
Continuous
 62
     7
370
    30
100
AcDbLine
 10
132.939356
 20
29.89604
 30
0.0
 11
128.038366
 21
24.259901
 31
0.0
  0
LINE
  5
4A9
330
1F
100
AcDbEntity
  8
101
  6
Continuous
 62
     7
370
    30
100
AcDbLine
 10
136.615099
 20
35.654703
 30
0.0
 11
132.939356
 21
29.89604
 31
0.0
  0
LINE
  5
4AA
330
1F
100
AcDbEntity
  8
101
  6
Continuous
 62
     7
370
    30
100
AcDbLine
 10
139.555693
 20
41.780941
 30
0.0
 11
136.615099
 21
35.654703
 31
0.0
  0
LINE
  5
4AB
330
1F
100
AcDbEntity
  8
101
  6
Continuous
 62
     7
370
    30
100
AcDbLine
 10
141.223615
 20
50.523631
 30
0.0
 11
139.555693
 21
41.780941
 31
0.0
  0
LINE
  5
4AC
330
1F
100
AcDbEntity
  8
101
  6
Continuous
 62
     7
370
    30
100
AcDbLine
 10
151.07302
 20
74.617574
 30
0.0
 11
151.164913
 21
58.505569
 31
0.0
  0
LINE
  5
4AD
330
1F
100
AcDbEntity
  8
101
  6
Continuous
 62
     7
370
    30
100
AcDbLine
 10
150.31199
 20
105.27547
 30
0.0
 11
151.07302
 21
74.617574
 31
0.0
  0
LINE
  5
4AE
330
1F
100
AcDbEntity
  8
101
  6
Continuous
 62
     7
370
    30
100
AcDbLine
 10
142.006188
 20
56.483911
 30
0.0
 11
142.373762
 21
60.649752
 31
0.0
  0
LINE
  5
4AF
330
1F
100
AcDbEntity
  8
101
  6
Continuous
 62
     7
370
    30
100
AcDbLine
 10
141.758651
 20
53.700671
 30
0.0
 11
142.006188
 21
56.483911
 31
0.0
  0
LINE
  5
4B0
330
1F
100
AcDbEntity
  8
101
  6
Continuous
 62
     7
370
    30
100
AcDbLine
 10
147.45854
 20
56.116337
 30
0.0
 11
148.438738
 21
54.737933
 31
0.0
  0
LINE
  5
4B1
330
1F
100
AcDbEntity
  8
101
  6
Continuous
 62
     7
370
    30
100
AcDbLine
 10
146.600866
 20
58.321782
 30
0.0
 11
147.45854
 21
56.116337
 31
0.0
  0
LINE
  5
4B2
330
1F
100
AcDbEntity
  8
101
  6
Continuous
 62
     7
370
    30
100
AcDbLine
 10
146.417079
 20
59.669554
 30
0.0
 11
146.600866
 21
58.321782
 31
0.0
  0
LINE
  5
4B3
330
1F
100
AcDbEntity
  8
101
  6
Continuous
 62
     7
370
    30
100
AcDbLine
 10
145.681931
 20
104.329827
 30
0.0
 11
146.113103
 21
105.059773
 31
0.0
  0
LINE
  5
4B4
330
1F
100
AcDbEntity
  8
101
  6
Continuous
 62
     7
370
    30
100
AcDbLine
 10
145.681931
 20
104.329827
 30
0.0
 11
142.128713
 21
103.778465
 31
0.0
  0
LINE
  5
4B5
330
1F
100
AcDbEntity
  8
101
  6
Continuous
 62
     7
370
    30
100
AcDbLine
 10
145.681931
 20
102.553218
 30
0.0
 11
145.681931
 21
104.329827
 31
0.0
  0
LINE
  5
4B6
330
1F
100
AcDbEntity
  8
101
  6
Continuous
 62
     7
370
    30
100
AcDbLine
 10
145.681931
 20
101.32797
 30
0.0
 11
145.681931
 21
102.553218
 31
0.0
  0
LINE
  5
4B7
330
1F
100
AcDbEntity
  8
101
  6
Continuous
 62
     7
370
    30
100
AcDbLine
 10
146.784653
 20
100.347772
 30
0.0
 11
145.681931
 21
101.32797
 31
0.0
  0
LINE
  5
4B8
330
1F
100
AcDbEntity
  8
101
  6
Continuous
 62
     7
370
    30
100
AcDbLine
 10
147.274752
 20
60.772277
 30
0.0
 11
146.784653
 21
100.347772
 31
0.0
  0
LINE
  5
4B9
330
1F
100
AcDbEntity
  8
101
  6
Continuous
 62
     7
370
    30
100
AcDbLine
 10
146.417079
 20
59.669554
 30
0.0
 11
147.274752
 21
60.772277
 31
0.0
  0
LINE
  5
4BA
330
1F
100
AcDbEntity
  8
101
  6
Continuous
 62
     7
370
    30
100
AcDbLine
 10
144.456683
 20
58.934406
 30
0.0
 11
146.417079
 21
59.669554
 31
0.0
  0
LINE
  5
4BB
330
1F
100
AcDbEntity
  8
101
  6
Continuous
 62
     7
370
    30
100
AcDbLine
 10
142.373762
 20
60.649752
 30
0.0
 11
144.456683
 21
58.934406
 31
0.0
  0
LINE
  5
4BC
330
1F
100
AcDbEntity
  8
101
  6
Continuous
 62
     7
370
    30
100
AcDbLine
 10
142.251238
 20
87.237624
 30
0.0
 11
142.373762
 21
60.649752
 31
0.0
  0
LINE
  5
4BD
330
1F
100
AcDbEntity
  8
101
  6
Continuous
 62
     7
370
    30
100
AcDbLine
 10
142.128713
 20
103.778465
 30
0.0
 11
142.251238
 21
87.237624
 31
0.0
  0
LINE
  5
4BE
330
1F
100
AcDbEntity
  8
101
  6
Continuous
 62
     7
370
    30
100
AcDbLine
 10
93.302599
 20
96.42698
 30
0.0
 11
93.059417
 21
104.937559
 31
0.0
  0
LINE
  5
4BF
330
1F
100
AcDbEntity
  8
101
  6
Continuous
 62
     7
370
    30
100
AcDbLine
 10
93.363861
 20
83.684406
 30
0.0
 11
93.302599
 21
96.42698
 31
0.0
  0
LINE
  5
4C0
330
1F
100
AcDbEntity
  8
101
  6
Continuous
 62
     7
370
    30
100
AcDbLine
 10
93.976485
 20
69.961634
 30
0.0
 11
93.363861
 21
83.684406
 31
0.0
  0
LINE
  5
4C1
330
1F
100
AcDbEntity
  8
101
  6
Continuous
 62
     7
370
    30
100
AcDbLine
 10
93.976485
 20
51.460396
 30
0.0
 11
93.976485
 21
69.961634
 31
0.0
  0
LINE
  5
4C2
330
1F
100
AcDbEntity
  8
101
  6
Continuous
 62
     7
370
    30
100
AcDbLine
 10
88.830446
 20
58.505569
 30
0.0
 11
88.95297
 21
51.337871
 31
0.0
  0
LINE
  5
4C3
330
1F
100
AcDbEntity
  8
101
  6
Continuous
 62
     7
370
    30
100
AcDbLine
 10
88.891708
 20
62.855198
 30
0.0
 11
88.830446
 21
58.505569
 31
0.0
  0
LINE
  5
4C4
330
1F
100
AcDbEntity
  8
101
  6
Continuous
 62
     7
370
    30
100
AcDbLine
 10
88.524134
 20
74.678837
 30
0.0
 11
88.891708
 21
62.855198
 31
0.0
  0
LINE
  5
4C5
330
1F
100
AcDbEntity
  8
101
  6
Continuous
 62
     7
370
    30
100
AcDbLine
 10
88.524134
 20
83.500619
 30
0.0
 11
88.524134
 21
74.678837
 31
0.0
  0
LINE
  5
4C6
330
1F
100
AcDbEntity
  8
101
  6
Continuous
 62
     7
370
    30
100
AcDbLine
 10
88.585396
 20
93.241337
 30
0.0
 11
88.524134
 21
83.500619
 31
0.0
  0
LINE
  5
4C7
330
1F
100
AcDbEntity
  8
101
  6
Continuous
 62
     7
370
    30
100
AcDbLine
 10
88.769183
 20
99.306312
 30
0.0
 11
88.585396
 21
93.241337
 31
0.0
  0
LINE
  5
4C8
330
1F
100
AcDbEntity
  8
101
  6
Continuous
 62
     7
370
    30
100
AcDbLine
 10
88.14671
 20
104.968791
 30
0.0
 11
88.769183
 21
99.306312
 31
0.0
  0
LINE
  5
4C9
330
1F
100
AcDbEntity
  8
101
  6
Continuous
 62
     7
370
    30
100
AcDbLine
 10
44.108911
 20
71.92203
 30
0.0
 11
44.445854
 21
57.035272
 31
0.0
  0
LINE
  5
4CA
330
1F
100
AcDbEntity
  8
101
  6
Continuous
 62
     7
370
    30
100
AcDbLine
 10
44.476485
 20
80.743812
 30
0.0
 11
44.108911
 21
71.92203
 31
0.0
  0
LINE
  5
4CB
330
1F
100
AcDbEntity
  8
101
  6
Continuous
 62
     7
370
    30
100
AcDbLine
 10
44.59901
 20
92.138614
 30
0.0
 11
44.476485
 21
80.743812
 31
0.0
  0
LINE
  5
4CC
330
1F
100
AcDbEntity
  8
101
  6
Continuous
 62
     7
370
    30
100
AcDbLine
 10
44.905322
 20
103.043317
 30
0.0
 11
44.59901
 21
92.138614
 31
0.0
  0
LINE
  5
4CD
330
1F
100
AcDbEntity
  8
101
  6
Continuous
 62
     7
370
    30
100
AcDbLine
 10
51.705446
 20
65.183168
 30
0.0
 11
51.950495
 21
58.076733
 31
0.0
  0
LINE
  5
4CE
330
1F
100
AcDbEntity
  8
101
  6
Continuous
 62
     7
370
    30
100
AcDbLine
 10
51.215347
 20
73.759901
 30
0.0
 11
51.705446
 21
65.183168
 31
0.0
  0
LINE
  5
4CF
330
1F
100
AcDbEntity
  8
101
  6
Continuous
 62
     7
370
    30
100
AcDbLine
 10
51.215347
 20
89.320545
 30
0.0
 11
51.215347
 21
73.759901
 31
0.0
  0
LINE
  5
4D0
330
1F
100
AcDbEntity
  8
101
  6
Continuous
 62
     7
370
    30
100
AcDbLine
 10
51.092822
 20
101.818069
 30
0.0
 11
51.215347
 21
89.320545
 31
0.0
  0
LINE
  5
4D1
330
1F
100
AcDbEntity
  8
101
  6
Continuous
 62
     7
370
    30
100
AcDbLine
 10
49.622525
 20
101.205446
 30
0.0
 11
51.092822
 21
101.818069
 31
0.0
  0
LINE
  5
4D2
330
1F
100
AcDbEntity
  8
101
  6
Continuous
 62
     7
370
    30
100
AcDbLine
 10
48.152228
 20
98.387376
 30
0.0
 11
49.622525
 21
101.205446
 31
0.0
  0
LINE
  5
4D3
330
1F
100
AcDbEntity
  8
101
  6
Continuous
 62
     7
370
    30
100
AcDbLine
 10
48.029703
 20
96.059406
 30
0.0
 11
48.152228
 21
98.387376
 31
0.0
  0
LINE
  5
4D4
330
1F
100
AcDbEntity
  8
101
  6
Continuous
 62
     7
370
    30
100
AcDbLine
 10
48.029703
 20
79.886139
 30
0.0
 11
48.029703
 21
96.059406
 31
0.0
  0
LINE
  5
4D5
330
1F
100
AcDbEntity
  8
101
  6
Continuous
 62
     7
370
    30
100
AcDbLine
 10
48.029703
 20
60.894802
 30
0.0
 11
48.029703
 21
79.886139
 31
0.0
  0
LINE
  5
4D6
330
1F
100
AcDbEntity
  8
101
  6
Continuous
 62
     7
370
    30
100
AcDbLine
 10
49.25495
 20
59.54703
 30
0.0
 11
48.029703
 21
60.894802
 31
0.0
  0
LINE
  5
4D7
330
1F
100
AcDbEntity
  8
101
  6
Continuous
 62
     7
370
    30
100
AcDbLine
 10
49.25495
 20
56.361386
 30
0.0
 11
49.25495
 21
59.54703
 31
0.0
  0
LINE
  5
4D8
330
1F
100
AcDbEntity
  8
101
  6
Continuous
 62
     7
370
    30
100
AcDbLine
 10
47.17203
 20
55.381188
 30
0.0
 11
49.25495
 21
56.361386
 31
0.0
  0
LINE
  5
4D9
330
1F
100
AcDbEntity
  8
101
  6
Continuous
 62
     7
370
    30
100
AcDbLine
 10
44.844059
 20
55.871287
 30
0.0
 11
47.17203
 21
55.381188
 31
0.0
  0
LINE
  5
4DA
330
1F
100
AcDbEntity
  8
101
  6
Continuous
 62
     7
370
    30
100
AcDbLine
 10
132.326733
 20
51.705446
 30
0.0
 11
139.793535
 21
53.449621
 31
0.0
  0
LINE
  5
4DB
330
1F
100
AcDbEntity
  8
101
  6
Continuous
 62
     7
370
    30
100
AcDbLine
 10
125.342822
 20
51.215347
 30
0.0
 11
132.326733
 21
51.705446
 31
0.0
  0
LINE
  5
4DC
330
1F
100
AcDbEntity
  8
101
  6
Continuous
 62
     7
370
    30
100
AcDbLine
 10
117.256188
 20
50.725248
 30
0.0
 11
125.342822
 21
51.215347
 31
0.0
  0
LINE
  5
4DD
330
1F
100
AcDbEntity
  8
101
  6
Continuous
 62
     7
370
    30
100
AcDbLine
 10
108.679455
 20
50.602723
 30
0.0
 11
117.256188
 21
50.725248
 31
0.0
  0
LINE
  5
4DE
330
1F
100
AcDbEntity
  8
101
  6
Continuous
 62
     7
370
    30
100
AcDbLine
 10
101.818069
 20
50.357673
 30
0.0
 11
108.679455
 21
50.602723
 31
0.0
  0
LINE
  5
4DF
330
1F
100
AcDbEntity
  8
101
  6
Continuous
 62
     7
370
    30
100
AcDbLine
 10
91.893564
 20
50.480198
 30
0.0
 11
101.818069
 21
50.357673
 31
0.0
  0
LINE
  5
4E0
330
1F
100
AcDbEntity
  8
101
  6
Continuous
 62
     7
370
    30
100
AcDbLine
 10
85.032178
 20
50.112624
 30
0.0
 11
91.893564
 21
50.480198
 31
0.0
  0
LINE
  5
4E1
330
1F
100
AcDbEntity
  8
101
  6
Continuous
 62
     7
370
    30
100
AcDbLine
 10
75.230198
 20
50.602723
 30
0.0
 11
85.032178
 21
50.112624
 31
0.0
  0
LINE
  5
4E2
330
1F
100
AcDbEntity
  8
101
  6
Continuous
 62
     7
370
    30
100
AcDbLine
 10
66.163366
 20
50.970297
 30
0.0
 11
75.230198
 21
50.602723
 31
0.0
  0
LINE
  5
4E3
330
1F
100
AcDbEntity
  8
101
  6
Continuous
 62
     7
370
    30
100
AcDbLine
 10
56.483911
 20
51.705446
 30
0.0
 11
66.163366
 21
50.970297
 31
0.0
  0
LINE
  5
4E4
330
1F
100
AcDbEntity
  8
101
  6
Continuous
 62
     7
370
    30
100
AcDbLine
 10
49.990099
 20
52.318069
 30
0.0
 11
56.483911
 21
51.705446
 31
0.0
  0
LINE
  5
4E5
330
1F
100
AcDbEntity
  8
101
  6
Continuous
 62
     7
370
    30
100
AcDbLine
 10
46.069307
 20
52.930693
 30
0.0
 11
49.990099
 21
52.318069
 31
0.0
  0
LINE
  5
4E6
330
1F
100
AcDbEntity
  8
101
  6
Continuous
 62
     7
370
    30
100
AcDbLine
 10
42.135722
 20
54.449099
 30
0.0
 11
46.069307
 21
52.930693
 31
0.0
  0
LINE
  5
4E7
330
1F
100
AcDbEntity
  8
101
  6
Continuous
 62
     7
370
    30
100
AcDbLine
 10
51.950495
 20
58.076733
 30
0.0
 11
49.132426
 21
58.199257
 31
0.0
  0
LINE
  5
4E8
330
1F
100
AcDbEntity
  8
101
  6
Continuous
 62
     7
370
    30
100
AcDbLine
 10
51.950495
 20
55.748762
 30
0.0
 11
51.950495
 21
58.076733
 31
0.0
  0
LINE
  5
4E9
330
1F
100
AcDbEntity
  8
101
  6
Continuous
 62
     7
370
    30
100
AcDbLine
 10
51.460396
 20
54.768564
 30
0.0
 11
51.950495
 21
55.748762
 31
0.0
  0
LINE
  5
4EA
330
1F
100
AcDbEntity
  8
101
  6
Continuous
 62
     7
370
    30
100
AcDbLine
 10
53.788366
 20
53.298267
 30
0.0
 11
51.460396
 21
54.768564
 31
0.0
  0
LINE
  5
4EB
330
1F
100
AcDbEntity
  8
101
  6
Continuous
 62
     7
370
    30
100
AcDbLine
 10
58.689356
 20
52.930693
 30
0.0
 11
53.788366
 21
53.298267
 31
0.0
  0
LINE
  5
4EC
330
1F
100
AcDbEntity
  8
101
  6
Continuous
 62
     7
370
    30
100
AcDbLine
 10
66.408416
 20
52.318069
 30
0.0
 11
58.689356
 21
52.930693
 31
0.0
  0
LINE
  5
4ED
330
1F
100
AcDbEntity
  8
101
  6
Continuous
 62
     7
370
    30
100
AcDbLine
 10
75.720297
 20
51.705446
 30
0.0
 11
66.408416
 21
52.318069
 31
0.0
  0
LINE
  5
4EE
330
1F
100
AcDbEntity
  8
101
  6
Continuous
 62
     7
370
    30
100
AcDbLine
 10
85.767327
 20
51.337871
 30
0.0
 11
75.720297
 21
51.705446
 31
0.0
  0
LINE
  5
4EF
330
1F
100
AcDbEntity
  8
101
  6
Continuous
 62
     7
370
    30
100
AcDbLine
 10
88.95297
 20
51.337871
 30
0.0
 11
85.767327
 21
51.337871
 31
0.0
  0
LINE
  5
4F0
330
1F
100
AcDbEntity
  8
101
  6
Continuous
 62
     7
370
    30
100
AcDbLine
 10
90.300743
 20
50.480198
 30
0.0
 11
88.95297
 21
51.337871
 31
0.0
  0
LINE
  5
4F1
330
1F
100
AcDbEntity
  8
101
  6
Continuous
 62
     7
370
    30
100
AcDbLine
 10
91.893564
 20
50.480198
 30
0.0
 11
90.300743
 21
50.480198
 31
0.0
  0
LINE
  5
4F2
330
1F
100
AcDbEntity
  8
101
  6
Continuous
 62
     7
370
    30
100
AcDbLine
 10
93.976485
 20
51.460396
 30
0.0
 11
91.893564
 21
50.480198
 31
0.0
  0
LINE
  5
4F3
330
1F
100
AcDbEntity
  8
101
  6
Continuous
 62
     7
370
    30
100
AcDbLine
 10
98.75495
 20
51.460396
 30
0.0
 11
93.976485
 21
51.460396
 31
0.0
  0
LINE
  5
4F4
330
1F
100
AcDbEntity
  8
101
  6
Continuous
 62
     7
370
    30
100
AcDbLine
 10
104.14604
 20
51.82797
 30
0.0
 11
98.75495
 21
51.460396
 31
0.0
  0
LINE
  5
4F5
330
1F
100
AcDbEntity
  8
101
  6
Continuous
 62
     7
370
    30
100
AcDbLine
 10
110.762376
 20
51.950495
 30
0.0
 11
104.14604
 21
51.82797
 31
0.0
  0
LINE
  5
4F6
330
1F
100
AcDbEntity
  8
101
  6
Continuous
 62
     7
370
    30
100
AcDbLine
 10
117.623762
 20
52.195545
 30
0.0
 11
110.762376
 21
51.950495
 31
0.0
  0
LINE
  5
4F7
330
1F
100
AcDbEntity
  8
101
  6
Continuous
 62
     7
370
    30
100
AcDbLine
 10
123.872525
 20
52.440594
 30
0.0
 11
117.623762
 21
52.195545
 31
0.0
  0
LINE
  5
4F8
330
1F
100
AcDbEntity
  8
101
  6
Continuous
 62
     7
370
    30
100
AcDbLine
 10
131.591584
 20
52.930693
 30
0.0
 11
123.872525
 21
52.440594
 31
0.0
  0
LINE
  5
4F9
330
1F
100
AcDbEntity
  8
101
  6
Continuous
 62
     7
370
    30
100
AcDbLine
 10
136.247525
 20
52.930693
 30
0.0
 11
131.591584
 21
52.930693
 31
0.0
  0
LINE
  5
4FA
330
1F
100
AcDbEntity
  8
101
  6
Continuous
 62
     7
370
    30
100
AcDbLine
 10
141.27104
 20
53.665842
 30
0.0
 11
136.247525
 21
52.930693
 31
0.0
  0
LINE
  5
4FB
330
1F
100
AcDbEntity
  8
101
  6
Continuous
 62
     7
370
    30
100
AcDbLine
 10
142.986386
 20
53.788366
 30
0.0
 11
141.27104
 21
53.665842
 31
0.0
  0
LINE
  5
4FC
330
1F
100
AcDbEntity
  8
101
  6
Continuous
 62
     7
370
    30
100
AcDbLine
 10
146.386448
 20
54.492884
 30
0.0
 11
142.986386
 21
53.788366
 31
0.0
  0
LINE
  5
4FD
330
1F
100
AcDbEntity
  8
101
  6
Continuous
 62
     7
370
    30
100
AcDbLine
 10
148.438738
 20
54.737933
 30
0.0
 11
146.386448
 21
54.492884
 31
0.0
  0
LINE
  5
4FE
330
1F
100
AcDbEntity
  8
101
  6
Continuous
 62
     7
370
    30
100
AcDbLine
 10
150.399134
 20
55.289295
 30
0.0
 11
148.438738
 21
54.737933
 31
0.0
  0
LINE
  5
4FF
330
1F
100
AcDbEntity
  8
101
  6
Continuous
 62
     7
370
    30
100
AcDbLine
 10
151.440594
 20
55.871287
 30
0.0
 11
150.399134
 21
55.289295
 31
0.0
  0
LINE
  5
500
330
1F
100
AcDbEntity
  8
101
  6
Continuous
 62
     7
370
    30
100
AcDbLine
 10
151.287438
 20
56.912748
 30
0.0
 11
151.440594
 21
55.871287
 31
0.0
  0
LINE
  5
501
330
1F
100
AcDbEntity
  8
101
  6
Continuous
 62
     7
370
    30
100
AcDbLine
 10
151.164913
 20
58.505569
 30
0.0
 11
151.287438
 21
56.912748
 31
0.0
  0
LINE
  5
502
330
1F
100
AcDbEntity
  8
101
  6
Continuous
 62
     7
370
    30
100
AcDbLine
 10
153.247834
 20
57.770421
 30
0.0
 11
151.164913
 21
58.505569
 31
0.0
  0
LINE
  5
503
330
1F
100
AcDbEntity
  8
101
  6
Continuous
 62
     7
370
    30
100
AcDbLine
 10
153.247834
 20
55.564975
 30
0.0
 11
153.247834
 21
57.770421
 31
0.0
  0
LINE
  5
504
330
1F
100
AcDbEntity
  8
101
  6
Continuous
 62
     7
370
    30
100
AcDbLine
 10
151.532488
 20
53.849629
 30
0.0
 11
153.247834
 21
55.564975
 31
0.0
  0
LINE
  5
505
330
1F
100
AcDbEntity
  8
101
  6
Continuous
 62
     7
370
    30
100
AcDbLine
 10
147.366646
 20
51.644183
 30
0.0
 11
151.532488
 21
53.849629
 31
0.0
  0
LINE
  5
506
330
1F
100
AcDbEntity
  8
101
  6
Continuous
 62
     7
370
    30
100
AcDbLine
 10
144.181002
 20
50.78651
 30
0.0
 11
147.366646
 21
51.644183
 31
0.0
  0
LINE
  5
507
330
1F
100
AcDbEntity
  8
101
  6
Continuous
 62
     7
370
    30
100
AcDbLine
 10
138.667389
 20
50.296411
 30
0.0
 11
144.181002
 21
50.78651
 31
0.0
  0
LINE
  5
508
330
1F
100
AcDbEntity
  8
101
  6
Continuous
 62
     7
370
    30
100
AcDbLine
 10
130.70328
 20
49.438738
 30
0.0
 11
138.667389
 21
50.296411
 31
0.0
  0
LINE
  5
509
330
1F
100
AcDbEntity
  8
101
  6
Continuous
 62
     7
370
    30
100
AcDbLine
 10
122.371597
 20
48.948639
 30
0.0
 11
130.70328
 21
49.438738
 31
0.0
  0
LINE
  5
50A
330
1F
100
AcDbEntity
  8
101
  6
Continuous
 62
     7
370
    30
100
AcDbLine
 10
113.18224
 20
48.581064
 30
0.0
 11
122.371597
 21
48.948639
 31
0.0
  0
LINE
  5
50B
330
1F
100
AcDbEntity
  8
101
  6
Continuous
 62
     7
370
    30
100
AcDbLine
 10
103.13521
 20
48.090965
 30
0.0
 11
113.18224
 21
48.581064
 31
0.0
  0
LINE
  5
50C
330
1F
100
AcDbEntity
  8
101
  6
Continuous
 62
     7
370
    30
100
AcDbLine
 10
94.068379
 20
47.845916
 30
0.0
 11
103.13521
 21
48.090965
 31
0.0
  0
LINE
  5
50D
330
1F
100
AcDbEntity
  8
101
  6
Continuous
 62
     7
370
    30
100
AcDbLine
 10
86.349319
 20
47.723391
 30
0.0
 11
94.068379
 21
47.845916
 31
0.0
  0
LINE
  5
50E
330
1F
100
AcDbEntity
  8
101
  6
Continuous
 62
     7
370
    30
100
AcDbLine
 10
70.788676
 20
47.968441
 30
0.0
 11
86.349319
 21
47.723391
 31
0.0
  0
LINE
  5
50F
330
1F
100
AcDbEntity
  8
101
  6
Continuous
 62
     7
370
    30
100
AcDbLine
 10
57.065903
 20
48.948639
 30
0.0
 11
70.788676
 21
47.968441
 31
0.0
  0
LINE
  5
510
330
1F
100
AcDbEntity
  8
101
  6
Continuous
 62
     7
370
    30
100
AcDbLine
 10
49.836943
 20
49.928837
 30
0.0
 11
57.065903
 21
48.948639
 31
0.0
  0
LINE
  5
511
330
1F
100
AcDbEntity
  8
101
  6
Continuous
 62
     7
370
    30
100
AcDbLine
 10
43.710705
 20
51.644183
 30
0.0
 11
49.836943
 21
49.928837
 31
0.0
  0
LINE
  5
512
330
1F
100
AcDbEntity
  8
101
  6
Continuous
 62
     7
370
    30
100
AcDbLine
 10
41.995359
 20
52.624381
 30
0.0
 11
43.710705
 21
51.644183
 31
0.0
  0
LINE
  5
513
330
1F
100
AcDbEntity
  8
101
  6
Continuous
 62
     7
370
    30
100
AcDbLine
 10
42.240408
 20
55.810025
 30
0.0
 11
41.995359
 21
52.624381
 31
0.0
  0
LINE
  5
514
330
1F
100
AcDbEntity
  8
101
  6
Continuous
 62
     7
370
    30
100
AcDbLine
 10
44.445854
 20
57.035272
 30
0.0
 11
42.240408
 21
55.810025
 31
0.0
  0
LINE
  5
515
330
1F
100
AcDbEntity
  8
101
  6
Continuous
 62
     7
370
    30
100
AcDbLine
 10
75.934715
 20
163.141708
 30
0.0
 11
78.262686
 21
163.141708
 31
0.0
  0
LINE
  5
516
330
1F
100
AcDbEntity
  8
101
  6
Continuous
 62
     7
370
    30
100
AcDbLine
 10
70.421101
 20
162.896658
 30
0.0
 11
75.934715
 21
163.141708
 31
0.0
  0
LINE
  5
517
330
1F
100
AcDbEntity
  8
101
  6
Continuous
 62
     7
370
    30
100
AcDbLine
 10
65.030012
 20
162.406559
 30
0.0
 11
70.421101
 21
162.896658
 31
0.0
  0
LINE
  5
518
330
1F
100
AcDbEntity
  8
101
  6
Continuous
 62
     7
370
    30
100
AcDbLine
 10
59.0263
 20
161.91646
 30
0.0
 11
65.030012
 21
162.406559
 31
0.0
  0
LINE
  5
519
330
1F
100
AcDbEntity
  8
101
  6
Continuous
 62
     7
370
    30
100
AcDbLine
 10
51.797339
 20
160.936262
 30
0.0
 11
59.0263
 21
161.91646
 31
0.0
  0
LINE
  5
51A
330
1F
100
AcDbEntity
  8
101
  6
Continuous
 62
     7
370
    30
100
AcDbLine
 10
37.952042
 20
152.604579
 30
0.0
 11
39.17729
 21
151.624381
 31
0.0
  0
LINE
  5
51B
330
1F
100
AcDbEntity
  8
101
  6
Continuous
 62
     7
370
    30
100
AcDbLine
 10
36.849319
 20
154.6875
 30
0.0
 11
37.952042
 21
152.604579
 31
0.0
  0
LINE
  5
51C
330
1F
100
AcDbEntity
  8
101
  6
Continuous
 62
     7
370
    30
100
AcDbLine
 10
37.461943
 20
157.137995
 30
0.0
 11
36.849319
 21
154.6875
 31
0.0
  0
LINE
  5
51D
330
1F
100
AcDbEntity
  8
101
  6
Continuous
 62
     7
370
    30
100
AcDbLine
 10
40.034963
 20
158.975866
 30
0.0
 11
37.461943
 21
157.137995
 31
0.0
  0
LINE
  5
51E
330
1F
100
AcDbEntity
  8
101
  6
Continuous
 62
     7
370
    30
100
AcDbLine
 10
44.935953
 20
160.568688
 30
0.0
 11
40.034963
 21
158.975866
 31
0.0
  0
LINE
  5
51F
330
1F
100
AcDbEntity
  8
101
  6
Continuous
 62
     7
370
    30
100
AcDbLine
 10
40.525062
 20
151.930693
 30
0.0
 11
41.589731
 21
151.702789
 31
0.0
  0
LINE
  5
520
330
1F
100
AcDbEntity
  8
101
  6
Continuous
 62
     7
370
    30
100
AcDbLine
 10
39.238552
 20
153.217203
 30
0.0
 11
40.525062
 21
151.930693
 31
0.0
  0
LINE
  5
521
330
1F
100
AcDbEntity
  8
101
  6
Continuous
 62
     7
370
    30
100
AcDbLine
 10
39.422339
 20
155.545173
 30
0.0
 11
39.238552
 21
153.217203
 31
0.0
  0
LINE
  5
522
330
1F
100
AcDbEntity
  8
101
  6
Continuous
 62
     7
370
    30
100
AcDbLine
 10
41.137686
 20
157.689356
 30
0.0
 11
39.422339
 21
155.545173
 31
0.0
  0
LINE
  5
523
330
1F
100
AcDbEntity
  8
101
  6
Continuous
 62
     7
370
    30
100
AcDbLine
 10
44.323329
 20
159.220916
 30
0.0
 11
41.137686
 21
157.689356
 31
0.0
  0
LINE
  5
524
330
1F
100
AcDbEntity
  8
101
  6
Continuous
 62
     7
370
    30
100
AcDbLine
 10
48.366646
 20
160.201114
 30
0.0
 11
44.323329
 21
159.220916
 31
0.0
  0
LINE
  5
525
330
1F
100
AcDbEntity
  8
101
  6
Continuous
 62
     7
370
    30
100
AcDbLine
 10
111.89573
 20
161.977723
 30
0.0
 11
106.320854
 21
161.91646
 31
0.0
  0
LINE
  5
526
330
1F
100
AcDbEntity
  8
101
  6
Continuous
 62
     7
370
    30
100
AcDbLine
 10
119.492265
 20
161.487624
 30
0.0
 11
111.89573
 21
161.977723
 31
0.0
  0
LINE
  5
527
330
1F
100
AcDbEntity
  8
101
  6
Continuous
 62
     7
370
    30
100
AcDbLine
 10
128.007735
 20
160.752475
 30
0.0
 11
119.492265
 21
161.487624
 31
0.0
  0
LINE
  5
528
330
1F
100
AcDbEntity
  8
101
  6
Continuous
 62
     7
370
    30
100
AcDbLine
 10
135.236696
 20
160.201114
 30
0.0
 11
128.007735
 21
160.752475
 31
0.0
  0
LINE
  5
529
330
1F
100
AcDbEntity
  8
101
  6
Continuous
 62
     7
370
    30
100
AcDbLine
 10
141.117884
 20
159.282178
 30
0.0
 11
135.236696
 21
160.201114
 31
0.0
  0
LINE
  5
52A
330
1F
100
AcDbEntity
  8
101
  6
Continuous
 62
     7
370
    30
100
AcDbLine
 10
145.773824
 20
158.118193
 30
0.0
 11
141.117884
 21
159.282178
 31
0.0
  0
LINE
  5
52B
330
1F
100
AcDbEntity
  8
101
  6
Continuous
 62
     7
370
    30
100
AcDbLine
 10
149.510829
 20
156.770421
 30
0.0
 11
145.773824
 21
158.118193
 31
0.0
  0
LINE
  5
52C
330
1F
100
AcDbEntity
  8
101
  6
Continuous
 62
     7
370
    30
100
AcDbLine
 10
151.655012
 20
155.116337
 30
0.0
 11
149.510829
 21
156.770421
 31
0.0
  0
LINE
  5
52D
330
1F
100
AcDbEntity
  8
101
  6
Continuous
 62
     7
370
    30
100
AcDbLine
 10
151.716275
 20
153.40099
 30
0.0
 11
151.655012
 21
155.116337
 31
0.0
  0
LINE
  5
52E
330
1F
100
AcDbEntity
  8
101
  6
Continuous
 62
     7
370
    30
100
AcDbLine
 10
150.797339
 20
152.482054
 30
0.0
 11
151.716275
 21
153.40099
 31
0.0
  0
LINE
  5
52F
330
1F
100
AcDbEntity
  8
101
  6
Continuous
 62
     7
370
    30
100
AcDbLine
 10
155.422649
 20
154.473082
 30
0.0
 11
154.534344
 21
153.799196
 31
0.0
  0
LINE
  5
530
330
1F
100
AcDbEntity
  8
101
  6
Continuous
 62
     7
370
    30
100
AcDbLine
 10
156.402847
 20
155.392017
 30
0.0
 11
155.422649
 21
154.473082
 31
0.0
  0
LINE
  5
531
330
1F
100
AcDbEntity
  8
101
  6
Continuous
 62
     7
370
    30
100
AcDbLine
 10
156.617265
 20
156.464109
 30
0.0
 11
156.402847
 21
155.392017
 31
0.0
  0
LINE
  5
532
330
1F
100
AcDbEntity
  8
101
  6
Continuous
 62
     7
370
    30
100
AcDbLine
 10
155.269493
 20
158.669554
 30
0.0
 11
156.617265
 21
156.464109
 31
0.0
  0
LINE
  5
533
330
1F
100
AcDbEntity
  8
101
  6
Continuous
 62
     7
370
    30
100
AcDbLine
 10
151.716275
 20
160.017327
 30
0.0
 11
155.269493
 21
158.669554
 31
0.0
  0
LINE
  5
534
330
1F
100
AcDbEntity
  8
101
  6
Continuous
 62
     7
370
    30
100
AcDbLine
 10
146.44771
 20
161.855198
 30
0.0
 11
151.716275
 21
160.017327
 31
0.0
  0
LINE
  5
535
330
1F
100
AcDbEntity
  8
101
  6
Continuous
 62
     7
370
    30
100
AcDbLine
 10
138.9737
 20
163.325495
 30
0.0
 11
146.44771
 21
161.855198
 31
0.0
  0
LINE
  5
536
330
1F
100
AcDbEntity
  8
101
  6
Continuous
 62
     7
370
    30
100
AcDbLine
 10
130.029394
 20
164.060644
 30
0.0
 11
138.9737
 21
163.325495
 31
0.0
  0
LINE
  5
537
330
1F
100
AcDbEntity
  8
101
  6
Continuous
 62
     7
370
    30
100
AcDbLine
 10
119.002166
 20
164.673267
 30
0.0
 11
130.029394
 21
164.060644
 31
0.0
  0
LINE
  5
538
330
1F
100
AcDbEntity
  8
101
  6
Continuous
 62
     7
370
    30
100
AcDbLine
 10
105.769493
 20
164.673267
 30
0.0
 11
119.002166
 21
164.673267
 31
0.0
  0
LINE
  5
539
330
1F
100
AcDbEntity
  8
101
  6
Continuous
 62
     7
370
    30
100
AcDbLine
 10
93.394493
 20
163.815594
 30
0.0
 11
82.367265
 21
163.938119
 31
0.0
  0
LINE
  5
53A
330
1F
100
AcDbEntity
  8
101
  6
Continuous
 62
     7
370
    30
100
AcDbLine
 10
102.828899
 20
163.570545
 30
0.0
 11
93.394493
 21
163.815594
 31
0.0
  0
LINE
  5
53B
330
1F
100
AcDbEntity
  8
101
  6
Continuous
 62
     7
370
    30
100
AcDbLine
 10
111.160582
 20
163.325495
 30
0.0
 11
102.828899
 21
163.570545
 31
0.0
  0
LINE
  5
53C
330
1F
100
AcDbEntity
  8
101
  6
Continuous
 62
     7
370
    30
100
AcDbLine
 10
124.760829
 20
162.835396
 30
0.0
 11
111.160582
 21
163.325495
 31
0.0
  0
LINE
  5
53D
330
1F
100
AcDbEntity
  8
101
  6
Continuous
 62
     7
370
    30
100
AcDbLine
 10
133.460087
 20
161.855198
 30
0.0
 11
124.760829
 21
162.835396
 31
0.0
  0
LINE
  5
53E
330
1F
100
AcDbEntity
  8
101
  6
Continuous
 62
     7
370
    30
100
AcDbLine
 10
138.606126
 20
161.365099
 30
0.0
 11
133.460087
 21
161.855198
 31
0.0
  0
LINE
  5
53F
330
1F
100
AcDbEntity
  8
101
  6
Continuous
 62
     7
370
    30
100
AcDbLine
 10
144.36479
 20
160.262376
 30
0.0
 11
138.606126
 21
161.365099
 31
0.0
  0
LINE
  5
540
330
1F
100
AcDbEntity
  8
101
  6
Continuous
 62
     7
370
    30
100
AcDbLine
 10
149.02073
 20
158.54703
 30
0.0
 11
144.36479
 21
160.262376
 31
0.0
  0
LINE
  5
541
330
1F
100
AcDbEntity
  8
101
  6
Continuous
 62
     7
370
    30
100
AcDbLine
 10
152.573948
 20
157.444307
 30
0.0
 11
149.02073
 21
158.54703
 31
0.0
  0
LINE
  5
542
330
1F
100
AcDbEntity
  8
101
  6
Continuous
 62
     7
370
    30
100
AcDbLine
 10
153.92172
 20
156.096535
 30
0.0
 11
152.573948
 21
157.444307
 31
0.0
  0
LINE
  5
543
330
1F
100
AcDbEntity
  8
101
  6
Continuous
 62
     7
370
    30
100
AcDbLine
 10
154.534344
 20
154.748762
 30
0.0
 11
153.92172
 21
156.096535
 31
0.0
  0
LINE
  5
544
330
1F
100
AcDbEntity
  8
101
  6
Continuous
 62
     7
370
    30
100
AcDbLine
 10
154.534344
 20
153.278465
 30
0.0
 11
154.534344
 21
154.748762
 31
0.0
  0
LINE
  5
545
330
1F
100
AcDbEntity
  8
101
  6
Continuous
 62
     7
370
    30
100
AcDbLine
 10
153.799196
 20
152.053218
 30
0.0
 11
154.534344
 21
153.278465
 31
0.0
  0
LINE
  5
546
330
1F
100
AcDbEntity
  8
101
  6
Continuous
 62
     7
370
    30
100
AcDbLine
 10
149.878403
 20
150.82797
 30
0.0
 11
153.799196
 21
152.053218
 31
0.0
  0
LINE
  5
547
330
1F
100
AcDbEntity
  8
101
  6
Continuous
 62
     7
370
    30
100
AcDbLine
 10
150.123453
 20
114.193069
 30
0.0
 11
150.521658
 21
107.209158
 31
0.0
  0
LINE
  5
548
330
1F
100
AcDbEntity
  8
101
  6
Continuous
 62
     7
370
    30
100
AcDbLine
 10
150.245978
 20
126.32302
 30
0.0
 11
150.123453
 21
114.193069
 31
0.0
  0
LINE
  5
549
330
1F
100
AcDbEntity
  8
101
  6
Continuous
 62
     7
370
    30
100
AcDbLine
 10
150.123453
 20
137.472772
 30
0.0
 11
150.245978
 21
126.32302
 31
0.0
  0
LINE
  5
54A
330
1F
100
AcDbEntity
  8
101
  6
Continuous
 62
     7
370
    30
100
AcDbLine
 10
149.878403
 20
146.049505
 30
0.0
 11
150.123453
 21
137.472772
 31
0.0
  0
LINE
  5
54B
330
1F
100
AcDbEntity
  8
101
  6
Continuous
 62
     7
370
    30
100
AcDbLine
 10
149.878403
 20
151.685644
 30
0.0
 11
149.878403
 21
146.049505
 31
0.0
  0
LINE
  5
54C
330
1F
100
AcDbEntity
  8
101
  6
Continuous
 62
     7
370
    30
100
AcDbLine
 10
149.388304
 20
153.033416
 30
0.0
 11
149.878403
 21
151.685644
 31
0.0
  0
LINE
  5
54D
330
1F
100
AcDbEntity
  8
101
  6
Continuous
 62
     7
370
    30
100
AcDbLine
 10
147.060334
 20
153.033416
 30
0.0
 11
149.388304
 21
153.033416
 31
0.0
  0
LINE
  5
54E
330
1F
100
AcDbEntity
  8
101
  6
Continuous
 62
     7
370
    30
100
AcDbLine
 10
145.344988
 20
152.298267
 30
0.0
 11
147.060334
 21
153.033416
 31
0.0
  0
LINE
  5
54F
330
1F
100
AcDbEntity
  8
101
  6
Continuous
 62
     7
370
    30
100
AcDbLine
 10
145.467512
 20
148.990099
 30
0.0
 11
145.344988
 21
152.298267
 31
0.0
  0
LINE
  5
550
330
1F
100
AcDbEntity
  8
101
  6
Continuous
 62
     7
370
    30
100
AcDbLine
 10
142.506928
 20
136.242955
 30
0.0
 11
146.113159
 21
136.26163
 31
0.0
  0
LINE
  5
551
330
1F
100
AcDbEntity
  8
101
  6
Continuous
 62
     7
370
    30
100
AcDbLine
 10
142.465656
 20
138.636757
 30
0.0
 11
145.970266
 21
139.078666
 31
0.0
  0
LINE
  5
552
330
1F
100
AcDbEntity
  8
101
  6
Continuous
 62
     7
370
    30
100
AcDbLine
 10
145.467512
 20
148.990099
 30
0.0
 11
142.328269
 21
148.253863
 31
0.0
  0
LINE
  5
553
330
1F
100
AcDbEntity
  8
101
  6
Continuous
 62
     7
370
    30
100
AcDbLine
 10
146.325186
 20
132.081683
 30
0.0
 11
145.467512
 21
148.990099
 31
0.0
  0
LINE
  5
554
330
1F
100
AcDbEntity
  8
101
  6
Continuous
 62
     7
370
    30
100
AcDbLine
 10
146.44771
 20
110.884901
 30
0.0
 11
146.325186
 21
132.081683
 31
0.0
  0
LINE
  5
555
330
1F
100
AcDbEntity
  8
101
  6
Continuous
 62
     7
370
    30
100
AcDbLine
 10
145.773824
 20
111.068688
 30
0.0
 11
146.44771
 21
110.884901
 31
0.0
  0
LINE
  5
556
330
1F
100
AcDbEntity
  8
101
  6
Continuous
 62
     7
370
    30
100
AcDbLine
 10
145.385653
 20
107.532898
 30
0.0
 11
145.773824
 21
111.068688
 31
0.0
  0
LINE
  5
557
330
1F
100
AcDbEntity
  8
101
  6
Continuous
 62
     7
370
    30
100
AcDbLine
 10
142.710705
 20
124.423886
 30
0.0
 11
142.55755
 21
107.699257
 31
0.0
  0
LINE
  5
558
330
1F
100
AcDbEntity
  8
101
  6
Continuous
 62
     7
370
    30
100
AcDbLine
 10
142.465656
 20
138.636757
 30
0.0
 11
142.710705
 21
124.423886
 31
0.0
  0
LINE
  5
559
330
1F
100
AcDbEntity
  8
101
  6
Continuous
 62
     7
370
    30
100
AcDbLine
 10
142.220606
 20
155.790223
 30
0.0
 11
142.465656
 21
138.636757
 31
0.0
  0
LINE
  5
55A
330
1F
100
AcDbEntity
  8
101
  6
Continuous
 62
     7
370
    30
100
AcDbLine
 10
143.445854
 20
151.991955
 30
0.0
 11
142.343131
 21
151.134282
 31
0.0
  0
LINE
  5
55B
330
1F
100
AcDbEntity
  8
101
  6
Continuous
 62
     7
370
    30
100
AcDbLine
 10
144.426052
 20
153.094678
 30
0.0
 11
143.445854
 21
151.991955
 31
0.0
  0
LINE
  5
55C
330
1F
100
AcDbEntity
  8
101
  6
Continuous
 62
     7
370
    30
100
AcDbLine
 10
144.181002
 20
154.564975
 30
0.0
 11
144.426052
 21
153.094678
 31
0.0
  0
LINE
  5
55D
330
1F
100
AcDbEntity
  8
101
  6
Continuous
 62
     7
370
    30
100
AcDbLine
 10
142.220606
 20
155.790223
 30
0.0
 11
144.181002
 21
154.564975
 31
0.0
  0
LINE
  5
55E
330
1F
100
AcDbEntity
  8
101
  6
Continuous
 62
     7
370
    30
100
AcDbLine
 10
139.034963
 20
156.770421
 30
0.0
 11
142.220606
 21
155.790223
 31
0.0
  0
LINE
  5
55F
330
1F
100
AcDbEntity
  8
101
  6
Continuous
 62
     7
370
    30
100
AcDbLine
 10
131.560953
 20
158.608292
 30
0.0
 11
139.034963
 21
156.770421
 31
0.0
  0
LINE
  5
560
330
1F
100
AcDbEntity
  8
101
  6
Continuous
 62
     7
370
    30
100
AcDbLine
 10
126.169864
 20
159.220916
 30
0.0
 11
131.560953
 21
158.608292
 31
0.0
  0
LINE
  5
561
330
1F
100
AcDbEntity
  8
101
  6
Continuous
 62
     7
370
    30
100
AcDbLine
 10
121.881498
 20
159.83354
 30
0.0
 11
126.169864
 21
159.220916
 31
0.0
  0
LINE
  5
562
330
1F
100
AcDbEntity
  8
101
  6
Continuous
 62
     7
370
    30
100
AcDbLine
 10
117.348082
 20
160.323639
 30
0.0
 11
121.881498
 21
159.83354
 31
0.0
  0
LINE
  5
563
330
1F
100
AcDbEntity
  8
101
  6
Continuous
 62
     7
370
    30
100
AcDbLine
 10
111.099319
 20
160.446163
 30
0.0
 11
117.348082
 21
160.323639
 31
0.0
  0
LINE
  5
564
330
1F
100
AcDbEntity
  8
101
  6
Continuous
 62
     7
370
    30
100
AcDbLine
 10
103.502785
 20
160.446163
 30
0.0
 11
111.099319
 21
160.446163
 31
0.0
  0
LINE
  5
565
330
1F
100
AcDbEntity
  8
101
  6
Continuous
 62
     7
370
    30
100
AcDbLine
 10
96.518874
 20
159.956064
 30
0.0
 11
103.502785
 21
160.446163
 31
0.0
  0
LINE
  5
566
330
1F
100
AcDbEntity
  8
101
  6
Continuous
 62
     7
370
    30
100
AcDbLine
 10
92.077351
 20
159.649752
 30
0.0
 11
96.518874
 21
159.956064
 31
0.0
  0
LINE
  5
567
330
1F
100
AcDbEntity
  8
101
  6
Continuous
 62
     7
370
    30
100
AcDbLine
 10
88.309715
 20
160.231745
 30
0.0
 11
87.850248
 21
159.894802
 31
0.0
  0
LINE
  5
568
330
1F
100
AcDbEntity
  8
101
  6
Continuous
 62
     7
370
    30
100
AcDbLine
 10
88.95297
 20
160.660582
 30
0.0
 11
88.309715
 21
160.231745
 31
0.0
  0
LINE
  5
569
330
1F
100
AcDbEntity
  8
101
  6
Continuous
 62
     7
370
    30
100
AcDbLine
 10
89.994431
 20
160.721844
 30
0.0
 11
88.95297
 21
160.660582
 31
0.0
  0
LINE
  5
56A
330
1F
100
AcDbEntity
  8
101
  6
Continuous
 62
     7
370
    30
100
AcDbLine
 10
90.974629
 20
160.721844
 30
0.0
 11
89.994431
 21
160.721844
 31
0.0
  0
LINE
  5
56B
330
1F
100
AcDbEntity
  8
101
  6
Continuous
 62
     7
370
    30
100
AcDbLine
 10
92.077351
 20
159.649752
 30
0.0
 11
90.974629
 21
160.721844
 31
0.0
  0
LINE
  5
56C
330
1F
100
AcDbEntity
  8
101
  6
Continuous
 62
     7
370
    30
100
AcDbLine
 10
92.322401
 20
135.512376
 30
0.0
 11
92.077351
 21
159.649752
 31
0.0
  0
LINE
  5
56D
330
1F
100
AcDbEntity
  8
101
  6
Continuous
 62
     7
370
    30
100
AcDbLine
 10
92.935704
 20
107.866929
 30
0.0
 11
92.322401
 21
135.512376
 31
0.0
  0
LINE
  5
56E
330
1F
100
AcDbEntity
  8
101
  6
Continuous
 62
     7
370
    30
100
AcDbLine
 10
115.724629
 20
108.066832
 30
0.0
 11
87.788985
 21
107.821782
 31
0.0
  0
LINE
  5
56F
330
1F
100
AcDbEntity
  8
101
  6
Continuous
 62
     7
370
    30
100
AcDbLine
 10
140.352104
 20
107.821782
 30
0.0
 11
115.724629
 21
108.066832
 31
0.0
  0
LINE
  5
570
330
1F
100
AcDbEntity
  8
101
  6
Continuous
 62
     7
370
    30
100
AcDbLine
 10
142.55755
 20
107.699257
 30
0.0
 11
140.352104
 21
107.821782
 31
0.0
  0
LINE
  5
571
330
1F
100
AcDbEntity
  8
101
  6
Continuous
 62
     7
370
    30
100
AcDbLine
 10
146.723391
 20
107.454208
 30
0.0
 11
142.55755
 21
107.699257
 31
0.0
  0
LINE
  5
572
330
1F
100
AcDbEntity
  8
101
  6
Continuous
 62
     7
370
    30
100
AcDbLine
 10
150.521658
 20
107.209158
 30
0.0
 11
146.723391
 21
107.454208
 31
0.0
  0
LINE
  5
573
330
1F
100
AcDbEntity
  8
101
  6
Continuous
 62
     7
370
    30
100
AcDbLine
 10
152.604579
 20
106.964109
 30
0.0
 11
150.521658
 21
107.209158
 31
0.0
  0
LINE
  5
574
330
1F
100
AcDbEntity
  8
101
  6
Continuous
 62
     7
370
    30
100
AcDbLine
 10
152.604579
 20
105.493812
 30
0.0
 11
152.604579
 21
106.964109
 31
0.0
  0
LINE
  5
575
330
1F
100
AcDbEntity
  8
101
  6
Continuous
 62
     7
370
    30
100
AcDbLine
 10
147.45854
 20
105.003713
 30
0.0
 11
152.604579
 21
105.493812
 31
0.0
  0
LINE
  5
576
330
1F
100
AcDbEntity
  8
101
  6
Continuous
 62
     7
370
    30
100
AcDbLine
 10
144.517946
 20
105.126238
 30
0.0
 11
147.45854
 21
105.003713
 31
0.0
  0
LINE
  5
577
330
1F
100
AcDbEntity
  8
101
  6
Continuous
 62
     7
370
    30
100
AcDbLine
 10
139.004332
 20
105.126238
 30
0.0
 11
144.517946
 21
105.126238
 31
0.0
  0
LINE
  5
578
330
1F
100
AcDbEntity
  8
101
  6
Continuous
 62
     7
370
    30
100
AcDbLine
 10
131.040223
 20
105.371287
 30
0.0
 11
139.004332
 21
105.126238
 31
0.0
  0
LINE
  5
579
330
1F
100
AcDbEntity
  8
101
  6
Continuous
 62
     7
370
    30
100
AcDbLine
 10
121.973391
 20
105.493812
 30
0.0
 11
131.040223
 21
105.371287
 31
0.0
  0
LINE
  5
57A
330
1F
100
AcDbEntity
  8
101
  6
Continuous
 62
     7
370
    30
100
AcDbLine
 10
110.578589
 20
105.003713
 30
0.0
 11
121.973391
 21
105.493812
 31
0.0
  0
LINE
  5
57B
330
1F
100
AcDbEntity
  8
101
  6
Continuous
 62
     7
370
    30
100
AcDbLine
 10
96.610767
 20
104.881188
 30
0.0
 11
110.578589
 21
105.003713
 31
0.0
  0
LINE
  5
57C
330
1F
100
AcDbEntity
  8
101
  6
Continuous
 62
     7
370
    30
100
AcDbLine
 10
88.891708
 20
105.003713
 30
0.0
 11
96.610767
 21
104.881188
 31
0.0
  0
LINE
  5
57D
330
1F
100
AcDbEntity
  8
101
  6
Continuous
 62
     7
370
    30
100
AcDbLine
 10
81.050124
 20
104.636139
 30
0.0
 11
88.891708
 21
105.003713
 31
0.0
  0
LINE
  5
57E
330
1F
100
AcDbEntity
  8
101
  6
Continuous
 62
     7
370
    30
100
AcDbLine
 10
64.509282
 20
104.513614
 30
0.0
 11
81.050124
 21
104.636139
 31
0.0
  0
LINE
  5
57F
330
1F
100
AcDbEntity
  8
101
  6
Continuous
 62
     7
370
    30
100
AcDbLine
 10
54.584777
 20
103.655941
 30
0.0
 11
64.509282
 21
104.513614
 31
0.0
  0
LINE
  5
580
330
1F
100
AcDbEntity
  8
101
  6
Continuous
 62
     7
370
    30
100
AcDbLine
 10
47.600866
 20
103.043317
 30
0.0
 11
54.584777
 21
103.655941
 31
0.0
  0
LINE
  5
581
330
1F
100
AcDbEntity
  8
101
  6
Continuous
 62
     7
370
    30
100
AcDbLine
 10
44.905322
 20
103.043317
 30
0.0
 11
47.600866
 21
103.043317
 31
0.0
  0
LINE
  5
582
330
1F
100
AcDbEntity
  8
101
  6
Continuous
 62
     7
370
    30
100
AcDbLine
 10
42.822401
 20
103.043317
 30
0.0
 11
44.905322
 21
103.043317
 31
0.0
  0
LINE
  5
583
330
1F
100
AcDbEntity
  8
101
  6
Continuous
 62
     7
370
    30
100
AcDbLine
 10
40.616955
 20
103.410891
 30
0.0
 11
42.822401
 21
103.043317
 31
0.0
  0
LINE
  5
584
330
1F
100
AcDbEntity
  8
101
  6
Continuous
 62
     7
370
    30
100
AcDbLine
 10
40.73948
 20
105.003713
 30
0.0
 11
40.616955
 21
103.410891
 31
0.0
  0
LINE
  5
585
330
1F
100
AcDbEntity
  8
101
  6
Continuous
 62
     7
370
    30
100
AcDbLine
 10
42.944926
 20
105.248762
 30
0.0
 11
40.73948
 21
105.003713
 31
0.0
  0
LINE
  5
586
330
1F
100
AcDbEntity
  8
101
  6
Continuous
 62
     7
370
    30
100
AcDbLine
 10
48.703589
 20
106.106436
 30
0.0
 11
42.944926
 21
105.248762
 31
0.0
  0
LINE
  5
587
330
1F
100
AcDbEntity
  8
101
  6
Continuous
 62
     7
370
    30
100
AcDbLine
 10
51.399134
 20
106.106436
 30
0.0
 11
48.703589
 21
106.106436
 31
0.0
  0
LINE
  5
588
330
1F
100
AcDbEntity
  8
101
  6
Continuous
 62
     7
370
    30
100
AcDbLine
 10
72.595916
 20
107.331683
 30
0.0
 11
51.399134
 21
106.106436
 31
0.0
  0
LINE
  5
589
330
1F
100
AcDbEntity
  8
101
  6
Continuous
 62
     7
370
    30
100
AcDbLine
 10
87.788985
 20
107.821782
 30
0.0
 11
72.595916
 21
107.331683
 31
0.0
  0
LINE
  5
58A
330
1F
100
AcDbEntity
  8
101
  6
Continuous
 62
     7
370
    30
100
AcDbLine
 10
87.788985
 20
131.346535
 30
0.0
 11
87.788985
 21
107.821782
 31
0.0
  0
LINE
  5
58B
330
1F
100
AcDbEntity
  8
101
  6
Continuous
 62
     7
370
    30
100
AcDbLine
 10
87.850248
 20
159.894802
 30
0.0
 11
87.788985
 21
131.346535
 31
0.0
  0
LINE
  5
58C
330
1F
100
AcDbEntity
  8
101
  6
Continuous
 62
     7
370
    30
100
AcDbLine
 10
86.686262
 20
160.323639
 30
0.0
 11
87.850248
 21
159.894802
 31
0.0
  0
LINE
  5
58D
330
1F
100
AcDbEntity
  8
101
  6
Continuous
 62
     7
370
    30
100
AcDbLine
 10
81.172649
 20
160.568688
 30
0.0
 11
86.686262
 21
160.323639
 31
0.0
  0
LINE
  5
58E
330
1F
100
AcDbEntity
  8
101
  6
Continuous
 62
     7
370
    30
100
AcDbLine
 10
68.0625
 20
159.83354
 30
0.0
 11
81.172649
 21
160.568688
 31
0.0
  0
LINE
  5
58F
330
1F
100
AcDbEntity
  8
101
  6
Continuous
 62
     7
370
    30
100
AcDbLine
 10
60.956064
 20
158.914604
 30
0.0
 11
68.0625
 21
159.83354
 31
0.0
  0
LINE
  5
590
330
1F
100
AcDbEntity
  8
101
  6
Continuous
 62
     7
370
    30
100
AcDbLine
 10
54.523515
 20
158.210087
 30
0.0
 11
60.956064
 21
158.914604
 31
0.0
  0
LINE
  5
591
330
1F
100
AcDbEntity
  8
101
  6
Continuous
 62
     7
370
    30
100
AcDbLine
 10
51.399134
 20
157.965037
 30
0.0
 11
54.523515
 21
158.210087
 31
0.0
  0
LINE
  5
592
330
1F
100
AcDbEntity
  8
101
  6
Continuous
 62
     7
370
    30
100
AcDbLine
 10
49.25495
 20
157.658725
 30
0.0
 11
51.399134
 21
157.965037
 31
0.0
  0
LINE
  5
593
330
1F
100
AcDbEntity
  8
101
  6
Continuous
 62
     7
370
    30
100
AcDbLine
 10
47.17203
 20
157.046101
 30
0.0
 11
49.25495
 21
157.658725
 31
0.0
  0
LINE
  5
594
330
1F
100
AcDbEntity
  8
101
  6
Continuous
 62
     7
370
    30
100
AcDbLine
 10
45.272896
 20
156.678527
 30
0.0
 11
47.17203
 21
157.046101
 31
0.0
  0
LINE
  5
595
330
1F
100
AcDbEntity
  8
101
  6
Continuous
 62
     7
370
    30
100
AcDbLine
 10
43.741337
 20
156.004641
 30
0.0
 11
45.272896
 21
156.678527
 31
0.0
  0
LINE
  5
596
330
1F
100
AcDbEntity
  8
101
  6
Continuous
 62
     7
370
    30
100
AcDbLine
 10
42.883663
 20
155.637067
 30
0.0
 11
43.741337
 21
156.004641
 31
0.0
  0
LINE
  5
597
330
1F
100
AcDbEntity
  8
101
  6
Continuous
 62
     7
370
    30
100
AcDbLine
 10
42.02599
 20
155.146968
 30
0.0
 11
42.883663
 21
155.637067
 31
0.0
  0
LINE
  5
598
330
1F
100
AcDbEntity
  8
101
  6
Continuous
 62
     7
370
    30
100
AcDbLine
 10
41.168317
 20
154.534344
 30
0.0
 11
42.02599
 21
155.146968
 31
0.0
  0
LINE
  5
599
330
1F
100
AcDbEntity
  8
101
  6
Continuous
 62
     7
370
    30
100
AcDbLine
 10
40.73948
 20
153.737933
 30
0.0
 11
41.168317
 21
154.534344
 31
0.0
  0
LINE
  5
59A
330
1F
100
AcDbEntity
  8
101
  6
Continuous
 62
     7
370
    30
100
AcDbLine
 10
40.678218
 20
153.125309
 30
0.0
 11
40.73948
 21
153.737933
 31
0.0
  0
LINE
  5
59B
330
1F
100
AcDbEntity
  8
101
  6
Continuous
 62
     7
370
    30
100
AcDbLine
 10
41.107054
 20
152.083849
 30
0.0
 11
40.678218
 21
153.125309
 31
0.0
  0
LINE
  5
59C
330
1F
100
AcDbEntity
  8
101
  6
Continuous
 62
     7
370
    30
100
AcDbLine
 10
42.27104
 20
151.164913
 30
0.0
 11
41.107054
 21
152.083849
 31
0.0
  0
LINE
  5
59D
330
1F
100
AcDbEntity
  8
101
  6
Continuous
 62
     7
370
    30
100
AcDbLine
 10
43.55755
 20
150.460396
 30
0.0
 11
42.27104
 21
151.164913
 31
0.0
  0
LINE
  5
59E
330
1F
100
AcDbEntity
  8
101
  6
Continuous
 62
     7
370
    30
100
AcDbLine
 10
44.170173
 20
122.647277
 30
0.0
 11
44.231436
 21
105.830755
 31
0.0
  0
LINE
  5
59F
330
1F
100
AcDbEntity
  8
101
  6
Continuous
 62
     7
370
    30
100
AcDbLine
 10
44.170173
 20
128.559097
 30
0.0
 11
44.170173
 21
122.647277
 31
0.0
  0
LINE
  5
5A0
330
1F
100
AcDbEntity
  8
101
  6
Continuous
 62
     7
370
    30
100
AcDbLine
 10
44.047649
 20
140.26021
 30
0.0
 11
44.170173
 21
128.559097
 31
0.0
  0
LINE
  5
5A1
330
1F
100
AcDbEntity
  8
101
  6
Continuous
 62
     7
370
    30
100
AcDbLine
 10
44.047649
 20
149.327042
 30
0.0
 11
44.047649
 21
140.26021
 31
0.0
  0
LINE
  5
5A2
330
1F
100
AcDbEntity
  8
101
  6
Continuous
 62
     7
370
    30
100
AcDbLine
 10
43.680074
 20
149.78651
 30
0.0
 11
44.047649
 21
149.327042
 31
0.0
  0
LINE
  5
5A3
330
1F
100
AcDbEntity
  8
101
  6
Continuous
 62
     7
370
    30
100
AcDbLine
 10
43.55755
 20
150.460396
 30
0.0
 11
43.680074
 21
149.78651
 31
0.0
  0
LINE
  5
5A4
330
1F
100
AcDbEntity
  8
101
  6
Continuous
 62
     7
370
    30
100
AcDbLine
 10
43.894493
 20
150.858601
 30
0.0
 11
43.55755
 21
150.460396
 31
0.0
  0
LINE
  5
5A5
330
1F
100
AcDbEntity
  8
101
  6
Continuous
 62
     7
370
    30
100
AcDbLine
 10
48.244121
 20
148.469369
 30
0.0
 11
48.182859
 21
147.550433
 31
0.0
  0
LINE
  5
5A6
330
1F
100
AcDbEntity
  8
101
  6
Continuous
 62
     7
370
    30
100
AcDbLine
 10
48.519802
 20
148.714418
 30
0.0
 11
48.244121
 21
148.469369
 31
0.0
  0
LINE
  5
5A7
330
1F
100
AcDbEntity
  8
101
  6
Continuous
 62
     7
370
    30
100
AcDbLine
 10
49.163057
 20
149.327042
 30
0.0
 11
48.519802
 21
148.714418
 31
0.0
  0
LINE
  5
5A8
330
1F
100
AcDbEntity
  8
101
  6
Continuous
 62
     7
370
    30
100
AcDbLine
 10
49.224319
 20
150.184715
 30
0.0
 11
49.163057
 21
149.327042
 31
0.0
  0
LINE
  5
5A9
330
1F
100
AcDbEntity
  8
101
  6
Continuous
 62
     7
370
    30
100
AcDbLine
 10
48.672958
 20
151.103651
 30
0.0
 11
49.224319
 21
150.184715
 31
0.0
  0
LINE
  5
5AA
330
1F
100
AcDbEntity
  8
101
  6
Continuous
 62
     7
370
    30
100
AcDbLine
 10
47.44771
 20
151.716275
 30
0.0
 11
48.672958
 21
151.103651
 31
0.0
  0
LINE
  5
5AB
330
1F
100
AcDbEntity
  8
101
  6
Continuous
 62
     7
370
    30
100
AcDbLine
 10
45.854889
 20
151.716275
 30
0.0
 11
47.44771
 21
151.716275
 31
0.0
  0
LINE
  5
5AC
330
1F
100
AcDbEntity
  8
101
  6
Continuous
 62
     7
370
    30
100
AcDbLine
 10
43.894493
 20
150.858601
 30
0.0
 11
45.854889
 21
151.716275
 31
0.0
  0
LINE
  5
5AD
330
1F
100
AcDbEntity
  8
101
  6
Continuous
 62
     7
370
    30
100
AcDbLine
 10
48.258668
 20
137.012968
 30
0.0
 11
49.828288
 21
136.644139
 31
0.0
  0
LINE
  5
5AE
330
1F
100
AcDbEntity
  8
101
  6
Continuous
 62
     7
370
    30
100
AcDbLine
 10
49.898205
 20
122.800433
 30
0.0
 11
49.775681
 21
147.060334
 31
0.0
  0
LINE
  5
5AF
330
1F
100
AcDbEntity
  8
101
  6
Continuous
 62
     7
370
    30
100
AcDbLine
 10
49.898205
 20
122.800433
 30
0.0
 11
48.226963
 21
122.677467
 31
0.0
  0
LINE
  5
5B0
330
1F
100
AcDbEntity
  8
101
  6
Continuous
 62
     7
370
    30
100
AcDbLine
 10
49.408106
 20
107.484839
 30
0.0
 11
49.898205
 21
122.800433
 31
0.0
  0
LINE
  5
5B1
330
1F
100
AcDbEntity
  8
101
  6
Continuous
 62
     7
370
    30
100
AcDbLine
 10
48.182859
 20
108.955136
 30
0.0
 11
49.408106
 21
107.484839
 31
0.0
  0
LINE
  5
5B2
330
1F
100
AcDbEntity
  8
101
  6
Continuous
 62
     7
370
    30
100
AcDbLine
 10
48.182859
 20
118.267017
 30
0.0
 11
48.182859
 21
108.955136
 31
0.0
  0
LINE
  5
5B3
330
1F
100
AcDbEntity
  8
101
  6
Continuous
 62
     7
370
    30
100
AcDbLine
 10
48.305384
 20
130.519493
 30
0.0
 11
48.182859
 21
118.267017
 31
0.0
  0
LINE
  5
5B4
330
1F
100
AcDbEntity
  8
101
  6
Continuous
 62
     7
370
    30
100
AcDbLine
 10
48.182859
 20
147.550433
 30
0.0
 11
48.305384
 21
130.519493
 31
0.0
  0
LINE
  5
5B5
330
1F
100
AcDbEntity
  8
101
  6
Continuous
 62
     7
370
    30
100
AcDbLine
 10
49.775681
 20
147.060334
 30
0.0
 11
48.182859
 21
147.550433
 31
0.0
  0
LINE
  5
5B6
330
1F
100
AcDbEntity
  8
101
  6
Continuous
 62
     7
370
    30
100
AcDbLine
 10
18.899443
 20
125.986077
 30
0.0
 11
20.726553
 21
124.307727
 31
0.0
  0
LINE
  5
5B7
330
1F
100
AcDbEntity
  8
101
  6
Continuous
 62
     7
370
    30
100
AcDbLine
 10
17.061572
 20
127.823948
 30
0.0
 11
18.899443
 21
125.986077
 31
0.0
  0
LINE
  5
5B8
330
1F
100
AcDbEntity
  8
101
  6
Continuous
 62
     7
370
    30
100
AcDbLine
 10
16.571473
 20
129.784344
 30
0.0
 11
17.061572
 21
127.823948
 31
0.0
  0
LINE
  5
5B9
330
1F
100
AcDbEntity
  8
101
  6
Continuous
 62
     7
370
    30
100
AcDbLine
 10
16.546638
 20
144.8358
 30
0.0
 11
16.571473
 21
129.784344
 31
0.0
  0
LINE
  5
5BA
330
1F
100
AcDbEntity
  8
101
  6
Continuous
 62
     7
370
    30
100
AcDbLine
 10
23.922958
 20
125.618502
 30
0.0
 11
25.633428
 21
124.053924
 31
0.0
  0
LINE
  5
5BB
330
1F
100
AcDbEntity
  8
101
  6
Continuous
 62
     7
370
    30
100
AcDbLine
 10
22.330136
 20
127.823948
 30
0.0
 11
23.922958
 21
125.618502
 31
0.0
  0
LINE
  5
5BC
330
1F
100
AcDbEntity
  8
101
  6
Continuous
 62
     7
370
    30
100
AcDbLine
 10
21.349938
 20
129.906869
 30
0.0
 11
22.330136
 21
127.823948
 31
0.0
  0
LINE
  5
5BD
330
1F
100
AcDbEntity
  8
101
  6
Continuous
 62
     7
370
    30
100
AcDbLine
 10
21.227413
 20
134.440285
 30
0.0
 11
21.349938
 21
129.906869
 31
0.0
  0
LINE
  5
5BE
330
1F
100
AcDbEntity
  8
101
  6
Continuous
 62
     7
370
    30
100
AcDbLine
 10
21.472463
 20
141.424196
 30
0.0
 11
21.227413
 21
134.440285
 31
0.0
  0
LINE
  5
5BF
330
1F
100
AcDbEntity
  8
101
  6
Continuous
 62
     7
370
    30
100
AcDbLine
 10
14.18224
 20
150.276609
 30
0.0
 11
14.939412
 21
150.80357
 31
0.0
  0
LINE
  5
5C0
330
1F
100
AcDbEntity
  8
101
  6
Continuous
 62
     7
370
    30
100
AcDbLine
 10
13.998453
 20
149.296411
 30
0.0
 11
14.18224
 21
150.276609
 31
0.0
  0
LINE
  5
5C1
330
1F
100
AcDbEntity
  8
101
  6
Continuous
 62
     7
370
    30
100
AcDbLine
 10
13.998453
 20
148.009901
 30
0.0
 11
13.998453
 21
149.296411
 31
0.0
  0
LINE
  5
5C2
330
1F
100
AcDbEntity
  8
101
  6
Continuous
 62
     7
370
    30
100
AcDbLine
 10
14.18224
 20
147.090965
 30
0.0
 11
13.998453
 21
148.009901
 31
0.0
  0
LINE
  5
5C3
330
1F
100
AcDbEntity
  8
101
  6
Continuous
 62
     7
370
    30
100
AcDbLine
 10
15.131807
 20
146.17203
 30
0.0
 11
14.18224
 21
147.090965
 31
0.0
  0
LINE
  5
5C4
330
1F
100
AcDbEntity
  8
101
  6
Continuous
 62
     7
370
    30
100
AcDbLine
 10
17.337252
 20
144.089109
 30
0.0
 11
15.131807
 21
146.17203
 31
0.0
  0
LINE
  5
5C5
330
1F
100
AcDbEntity
  8
101
  6
Continuous
 62
     7
370
    30
100
AcDbLine
 10
19.910272
 20
142.618812
 30
0.0
 11
17.337252
 21
144.089109
 31
0.0
  0
LINE
  5
5C6
330
1F
100
AcDbEntity
  8
101
  6
Continuous
 62
     7
370
    30
100
AcDbLine
 10
11.701114
 20
155.361386
 30
0.0
 11
13.600248
 21
156.831683
 31
0.0
  0
LINE
  5
5C7
330
1F
100
AcDbEntity
  8
101
  6
Continuous
 62
     7
370
    30
100
AcDbLine
 10
10.292079
 20
153.891089
 30
0.0
 11
11.701114
 21
155.361386
 31
0.0
  0
LINE
  5
5C8
330
1F
100
AcDbEntity
  8
101
  6
Continuous
 62
     7
370
    30
100
AcDbLine
 10
10.292079
 20
151.685644
 30
0.0
 11
10.292079
 21
153.891089
 31
0.0
  0
LINE
  5
5C9
330
1F
100
AcDbEntity
  8
101
  6
Continuous
 62
     7
370
    30
100
AcDbLine
 10
10.292079
 20
149.235149
 30
0.0
 11
10.292079
 21
151.685644
 31
0.0
  0
LINE
  5
5CA
330
1F
100
AcDbEntity
  8
101
  6
Continuous
 62
     7
370
    30
100
AcDbLine
 10
11.456064
 20
147.519802
 30
0.0
 11
10.292079
 21
149.235149
 31
0.0
  0
LINE
  5
5CB
330
1F
100
AcDbEntity
  8
101
  6
Continuous
 62
     7
370
    30
100
AcDbLine
 10
13.171411
 20
145.314356
 30
0.0
 11
11.456064
 21
147.519802
 31
0.0
  0
LINE
  5
5CC
330
1F
100
AcDbEntity
  8
101
  6
Continuous
 62
     7
370
    30
100
AcDbLine
 10
13.048886
 20
126.32302
 30
0.0
 11
13.171411
 21
145.314356
 31
0.0
  0
LINE
  5
5CD
330
1F
100
AcDbEntity
  8
101
  6
Continuous
 62
     7
370
    30
100
AcDbLine
 10
19.665223
 20
124.362624
 30
0.0
 11
13.048886
 21
126.32302
 31
0.0
  0
LINE
  5
5CE
330
1F
100
AcDbEntity
  8
101
  6
Continuous
 62
     7
370
    30
100
AcDbLine
 10
26.771658
 20
123.99505
 30
0.0
 11
19.665223
 21
124.362624
 31
0.0
  0
LINE
  5
5CF
330
1F
100
AcDbEntity
  8
101
  6
Continuous
 62
     7
370
    30
100
AcDbLine
 10
44.170173
 20
122.647277
 30
0.0
 11
26.771658
 21
123.99505
 31
0.0
  0
LINE
  5
5D0
330
1F
100
AcDbEntity
  8
101
  6
Continuous
 62
     7
370
    30
100
AcDbLine
 10
26.832921
 20
133.061881
 30
0.0
 11
26.132104
 21
132.666904
 31
0.0
  0
LINE
  5
5D1
330
1F
100
AcDbEntity
  8
101
  6
Continuous
 62
     7
370
    30
100
AcDbLine
 10
27.629332
 20
133.306931
 30
0.0
 11
26.832921
 21
133.061881
 31
0.0
  0
LINE
  5
5D2
330
1F
100
AcDbEntity
  8
101
  6
Continuous
 62
     7
370
    30
100
AcDbLine
 10
28.180693
 20
134.042079
 30
0.0
 11
27.629332
 21
133.306931
 31
0.0
  0
LINE
  5
5D3
330
1F
100
AcDbEntity
  8
101
  6
Continuous
 62
     7
370
    30
100
AcDbLine
 10
28.180693
 20
135.08354
 30
0.0
 11
28.180693
 21
134.042079
 31
0.0
  0
LINE
  5
5D4
330
1F
100
AcDbEntity
  8
101
  6
Continuous
 62
     7
370
    30
100
AcDbLine
 10
28.119431
 20
136.247525
 30
0.0
 11
28.180693
 21
135.08354
 31
0.0
  0
LINE
  5
5D5
330
1F
100
AcDbEntity
  8
101
  6
Continuous
 62
     7
370
    30
100
AcDbLine
 10
27.935644
 20
137.227723
 30
0.0
 11
28.119431
 21
136.247525
 31
0.0
  0
LINE
  5
5D6
330
1F
100
AcDbEntity
  8
101
  6
Continuous
 62
     7
370
    30
100
AcDbLine
 10
27.384282
 20
137.779084
 30
0.0
 11
27.935644
 21
137.227723
 31
0.0
  0
LINE
  5
5D7
330
1F
100
AcDbEntity
  8
101
  6
Continuous
 62
     7
370
    30
100
AcDbLine
 10
26.753079
 20
138.351034
 30
0.0
 11
27.384282
 21
137.779084
 31
0.0
  0
LINE
  5
5D8
330
1F
100
AcDbEntity
  8
101
  6
Continuous
 62
     7
370
    30
100
AcDbLine
 10
27.813119
 20
138.269183
 30
0.0
 11
27.200495
 21
138.391708
 31
0.0
  0
LINE
  5
5D9
330
1F
100
AcDbEntity
  8
101
  6
Continuous
 62
     7
370
    30
100
AcDbLine
 10
28.793317
 20
137.717822
 30
0.0
 11
27.813119
 21
138.269183
 31
0.0
  0
LINE
  5
5DA
330
1F
100
AcDbEntity
  8
101
  6
Continuous
 62
     7
370
    30
100
AcDbLine
 10
29.65099
 20
136.798886
 30
0.0
 11
28.793317
 21
137.717822
 31
0.0
  0
LINE
  5
5DB
330
1F
100
AcDbEntity
  8
101
  6
Continuous
 62
     7
370
    30
100
AcDbLine
 10
29.957302
 20
135.022277
 30
0.0
 11
29.65099
 21
136.798886
 31
0.0
  0
LINE
  5
5DC
330
1F
100
AcDbEntity
  8
101
  6
Continuous
 62
     7
370
    30
100
AcDbLine
 10
29.773515
 20
133.79703
 30
0.0
 11
29.957302
 21
135.022277
 31
0.0
  0
LINE
  5
5DD
330
1F
100
AcDbEntity
  8
101
  6
Continuous
 62
     7
370
    30
100
AcDbLine
 10
28.915842
 20
132.816832
 30
0.0
 11
29.773515
 21
133.79703
 31
0.0
  0
LINE
  5
5DE
330
1F
100
AcDbEntity
  8
101
  6
Continuous
 62
     7
370
    30
100
AcDbLine
 10
27.874381
 20
132.26547
 30
0.0
 11
28.915842
 21
132.816832
 31
0.0
  0
LINE
  5
5DF
330
1F
100
AcDbEntity
  8
101
  6
Continuous
 62
     7
370
    30
100
AcDbLine
 10
26.710396
 20
132.326733
 30
0.0
 11
27.874381
 21
132.26547
 31
0.0
  0
LINE
  5
5E0
330
1F
100
AcDbEntity
  8
101
  6
Continuous
 62
     7
370
    30
100
AcDbLine
 10
25.668936
 20
132.939356
 30
0.0
 11
26.710396
 21
132.326733
 31
0.0
  0
LINE
  5
5E1
330
1F
100
AcDbEntity
  8
101
  6
Continuous
 62
     7
370
    30
100
AcDbLine
 10
24.688738
 20
134.287129
 30
0.0
 11
25.668936
 21
132.939356
 31
0.0
  0
LINE
  5
5E2
330
1F
100
AcDbEntity
  8
101
  6
Continuous
 62
     7
370
    30
100
AcDbLine
 10
24.443688
 20
135.941213
 30
0.0
 11
24.688738
 21
134.287129
 31
0.0
  0
LINE
  5
5E3
330
1F
100
AcDbEntity
  8
101
  6
Continuous
 62
     7
370
    30
100
AcDbLine
 10
24.811262
 20
137.41151
 30
0.0
 11
24.443688
 21
135.941213
 31
0.0
  0
LINE
  5
5E4
330
1F
100
AcDbEntity
  8
101
  6
Continuous
 62
     7
370
    30
100
AcDbLine
 10
25.852723
 20
138.269183
 30
0.0
 11
24.811262
 21
137.41151
 31
0.0
  0
LINE
  5
5E5
330
1F
100
AcDbEntity
  8
101
  6
Continuous
 62
     7
370
    30
100
AcDbLine
 10
27.200495
 20
138.391708
 30
0.0
 11
25.852723
 21
138.269183
 31
0.0
  0
LINE
  5
5E6
330
1F
100
AcDbEntity
  8
101
  6
Continuous
 62
     7
370
    30
100
AcDbLine
 10
42.27104
 20
137.962871
 30
0.0
 11
44.047649
 21
137.779084
 31
0.0
  0
LINE
  5
5E7
330
1F
100
AcDbEntity
  8
101
  6
Continuous
 62
     7
370
    30
100
AcDbLine
 10
38.350248
 20
138.269183
 30
0.0
 11
42.27104
 21
137.962871
 31
0.0
  0
LINE
  5
5E8
330
1F
100
AcDbEntity
  8
101
  6
Continuous
 62
     7
370
    30
100
AcDbLine
 10
32.469059
 20
139.616955
 30
0.0
 11
38.350248
 21
138.269183
 31
0.0
  0
LINE
  5
5E9
330
1F
100
AcDbEntity
  8
101
  6
Continuous
 62
     7
370
    30
100
AcDbLine
 10
25.913985
 20
141.209777
 30
0.0
 11
32.469059
 21
139.616955
 31
0.0
  0
LINE
  5
5EA
330
1F
100
AcDbEntity
  8
101
  6
Continuous
 62
     7
370
    30
100
AcDbLine
 10
21.625619
 20
143.170173
 30
0.0
 11
25.913985
 21
141.209777
 31
0.0
  0
LINE
  5
5EB
330
1F
100
AcDbEntity
  8
101
  6
Continuous
 62
     7
370
    30
100
AcDbLine
 10
18.011139
 20
145.559406
 30
0.0
 11
21.625619
 21
143.170173
 31
0.0
  0
LINE
  5
5EC
330
1F
100
AcDbEntity
  8
101
  6
Continuous
 62
     7
370
    30
100
AcDbLine
 10
15.928218
 20
147.090965
 30
0.0
 11
18.011139
 21
145.559406
 31
0.0
  0
LINE
  5
5ED
330
1F
100
AcDbEntity
  8
101
  6
Continuous
 62
     7
370
    30
100
AcDbLine
 10
14.70297
 20
148.5
 30
0.0
 11
15.928218
 21
147.090965
 31
0.0
  0
LINE
  5
5EE
330
1F
100
AcDbEntity
  8
101
  6
Continuous
 62
     7
370
    30
100
AcDbLine
 10
14.70297
 20
150.521658
 30
0.0
 11
14.70297
 21
148.5
 31
0.0
  0
LINE
  5
5EF
330
1F
100
AcDbEntity
  8
101
  6
Continuous
 62
     7
370
    30
100
AcDbLine
 10
16.295792
 20
152.420792
 30
0.0
 11
14.70297
 21
150.521658
 31
0.0
  0
LINE
  5
5F0
330
1F
100
AcDbEntity
  8
101
  6
Continuous
 62
     7
370
    30
100
AcDbLine
 10
18.011139
 20
153.768564
 30
0.0
 11
16.295792
 21
152.420792
 31
0.0
  0
LINE
  5
5F1
330
1F
100
AcDbEntity
  8
101
  6
Continuous
 62
     7
370
    30
100
AcDbLine
 10
23.769802
 20
156.096535
 30
0.0
 11
18.011139
 21
153.768564
 31
0.0
  0
LINE
  5
5F2
330
1F
100
AcDbEntity
  8
101
  6
Continuous
 62
     7
370
    30
100
AcDbLine
 10
30.141089
 20
158.30198
 30
0.0
 11
23.769802
 21
156.096535
 31
0.0
  0
LINE
  5
5F3
330
1F
100
AcDbEntity
  8
101
  6
Continuous
 62
     7
370
    30
100
AcDbLine
 10
36.512376
 20
160.139851
 30
0.0
 11
30.141089
 21
158.30198
 31
0.0
  0
LINE
  5
5F4
330
1F
100
AcDbEntity
  8
101
  6
Continuous
 62
     7
370
    30
100
AcDbLine
 10
43.496287
 20
161.487624
 30
0.0
 11
36.512376
 21
160.139851
 31
0.0
  0
LINE
  5
5F5
330
1F
100
AcDbEntity
  8
101
  6
Continuous
 62
     7
370
    30
100
AcDbLine
 10
51.82797
 20
162.835396
 30
0.0
 11
43.496287
 21
161.487624
 31
0.0
  0
LINE
  5
5F6
330
1F
100
AcDbEntity
  8
101
  6
Continuous
 62
     7
370
    30
100
AcDbLine
 10
62.242574
 20
164.305693
 30
0.0
 11
51.82797
 21
162.835396
 31
0.0
  0
LINE
  5
5F7
330
1F
100
AcDbEntity
  8
101
  6
Continuous
 62
     7
370
    30
100
AcDbLine
 10
76.087871
 20
165.653465
 30
0.0
 11
62.242574
 21
164.305693
 31
0.0
  0
LINE
  5
5F8
330
1F
100
AcDbEntity
  8
101
  6
Continuous
 62
     7
370
    30
100
AcDbLine
 10
90.055693
 20
166.756188
 30
0.0
 11
76.087871
 21
165.653465
 31
0.0
  0
LINE
  5
5F9
330
1F
100
AcDbEntity
  8
101
  6
Continuous
 62
     7
370
    30
100
AcDbLine
 10
106.596535
 20
168.471535
 30
0.0
 11
90.055693
 21
166.756188
 31
0.0
  0
LINE
  5
5FA
330
1F
100
AcDbEntity
  8
101
  6
Continuous
 62
     7
370
    30
100
AcDbLine
 10
121.789604
 20
169.329208
 30
0.0
 11
106.596535
 21
168.471535
 31
0.0
  0
LINE
  5
5FB
330
1F
100
AcDbEntity
  8
101
  6
Continuous
 62
     7
370
    30
100
AcDbLine
 10
136.615099
 20
169.696782
 30
0.0
 11
121.789604
 21
169.329208
 31
0.0
  0
LINE
  5
5FC
330
1F
100
AcDbEntity
  8
101
  6
Continuous
 62
     7
370
    30
100
AcDbLine
 10
147.274752
 20
169.574257
 30
0.0
 11
136.615099
 21
169.696782
 31
0.0
  0
LINE
  5
5FD
330
1F
100
AcDbEntity
  8
101
  6
Continuous
 62
     7
370
    30
100
AcDbLine
 10
158.056931
 20
169.206683
 30
0.0
 11
147.274752
 21
169.574257
 31
0.0
  0
LINE
  5
5FE
330
1F
100
AcDbEntity
  8
101
  6
Continuous
 62
     7
370
    30
100
AcDbLine
 10
169.696782
 20
168.839109
 30
0.0
 11
158.056931
 21
169.206683
 31
0.0
  0
LINE
  5
5FF
330
1F
100
AcDbEntity
  8
101
  6
Continuous
 62
     7
370
    30
100
AcDbLine
 10
181.336634
 20
168.34901
 30
0.0
 11
169.696782
 21
168.839109
 31
0.0
  0
LINE
  5
600
330
1F
100
AcDbEntity
  8
101
  6
Continuous
 62
     7
370
    30
100
AcDbLine
 10
191.628713
 20
167.613861
 30
0.0
 11
181.336634
 21
168.34901
 31
0.0
  0
LINE
  5
601
330
1F
100
AcDbEntity
  8
101
  6
Continuous
 62
     7
370
    30
100
AcDbLine
 10
202.288366
 20
166.633663
 30
0.0
 11
191.628713
 21
167.613861
 31
0.0
  0
LINE
  5
602
330
1F
100
AcDbEntity
  8
101
  6
Continuous
 62
     7
370
    30
100
AcDbLine
 10
208.782178
 20
165.77599
 30
0.0
 11
202.288366
 21
166.633663
 31
0.0
  0
LINE
  5
603
330
1F
100
AcDbEntity
  8
101
  6
Continuous
 62
     7
370
    30
100
AcDbLine
 10
214.540842
 20
164.550743
 30
0.0
 11
208.782178
 21
165.77599
 31
0.0
  0
LINE
  5
604
330
1F
100
AcDbEntity
  8
101
  6
Continuous
 62
     7
370
    30
100
AcDbLine
 10
220.912129
 20
162.712871
 30
0.0
 11
214.540842
 21
164.550743
 31
0.0
  0
LINE
  5
605
330
1F
100
AcDbEntity
  8
101
  6
Continuous
 62
     7
370
    30
100
AcDbLine
 10
226.180693
 20
161.12005
 30
0.0
 11
220.912129
 21
162.712871
 31
0.0
  0
LINE
  5
606
330
1F
100
AcDbEntity
  8
101
  6
Continuous
 62
     7
370
    30
100
AcDbLine
 10
231.204208
 20
158.54703
 30
0.0
 11
226.180693
 21
161.12005
 31
0.0
  0
LINE
  5
607
330
1F
100
AcDbEntity
  8
101
  6
Continuous
 62
     7
370
    30
100
AcDbLine
 10
233.164604
 20
155.72896
 30
0.0
 11
231.204208
 21
158.54703
 31
0.0
  0
LINE
  5
608
330
1F
100
AcDbEntity
  8
101
  6
Continuous
 62
     7
370
    30
100
AcDbLine
 10
233.344433
 20
153.349718
 30
0.0
 11
233.164604
 21
155.72896
 31
0.0
  0
LINE
  5
609
330
1F
100
AcDbEntity
  8
101
  6
Continuous
 62
     7
370
    30
100
AcDbLine
 10
223.485149
 20
159.894802
 30
0.0
 11
221.647277
 21
160.384901
 31
0.0
  0
LINE
  5
60A
330
1F
100
AcDbEntity
  8
101
  6
Continuous
 62
     7
370
    30
100
AcDbLine
 10
227.038366
 20
157.811881
 30
0.0
 11
223.485149
 21
159.894802
 31
0.0
  0
LINE
  5
60B
330
1F
100
AcDbEntity
  8
101
  6
Continuous
 62
     7
370
    30
100
AcDbLine
 10
229.121287
 20
156.096535
 30
0.0
 11
227.038366
 21
157.811881
 31
0.0
  0
LINE
  5
60C
330
1F
100
AcDbEntity
  8
101
  6
Continuous
 62
     7
370
    30
100
AcDbLine
 10
228.876238
 20
154.381188
 30
0.0
 11
229.121287
 21
156.096535
 31
0.0
  0
LINE
  5
60D
330
1F
100
AcDbEntity
  8
101
  6
Continuous
 62
     7
370
    30
100
AcDbLine
 10
226.548267
 20
151.685644
 30
0.0
 11
228.876238
 21
154.381188
 31
0.0
  0
LINE
  5
60E
330
1F
100
AcDbEntity
  8
101
  6
Continuous
 62
     7
370
    30
100
AcDbLine
 10
222.014851
 20
149.357673
 30
0.0
 11
226.548267
 21
151.685644
 31
0.0
  0
LINE
  5
60F
330
1F
100
AcDbEntity
  8
101
  6
Continuous
 62
     7
370
    30
100
AcDbLine
 10
221.279703
 20
153.64604
 30
0.0
 11
222.627475
 21
154.871287
 31
0.0
  0
LINE
  5
610
330
1F
100
AcDbEntity
  8
101
  6
Continuous
 62
     7
370
    30
100
AcDbLine
 10
217.726485
 20
150.950495
 30
0.0
 11
221.279703
 21
153.64604
 31
0.0
  0
LINE
  5
611
330
1F
100
AcDbEntity
  8
101
  6
Continuous
 62
     7
370
    30
100
AcDbLine
 10
211.477723
 20
148.377475
 30
0.0
 11
217.726485
 21
150.950495
 31
0.0
  0
LINE
  5
612
330
1F
100
AcDbEntity
  8
101
  6
Continuous
 62
     7
370
    30
100
AcDbLine
 10
206.209158
 20
146.907178
 30
0.0
 11
211.477723
 21
148.377475
 31
0.0
  0
LINE
  5
613
330
1F
100
AcDbEntity
  8
101
  6
Continuous
 62
     7
370
    30
100
AcDbLine
 10
199.592822
 20
145.436881
 30
0.0
 11
206.209158
 21
146.907178
 31
0.0
  0
LINE
  5
614
330
1F
100
AcDbEntity
  8
101
  6
Continuous
 62
     7
370
    30
100
AcDbLine
 10
191.261139
 20
143.721535
 30
0.0
 11
199.592822
 21
145.436881
 31
0.0
  0
LINE
  5
615
330
1F
100
AcDbEntity
  8
101
  6
Continuous
 62
     7
370
    30
100
AcDbLine
 10
183.419554
 20
142.618812
 30
0.0
 11
191.261139
 21
143.721535
 31
0.0
  0
LINE
  5
616
330
1F
100
AcDbEntity
  8
101
  6
Continuous
 62
     7
370
    30
100
AcDbLine
 10
174.720297
 20
141.516089
 30
0.0
 11
183.419554
 21
142.618812
 31
0.0
  0
LINE
  5
617
330
1F
100
AcDbEntity
  8
101
  6
Continuous
 62
     7
370
    30
100
AcDbLine
 10
164.918317
 20
140.290842
 30
0.0
 11
174.720297
 21
141.516089
 31
0.0
  0
LINE
  5
618
330
1F
100
AcDbEntity
  8
101
  6
Continuous
 62
     7
370
    30
100
AcDbLine
 10
157.199257
 20
139.923267
 30
0.0
 11
164.918317
 21
140.290842
 31
0.0
  0
LINE
  5
619
330
1F
100
AcDbEntity
  8
101
  6
Continuous
 62
     7
370
    30
100
AcDbLine
 10
150.950495
 20
139.555693
 30
0.0
 11
157.199257
 21
139.923267
 31
0.0
  0
LINE
  5
61A
330
1F
100
AcDbEntity
  8
101
  6
Continuous
 62
     7
370
    30
100
AcDbLine
 10
155.72896
 20
136.37005
 30
0.0
 11
150.337871
 21
136.37005
 31
0.0
  0
LINE
  5
61B
330
1F
100
AcDbEntity
  8
101
  6
Continuous
 62
     7
370
    30
100
AcDbLine
 10
163.815594
 20
136.982673
 30
0.0
 11
155.72896
 21
136.37005
 31
0.0
  0
LINE
  5
61C
330
1F
100
AcDbEntity
  8
101
  6
Continuous
 62
     7
370
    30
100
AcDbLine
 10
173.49505
 20
137.962871
 30
0.0
 11
163.815594
 21
136.982673
 31
0.0
  0
LINE
  5
61D
330
1F
100
AcDbEntity
  8
101
  6
Continuous
 62
     7
370
    30
100
AcDbLine
 10
182.929455
 20
138.69802
 30
0.0
 11
173.49505
 21
137.962871
 31
0.0
  0
LINE
  5
61E
330
1F
100
AcDbEntity
  8
101
  6
Continuous
 62
     7
370
    30
100
AcDbLine
 10
191.138614
 20
139.555693
 30
0.0
 11
182.929455
 21
138.69802
 31
0.0
  0
LINE
  5
61F
330
1F
100
AcDbEntity
  8
101
  6
Continuous
 62
     7
370
    30
100
AcDbLine
 10
198.735149
 20
140.903465
 30
0.0
 11
191.138614
 21
139.555693
 31
0.0
  0
LINE
  5
620
330
1F
100
AcDbEntity
  8
101
  6
Continuous
 62
     7
370
    30
100
AcDbLine
 10
203.391089
 20
141.761139
 30
0.0
 11
198.735149
 21
140.903465
 31
0.0
  0
LINE
  5
621
330
1F
100
AcDbEntity
  8
101
  6
Continuous
 62
     7
370
    30
100
AcDbLine
 10
210.375
 20
143.108911
 30
0.0
 11
203.391089
 21
141.761139
 31
0.0
  0
LINE
  5
622
330
1F
100
AcDbEntity
  8
101
  6
Continuous
 62
     7
370
    30
100
AcDbLine
 10
216.991337
 20
144.946782
 30
0.0
 11
210.375
 21
143.108911
 31
0.0
  0
LINE
  5
623
330
1F
100
AcDbEntity
  8
101
  6
Continuous
 62
     7
370
    30
100
AcDbLine
 10
221.892327
 20
146.784653
 30
0.0
 11
216.991337
 21
144.946782
 31
0.0
  0
LINE
  5
624
330
1F
100
AcDbEntity
  8
101
  6
Continuous
 62
     7
370
    30
100
AcDbLine
 10
229.121287
 20
150.092822
 30
0.0
 11
221.892327
 21
146.784653
 31
0.0
  0
LINE
  5
625
330
1F
100
AcDbEntity
  8
101
  6
Continuous
 62
     7
370
    30
100
AcDbLine
 10
232.184406
 20
152.053218
 30
0.0
 11
229.121287
 21
150.092822
 31
0.0
  0
LINE
  5
626
330
1F
100
AcDbEntity
  8
101
  6
Continuous
 62
     7
370
    30
100
AcDbLine
 10
234.267327
 20
154.381188
 30
0.0
 11
232.184406
 21
152.053218
 31
0.0
  0
LINE
  5
627
330
1F
100
AcDbEntity
  8
101
  6
Continuous
 62
     7
370
    30
100
AcDbLine
 10
234.87995
 20
156.831683
 30
0.0
 11
234.267327
 21
154.381188
 31
0.0
  0
LINE
  5
628
330
1F
100
AcDbEntity
  8
101
  6
Continuous
 62
     7
370
    30
100
AcDbLine
 10
233.654703
 20
160.139851
 30
0.0
 11
234.87995
 21
156.831683
 31
0.0
  0
LINE
  5
629
330
1F
100
AcDbEntity
  8
101
  6
Continuous
 62
     7
370
    30
100
AcDbLine
 10
231.326733
 20
162.590347
 30
0.0
 11
233.654703
 21
160.139851
 31
0.0
  0
LINE
  5
62A
330
1F
100
AcDbEntity
  8
101
  6
Continuous
 62
     7
370
    30
100
AcDbLine
 10
226.915842
 20
165.163366
 30
0.0
 11
231.326733
 21
162.590347
 31
0.0
  0
LINE
  5
62B
330
1F
100
AcDbEntity
  8
101
  6
Continuous
 62
     7
370
    30
100
AcDbLine
 10
221.524752
 20
167.491337
 30
0.0
 11
226.915842
 21
165.163366
 31
0.0
  0
LINE
  5
62C
330
1F
100
AcDbEntity
  8
101
  6
Continuous
 62
     7
370
    30
100
AcDbLine
 10
210.375
 20
170.309406
 30
0.0
 11
221.524752
 21
167.491337
 31
0.0
  0
LINE
  5
62D
330
1F
100
AcDbEntity
  8
101
  6
Continuous
 62
     7
370
    30
100
AcDbLine
 10
201.063119
 20
172.024752
 30
0.0
 11
210.375
 21
170.309406
 31
0.0
  0
LINE
  5
62E
330
1F
100
AcDbEntity
  8
101
  6
Continuous
 62
     7
370
    30
100
AcDbLine
 10
193.221535
 20
173.127475
 30
0.0
 11
201.063119
 21
172.024752
 31
0.0
  0
LINE
  5
62F
330
1F
100
AcDbEntity
  8
101
  6
Continuous
 62
     7
370
    30
100
AcDbLine
 10
182.071782
 20
174.352723
 30
0.0
 11
193.221535
 21
173.127475
 31
0.0
  0
LINE
  5
630
330
1F
100
AcDbEntity
  8
101
  6
Continuous
 62
     7
370
    30
100
AcDbLine
 10
171.044554
 20
175.332921
 30
0.0
 11
182.071782
 21
174.352723
 31
0.0
  0
LINE
  5
631
330
1F
100
AcDbEntity
  8
101
  6
Continuous
 62
     7
370
    30
100
AcDbLine
 10
159.282178
 20
175.945545
 30
0.0
 11
171.044554
 21
175.332921
 31
0.0
  0
LINE
  5
632
330
1F
100
AcDbEntity
  8
101
  6
Continuous
 62
     7
370
    30
100
AcDbLine
 10
147.642327
 20
175.82302
 30
0.0
 11
159.282178
 21
175.945545
 31
0.0
  0
LINE
  5
633
330
1F
100
AcDbEntity
  8
101
  6
Continuous
 62
     7
370
    30
100
AcDbLine
 10
124.852723
 20
175.57797
 30
0.0
 11
147.642327
 21
175.82302
 31
0.0
  0
LINE
  5
634
330
1F
100
AcDbEntity
  8
101
  6
Continuous
 62
     7
370
    30
100
AcDbLine
 10
109.04703
 20
174.597772
 30
0.0
 11
124.852723
 21
175.57797
 31
0.0
  0
LINE
  5
635
330
1F
100
AcDbEntity
  8
101
  6
Continuous
 62
     7
370
    30
100
AcDbLine
 10
96.42698
 20
173.862624
 30
0.0
 11
109.04703
 21
174.597772
 31
0.0
  0
LINE
  5
636
330
1F
100
AcDbEntity
  8
101
  6
Continuous
 62
     7
370
    30
100
AcDbLine
 10
86.257426
 20
173.25
 30
0.0
 11
96.42698
 21
173.862624
 31
0.0
  0
LINE
  5
637
330
1F
100
AcDbEntity
  8
101
  6
Continuous
 62
     7
370
    30
100
AcDbLine
 10
75.475248
 20
172.024752
 30
0.0
 11
86.257426
 21
173.25
 31
0.0
  0
LINE
  5
638
330
1F
100
AcDbEntity
  8
101
  6
Continuous
 62
     7
370
    30
100
AcDbLine
 10
65.305693
 20
170.92203
 30
0.0
 11
75.475248
 21
172.024752
 31
0.0
  0
LINE
  5
639
330
1F
100
AcDbEntity
  8
101
  6
Continuous
 62
     7
370
    30
100
AcDbLine
 10
54.40099
 20
169.451733
 30
0.0
 11
65.305693
 21
170.92203
 31
0.0
  0
LINE
  5
63A
330
1F
100
AcDbEntity
  8
101
  6
Continuous
 62
     7
370
    30
100
AcDbLine
 10
44.966584
 20
167.858911
 30
0.0
 11
54.40099
 21
169.451733
 31
0.0
  0
LINE
  5
63B
330
1F
100
AcDbEntity
  8
101
  6
Continuous
 62
     7
370
    30
100
AcDbLine
 10
38.105198
 20
166.511139
 30
0.0
 11
44.966584
 21
167.858911
 31
0.0
  0
LINE
  5
63C
330
1F
100
AcDbEntity
  8
101
  6
Continuous
 62
     7
370
    30
100
AcDbLine
 10
142.986386
 20
177.783416
 30
0.0
 11
147.642327
 21
175.82302
 31
0.0
  0
LINE
  5
63D
330
1F
100
AcDbEntity
  8
101
  6
Continuous
 62
     7
370
    30
100
AcDbLine
 10
138.207921
 20
179.008663
 30
0.0
 11
142.986386
 21
177.783416
 31
0.0
  0
LINE
  5
63E
330
1F
100
AcDbEntity
  8
101
  6
Continuous
 62
     7
370
    30
100
AcDbLine
 10
128.89604
 20
181.091584
 30
0.0
 11
138.207921
 21
179.008663
 31
0.0
  0
LINE
  5
63F
330
1F
100
AcDbEntity
  8
101
  6
Continuous
 62
     7
370
    30
100
AcDbLine
 10
122.402228
 20
181.581683
 30
0.0
 11
128.89604
 21
181.091584
 31
0.0
  0
LINE
  5
640
330
1F
100
AcDbEntity
  8
101
  6
Continuous
 62
     7
370
    30
100
AcDbLine
 10
116.52104
 20
182.071782
 30
0.0
 11
122.402228
 21
181.581683
 31
0.0
  0
LINE
  5
641
330
1F
100
AcDbEntity
  8
101
  6
Continuous
 62
     7
370
    30
100
AcDbLine
 10
109.782178
 20
182.439356
 30
0.0
 11
116.52104
 21
182.071782
 31
0.0
  0
LINE
  5
642
330
1F
100
AcDbEntity
  8
101
  6
Continuous
 62
     7
370
    30
100
AcDbLine
 10
101.450495
 20
182.316832
 30
0.0
 11
109.782178
 21
182.439356
 31
0.0
  0
LINE
  5
643
330
1F
100
AcDbEntity
  8
101
  6
Continuous
 62
     7
370
    30
100
AcDbLine
 10
93.363861
 20
182.561881
 30
0.0
 11
101.450495
 21
182.316832
 31
0.0
  0
LINE
  5
644
330
1F
100
AcDbEntity
  8
101
  6
Continuous
 62
     7
370
    30
100
AcDbLine
 10
85.767327
 20
182.561881
 30
0.0
 11
93.363861
 21
182.561881
 31
0.0
  0
LINE
  5
645
330
1F
100
AcDbEntity
  8
101
  6
Continuous
 62
     7
370
    30
100
AcDbLine
 10
78.538366
 20
182.071782
 30
0.0
 11
85.767327
 21
182.561881
 31
0.0
  0
LINE
  5
646
330
1F
100
AcDbEntity
  8
101
  6
Continuous
 62
     7
370
    30
100
AcDbLine
 10
70.206683
 20
181.336634
 30
0.0
 11
78.538366
 21
182.071782
 31
0.0
  0
LINE
  5
647
330
1F
100
AcDbEntity
  8
101
  6
Continuous
 62
     7
370
    30
100
AcDbLine
 10
61.262376
 20
180.111386
 30
0.0
 11
70.206683
 21
181.336634
 31
0.0
  0
LINE
  5
648
330
1F
100
AcDbEntity
  8
101
  6
Continuous
 62
     7
370
    30
100
AcDbLine
 10
54.033416
 20
178.273515
 30
0.0
 11
61.262376
 21
180.111386
 31
0.0
  0
LINE
  5
649
330
1F
100
AcDbEntity
  8
101
  6
Continuous
 62
     7
370
    30
100
AcDbLine
 10
48.887376
 20
176.680693
 30
0.0
 11
54.033416
 21
178.273515
 31
0.0
  0
LINE
  5
64A
330
1F
100
AcDbEntity
  8
101
  6
Continuous
 62
     7
370
    30
100
AcDbLine
 10
28.854579
 20
190.587252
 30
0.0
 11
27.874381
 21
189.913366
 31
0.0
  0
LINE
  5
64B
330
1F
100
AcDbEntity
  8
101
  6
Continuous
 62
     7
370
    30
100
AcDbLine
 10
28.854579
 20
191.383663
 30
0.0
 11
28.854579
 21
190.587252
 31
0.0
  0
LINE
  5
64C
330
1F
100
AcDbEntity
  8
101
  6
Continuous
 62
     7
370
    30
100
AcDbLine
 10
28.854579
 20
192.486386
 30
0.0
 11
28.854579
 21
191.383663
 31
0.0
  0
LINE
  5
64D
330
1F
100
AcDbEntity
  8
101
  6
Continuous
 62
     7
370
    30
100
AcDbLine
 10
28.793317
 20
193.589109
 30
0.0
 11
28.854579
 21
192.486386
 31
0.0
  0
LINE
  5
64E
330
1F
100
AcDbEntity
  8
101
  6
Continuous
 62
     7
370
    30
100
AcDbLine
 10
28.60953
 20
194.446782
 30
0.0
 11
28.793317
 21
193.589109
 31
0.0
  0
LINE
  5
64F
330
1F
100
AcDbEntity
  8
101
  6
Continuous
 62
     7
370
    30
100
AcDbLine
 10
27.874381
 20
194.936881
 30
0.0
 11
28.60953
 21
194.446782
 31
0.0
  0
LINE
  5
650
330
1F
100
AcDbEntity
  8
101
  6
Continuous
 62
     7
370
    30
100
AcDbLine
 10
26.894183
 20
195.120668
 30
0.0
 11
27.874381
 21
194.936881
 31
0.0
  0
LINE
  5
651
330
1F
100
AcDbEntity
  8
101
  6
Continuous
 62
     7
370
    30
100
AcDbLine
 10
25.668936
 20
194.875619
 30
0.0
 11
26.894183
 21
195.120668
 31
0.0
  0
LINE
  5
652
330
1F
100
AcDbEntity
  8
101
  6
Continuous
 62
     7
370
    30
100
AcDbLine
 10
27.690594
 20
195.978342
 30
0.0
 11
26.465347
 21
195.610767
 31
0.0
  0
LINE
  5
653
330
1F
100
AcDbEntity
  8
101
  6
Continuous
 62
     7
370
    30
100
AcDbLine
 10
29.099629
 20
195.610767
 30
0.0
 11
27.690594
 21
195.978342
 31
0.0
  0
LINE
  5
654
330
1F
100
AcDbEntity
  8
101
  6
Continuous
 62
     7
370
    30
100
AcDbLine
 10
30.018564
 20
194.630569
 30
0.0
 11
29.099629
 21
195.610767
 31
0.0
  0
LINE
  5
655
330
1F
100
AcDbEntity
  8
101
  6
Continuous
 62
     7
370
    30
100
AcDbLine
 10
30.386139
 20
193.466584
 30
0.0
 11
30.018564
 21
194.630569
 31
0.0
  0
LINE
  5
656
330
1F
100
AcDbEntity
  8
101
  6
Continuous
 62
     7
370
    30
100
AcDbLine
 10
30.386139
 20
191.8125
 30
0.0
 11
30.386139
 21
193.466584
 31
0.0
  0
LINE
  5
657
330
1F
100
AcDbEntity
  8
101
  6
Continuous
 62
     7
370
    30
100
AcDbLine
 10
30.263614
 20
190.158416
 30
0.0
 11
30.386139
 21
191.8125
 31
0.0
  0
LINE
  5
658
330
1F
100
AcDbEntity
  8
101
  6
Continuous
 62
     7
370
    30
100
AcDbLine
 10
29.283416
 20
189.790842
 30
0.0
 11
30.263614
 21
190.158416
 31
0.0
  0
LINE
  5
659
330
1F
100
AcDbEntity
  8
101
  6
Continuous
 62
     7
370
    30
100
AcDbLine
 10
27.874381
 20
189.913366
 30
0.0
 11
29.283416
 21
189.790842
 31
0.0
  0
LINE
  5
65A
330
1F
100
AcDbEntity
  8
101
  6
Continuous
 62
     7
370
    30
100
AcDbLine
 10
26.710396
 20
190.219678
 30
0.0
 11
27.874381
 21
189.913366
 31
0.0
  0
LINE
  5
65B
330
1F
100
AcDbEntity
  8
101
  6
Continuous
 62
     7
370
    30
100
AcDbLine
 10
25.913985
 20
191.199876
 30
0.0
 11
26.710396
 21
190.219678
 31
0.0
  0
LINE
  5
65C
330
1F
100
AcDbEntity
  8
101
  6
Continuous
 62
     7
370
    30
100
AcDbLine
 10
25.730198
 20
193.221535
 30
0.0
 11
25.913985
 21
191.199876
 31
0.0
  0
LINE
  5
65D
330
1F
100
AcDbEntity
  8
101
  6
Continuous
 62
     7
370
    30
100
AcDbLine
 10
25.668936
 20
194.875619
 30
0.0
 11
25.730198
 21
193.221535
 31
0.0
  0
LINE
  5
65E
330
1F
100
AcDbEntity
  8
101
  6
Continuous
 62
     7
370
    30
100
AcDbLine
 10
26.465347
 20
195.610767
 30
0.0
 11
25.668936
 21
194.875619
 31
0.0
  0
LINE
  5
65F
330
1F
100
AcDbEntity
  8
101
  6
Continuous
 62
     7
370
    30
100
AcDbLine
 10
16.847153
 20
201.001856
 30
0.0
 11
17.444695
 21
202.718352
 31
0.0
  0
LINE
  5
660
330
1F
100
AcDbEntity
  8
101
  6
Continuous
 62
     7
370
    30
100
AcDbLine
 10
16.482793
 20
158.725927
 30
0.0
 11
16.847153
 21
201.001856
 31
0.0
  0
LINE
  5
661
330
1F
100
AcDbEntity
  8
101
  6
Continuous
 62
     7
370
    30
100
AcDbLine
 10
22.360767
 20
169.758045
 30
0.0
 11
21.941404
 21
161.450993
 31
0.0
  0
LINE
  5
662
330
1F
100
AcDbEntity
  8
101
  6
Continuous
 62
     7
370
    30
100
AcDbLine
 10
22.850866
 20
177.10953
 30
0.0
 11
22.360767
 21
169.758045
 31
0.0
  0
LINE
  5
663
330
1F
100
AcDbEntity
  8
101
  6
Continuous
 62
     7
370
    30
100
AcDbLine
 10
22.483292
 20
184.093441
 30
0.0
 11
22.850866
 21
177.10953
 31
0.0
  0
LINE
  5
664
330
1F
100
AcDbEntity
  8
101
  6
Continuous
 62
     7
370
    30
100
AcDbLine
 10
21.870668
 20
197.326114
 30
0.0
 11
22.483292
 21
184.093441
 31
0.0
  0
LINE
  5
665
330
1F
100
AcDbEntity
  8
101
  6
Continuous
 62
     7
370
    30
100
AcDbLine
 10
21.870668
 20
201.85953
 30
0.0
 11
21.870668
 21
197.326114
 31
0.0
  0
LINE
  5
666
330
1F
100
AcDbEntity
  8
101
  6
Continuous
 62
     7
370
    30
100
AcDbLine
 10
23.157178
 20
203.268564
 30
0.0
 11
21.870668
 21
201.85953
 31
0.0
  0
LINE
  5
667
330
1F
100
AcDbEntity
  8
101
  6
Continuous
 62
     7
370
    30
100
AcDbLine
 10
42.761139
 20
190.52599
 30
0.0
 11
46.158635
 21
185.852095
 31
0.0
  0
LINE
  5
668
330
1F
100
AcDbEntity
  8
101
  6
Continuous
 62
     7
370
    30
100
AcDbLine
 10
40.923267
 20
190.52599
 30
0.0
 11
42.761139
 21
190.52599
 31
0.0
  0
LINE
  5
669
330
1F
100
AcDbEntity
  8
101
  6
Continuous
 62
     7
370
    30
100
AcDbLine
 10
40.923267
 20
190.52599
 30
0.0
 11
45.005393
 21
185.649327
 31
0.0
  0
LINE
  5
66A
330
1F
100
AcDbEntity
  8
101
  6
Continuous
 62
     7
370
    30
100
AcDbLine
 10
40.503437
 20
184.857774
 30
0.0
 11
40.923267
 21
190.52599
 31
0.0
  0
LINE
  5
66B
330
1F
100
AcDbEntity
  8
101
  6
Continuous
 62
     7
370
    30
100
AcDbLine
 10
31.121287
 20
169.206683
 30
0.0
 11
31.121287
 21
166.511139
 31
0.0
  0
LINE
  5
66C
330
1F
100
AcDbEntity
  8
101
  6
Continuous
 62
     7
370
    30
100
AcDbLine
 10
31.488861
 20
175.82302
 30
0.0
 11
31.121287
 21
169.206683
 31
0.0
  0
LINE
  5
66D
330
1F
100
AcDbEntity
  8
101
  6
Continuous
 62
     7
370
    30
100
AcDbLine
 10
32.22401
 20
180.233911
 30
0.0
 11
31.488861
 21
175.82302
 31
0.0
  0
LINE
  5
66E
330
1F
100
AcDbEntity
  8
101
  6
Continuous
 62
     7
370
    30
100
AcDbLine
 10
34.429455
 20
182.439356
 30
0.0
 11
32.22401
 21
180.233911
 31
0.0
  0
LINE
  5
66F
330
1F
100
AcDbEntity
  8
101
  6
Continuous
 62
     7
370
    30
100
AcDbLine
 10
36.512376
 20
183.909653
 30
0.0
 11
34.429455
 21
182.439356
 31
0.0
  0
LINE
  5
670
330
1F
100
AcDbEntity
  8
101
  6
Continuous
 62
     7
370
    30
100
AcDbLine
 10
38.595297
 20
184.522277
 30
0.0
 11
36.512376
 21
183.909653
 31
0.0
  0
LINE
  5
671
330
1F
100
AcDbEntity
  8
101
  6
Continuous
 62
     7
370
    30
100
AcDbLine
 10
49.74505
 20
186.482673
 30
0.0
 11
38.595297
 21
184.522277
 31
0.0
  0
LINE
  5
672
330
1F
100
AcDbEntity
  8
101
  6
Continuous
 62
     7
370
    30
100
AcDbLine
 10
49.609928
 20
184.938432
 30
0.0
 11
34.429455
 21
182.439356
 31
0.0
  0
LINE
  5
673
330
1F
100
AcDbEntity
  8
101
  6
Continuous
 62
     7
370
    30
100
AcDbLine
 10
49.74505
 20
186.482673
 30
0.0
 11
50.573491
 21
196.2038
 31
0.0
  0
LINE
  5
674
330
1F
100
AcDbEntity
  8
101
  6
Continuous
 62
     7
370
    30
100
AcDbLine
 10
48.887376
 20
176.680693
 30
0.0
 11
49.74505
 21
186.482673
 31
0.0
  0
LINE
  5
675
330
1F
100
AcDbEntity
  8
101
  6
Continuous
 62
     7
370
    30
100
AcDbLine
 10
45.824257
 20
175.700495
 30
0.0
 11
48.887376
 21
176.680693
 31
0.0
  0
LINE
  5
676
330
1F
100
AcDbEntity
  8
101
  6
Continuous
 62
     7
370
    30
100
AcDbLine
 10
41.290842
 20
173.740099
 30
0.0
 11
45.824257
 21
175.700495
 31
0.0
  0
LINE
  5
677
330
1F
100
AcDbEntity
  8
101
  6
Continuous
 62
     7
370
    30
100
AcDbLine
 10
38.595297
 20
171.779703
 30
0.0
 11
41.290842
 21
173.740099
 31
0.0
  0
LINE
  5
678
330
1F
100
AcDbEntity
  8
101
  6
Continuous
 62
     7
370
    30
100
AcDbLine
 10
38.105198
 20
166.511139
 30
0.0
 11
38.595297
 21
171.779703
 31
0.0
  0
LINE
  5
679
330
1F
100
AcDbEntity
  8
101
  6
Continuous
 62
     7
370
    30
100
AcDbLine
 10
34.061881
 20
165.408416
 30
0.0
 11
38.105198
 21
166.511139
 31
0.0
  0
LINE
  5
67A
330
1F
100
AcDbEntity
  8
101
  6
Continuous
 62
     7
370
    30
100
AcDbLine
 10
28.670792
 20
164.183168
 30
0.0
 11
34.061881
 21
165.408416
 31
0.0
  0
LINE
  5
67B
330
1F
100
AcDbEntity
  8
101
  6
Continuous
 62
     7
370
    30
100
AcDbLine
 10
23.402228
 20
162.100248
 30
0.0
 11
28.670792
 21
164.183168
 31
0.0
  0
LINE
  5
67C
330
1F
100
AcDbEntity
  8
101
  6
Continuous
 62
     7
370
    30
100
AcDbLine
 10
17.888614
 20
159.649752
 30
0.0
 11
23.402228
 21
162.100248
 31
0.0
  0
LINE
  5
67D
330
1F
100
AcDbEntity
  8
101
  6
Continuous
 62
     7
370
    30
100
AcDbLine
 10
13.600248
 20
156.831683
 30
0.0
 11
17.888614
 21
159.649752
 31
0.0
  0
LINE
  5
67E
330
1F
100
AcDbEntity
  8
101
  6
Continuous
 62
     7
370
    30
100
AcDbLine
 10
13.477723
 20
177.538366
 30
0.0
 11
13.600248
 21
156.831683
 31
0.0
  0
LINE
  5
67F
330
1F
100
AcDbEntity
  8
101
  6
Continuous
 62
     7
370
    30
100
AcDbLine
 10
13.722772
 20
200.082921
 30
0.0
 11
13.477723
 21
177.538366
 31
0.0
  0
LINE
  5
680
330
1F
100
AcDbEntity
  8
101
  6
Continuous
 62
     7
370
    30
100
AcDbLine
 10
14.212871
 20
201.675743
 30
0.0
 11
13.722772
 21
200.082921
 31
0.0
  0
LINE
  5
681
330
1F
100
AcDbEntity
  8
101
  6
Continuous
 62
     7
370
    30
100
AcDbLine
 10
15.928218
 20
202.533416
 30
0.0
 11
14.212871
 21
201.675743
 31
0.0
  0
LINE
  5
682
330
1F
100
AcDbEntity
  8
101
  6
Continuous
 62
     7
370
    30
100
AcDbLine
 10
20.951733
 20
203.14604
 30
0.0
 11
15.928218
 21
202.533416
 31
0.0
  0
LINE
  5
683
330
1F
100
AcDbEntity
  8
101
  6
Continuous
 62
     7
370
    30
100
AcDbLine
 10
23.157178
 20
203.268564
 30
0.0
 11
20.951733
 21
203.14604
 31
0.0
  0
LINE
  5
684
330
1F
100
AcDbEntity
  8
101
  6
Continuous
 62
     7
370
    30
100
AcDbLine
 10
27.07797
 20
202.533416
 30
0.0
 11
23.157178
 21
203.268564
 31
0.0
  0
LINE
  5
685
330
1F
100
AcDbEntity
  8
101
  6
Continuous
 62
     7
370
    30
100
AcDbLine
 10
45.579208
 20
197.019802
 30
0.0
 11
27.07797
 21
202.533416
 31
0.0
  0
LINE
  5
686
330
1F
100
AcDbEntity
  8
101
  6
Continuous
 62
     7
370
    30
100
AcDbLine
 10
48.274752
 20
196.039604
 30
0.0
 11
45.579208
 21
197.019802
 31
0.0
  0
LINE
  5
687
330
1F
100
AcDbEntity
  8
101
  6
Continuous
 62
     7
370
    30
100
AcDbLine
 10
51.705446
 20
196.284653
 30
0.0
 11
48.274752
 21
196.039604
 31
0.0
  0
LINE
  5
688
330
1F
100
AcDbEntity
  8
101
  6
Continuous
 62
     7
370
    30
100
AcDbLine
 10
54.40099
 20
199.960396
 30
0.0
 11
51.705446
 21
196.284653
 31
0.0
  0
LINE
  5
689
330
1F
100
AcDbEntity
  8
101
  6
Continuous
 62
     7
370
    30
100
AcDbLine
 10
57.709158
 20
202.165842
 30
0.0
 11
54.40099
 21
199.960396
 31
0.0
  0
LINE
  5
68A
330
1F
100
AcDbEntity
  8
101
  6
Continuous
 62
     7
370
    30
100
AcDbLine
 10
62.855198
 20
204.248762
 30
0.0
 11
57.709158
 21
202.165842
 31
0.0
  0
LINE
  5
68B
330
1F
100
AcDbEntity
  8
101
  6
Continuous
 62
     7
370
    30
100
AcDbLine
 10
72.412129
 20
206.086634
 30
0.0
 11
62.855198
 21
204.248762
 31
0.0
  0
LINE
  5
68C
330
1F
100
AcDbEntity
  8
101
  6
Continuous
 62
     7
370
    30
100
AcDbLine
 10
79.763614
 20
207.311881
 30
0.0
 11
72.412129
 21
206.086634
 31
0.0
  0
LINE
  5
68D
330
1F
100
AcDbEntity
  8
101
  6
Continuous
 62
     7
370
    30
100
AcDbLine
 10
86.502475
 20
208.04703
 30
0.0
 11
79.763614
 21
207.311881
 31
0.0
  0
LINE
  5
68E
330
1F
100
AcDbEntity
  8
101
  6
Continuous
 62
     7
370
    30
100
AcDbLine
 10
92.628713
 20
208.292079
 30
0.0
 11
86.502475
 21
208.04703
 31
0.0
  0
LINE
  5
68F
330
1F
100
AcDbEntity
  8
101
  6
Continuous
 62
     7
370
    30
100
AcDbLine
 10
98.877475
 20
208.537129
 30
0.0
 11
92.628713
 21
208.292079
 31
0.0
  0
LINE
  5
690
330
1F
100
AcDbEntity
  8
101
  6
Continuous
 62
     7
370
    30
100
AcDbLine
 10
103.655941
 20
208.169554
 30
0.0
 11
98.877475
 21
208.537129
 31
0.0
  0
LINE
  5
691
330
1F
100
AcDbEntity
  8
101
  6
Continuous
 62
     7
370
    30
100
AcDbLine
 10
109.782178
 20
207.556931
 30
0.0
 11
103.655941
 21
208.169554
 31
0.0
  0
LINE
  5
692
330
1F
100
AcDbEntity
  8
101
  6
Continuous
 62
     7
370
    30
100
AcDbLine
 10
117.378713
 20
206.699257
 30
0.0
 11
109.782178
 21
207.556931
 31
0.0
  0
LINE
  5
693
330
1F
100
AcDbEntity
  8
101
  6
Continuous
 62
     7
370
    30
100
AcDbLine
 10
124.362624
 20
205.351485
 30
0.0
 11
117.378713
 21
206.699257
 31
0.0
  0
LINE
  5
694
330
1F
100
AcDbEntity
  8
101
  6
Continuous
 62
     7
370
    30
100
AcDbLine
 10
128.773515
 20
204.248762
 30
0.0
 11
124.362624
 21
205.351485
 31
0.0
  0
LINE
  5
695
330
1F
100
AcDbEntity
  8
101
  6
Continuous
 62
     7
370
    30
100
AcDbLine
 10
133.306931
 20
202.533416
 30
0.0
 11
128.773515
 21
204.248762
 31
0.0
  0
LINE
  5
696
330
1F
100
AcDbEntity
  8
101
  6
Continuous
 62
     7
370
    30
100
AcDbLine
 10
137.105198
 20
200.57302
 30
0.0
 11
133.306931
 21
202.533416
 31
0.0
  0
LINE
  5
697
330
1F
100
AcDbEntity
  8
101
  6
Continuous
 62
     7
370
    30
100
AcDbLine
 10
140.780941
 20
197.632426
 30
0.0
 11
137.105198
 21
200.57302
 31
0.0
  0
LINE
  5
698
330
1F
100
AcDbEntity
  8
101
  6
Continuous
 62
     7
370
    30
100
AcDbLine
 10
142.986386
 20
177.783416
 30
0.0
 11
140.780941
 21
197.632426
 31
0.0
  0
MTEXT
  5
699
330
1F
100
AcDbEntity
  8
100
  6
Continuous
 62
     7
370
     9
100
AcDbMText
 10
9.516318190943082
 20
-93.62424251515151
 30
0.0
 40
25.0
 41
293.4182016041797
 46
25.0
 71
     7
 72
     1
  1
{\fＭＳ ゴシック;\W0.714286;松本船舶電機製作所}
 73
     1
 44
1.0
  0
MTEXT
  5
69A
330
1F
100
AcDbEntity
  8
100
  6
Continuous
 62
     7
370
     9
100
AcDbMText
 10
-16.8661974877767
 20
266.7333332424242
 30
0.0
 40
25.0
 41
349.4765505874703
 46
25.0
 71
     7
 72
     1
  1
{\fＭＳ ゴシック;\W0.714286;[電球色ＬＥＤランプ付]}
 73
     1
 44
1.0
  0
MTEXT
  5
69B
330
1F
100
AcDbEntity
  8
100
  6
Continuous
 62
     7
370
     9
100
AcDbMText
 10
-29.05827298175015
 20
305.485832857868
 30
0.0
 40
25.0
 41
383.7175854703951
 46
25.0
 71
     7
 72
     1
  1
{\fＭＳ ゴシック;\W0.714286;Ｒ２号フランジリフレクト}
 73
     1
 44
1.0
  0
MTEXT
  5
69C
330
1F
100
AcDbEntity
  8
100
  6
Continuous
 62
     7
370
     9
100
AcDbMText
 10
55.25501463343537
 20
345.3043223210275
 30
0.0
 40
25.0
 41
149.5618597854195
 46
25.0
 71
     7
 72
     1
  1
{\fＭＳ ゴシック;\W0.714286;(R2F-RF-S)}
 73
     1
 44
1.0
  0
ENDSEC
  0
SECTION
  2
OBJECTS
  0
DICTIONARY
  5
C
330
0
100
AcDbDictionary
281
     1
  3
ACAD_DETAILVIEWSTYLE
350
6A4
  3
ACAD_GROUP
350
D
  3
ACAD_LAYOUT
350
1A
  3
ACAD_MATERIAL
350
43
  3
ACAD_MLEADERSTYLE
350
6B
  3
ACAD_MLINESTYLE
350
17
  3
ACAD_PLOTSETTINGS
350
19
  3
ACAD_PLOTSTYLENAME
350
E
  3
ACAD_SCALELIST
350
47
  3
ACAD_SECTIONVIEWSTYLE
350
6A5
  3
ACAD_TABLESTYLE
350
69
  3
ACAD_VISUALSTYLE
350
2A
  3
ACDB_RECOMPOSE_DATA
350
6A1
  3
AcDbVariableDictionary
350
69D
  0
SUN
  5
6D
330
29
100
AcDbSun
 90
        1
290
     0
 63
     7
421
 16777215
 40
1.0
291
     1
 91
  2455826
 92
 54000000
292
     0
 70
     2
 71
   256
280
     1
  0
DICTIONARY
  5
6A4
102
{ACAD_REACTORS
330
C
102
}
330
C
100
AcDbDictionary
281
     1
  0
DICTIONARY
  5
D
102
{ACAD_REACTORS
330
C
102
}
330
C
100
AcDbDictionary
281
     1
  0
DICTIONARY
  5
1A
102
{ACAD_REACTORS
330
C
102
}
330
C
100
AcDbDictionary
281
     1
  3
Layout1
350
1E
  3
Layout2
350
26
  3
Model
350
22
  0
DICTIONARY
  5
43
102
{ACAD_REACTORS
330
C
102
}
330
C
100
AcDbDictionary
281
     1
  3
ByBlock
350
45
  3
ByLayer
350
44
  3
Global
350
46
  0
DICTIONARY
  5
6B
102
{ACAD_REACTORS
330
C
102
}
330
C
100
AcDbDictionary
281
     1
  3
Standard
350
6C
  0
DICTIONARY
  5
17
102
{ACAD_REACTORS
330
C
102
}
330
C
100
AcDbDictionary
281
     1
  3
Standard
350
18
  0
DICTIONARY
  5
19
102
{ACAD_REACTORS
330
C
102
}
330
C
100
AcDbDictionary
281
     1
  0
ACDBDICTIONARYWDFLT
  5
E
102
{ACAD_REACTORS
330
C
102
}
330
C
100
AcDbDictionary
281
     1
  3
Normal
350
F
100
AcDbDictionaryWithDefault
340
F
  0
DICTIONARY
  5
47
102
{ACAD_REACTORS
330
C
102
}
330
C
100
AcDbDictionary
281
     1
  3
A0
350
48
  3
A1
350
49
  3
A2
350
4A
  3
A3
350
4B
  3
A4
350
4C
  3
A5
350
4D
  3
A6
350
4E
  3
A7
350
4F
  3
A8
350
50
  3
A9
350
51
  3
B0
350
52
  3
B1
350
53
  3
B2
350
54
  3
B3
350
55
  3
B4
350
56
  3
B5
350
57
  3
B6
350
58
  3
B7
350
59
  3
B8
350
5A
  3
B9
350
5B
  3
C0
350
5C
  3
C1
350
5D
  3
C2
350
5E
  3
C3
350
5F
  3
C4
350
60
  3
C5
350
61
  3
C6
350
62
  3
C7
350
63
  3
C8
350
64
  3
C9
350
65
  3
D0
350
66
  3
D1
350
67
  3
D2
350
68
  0
DICTIONARY
  5
6A5
102
{ACAD_REACTORS
330
C
102
}
330
C
100
AcDbDictionary
281
     1
  0
DICTIONARY
  5
69
102
{ACAD_REACTORS
330
C
102
}
330
C
100
AcDbDictionary
281
     1
  3
Standard
350
6A
  0
DICTIONARY
  5
2A
102
{ACAD_REACTORS
330
C
102
}
330
C
100
AcDbDictionary
281
     1
  3
2dWireframe
350
2F
  3
Basic
350
32
  3
Brighten
350
36
  3
ColorChange
350
3A
  3
Conceptual
350
34
  3
Dim
350
35
  3
EdgeColorOff
350
3D
  3
Facepattern
350
39
  3
Flat
350
2B
  3
FlatWithEdges
350
2C
  3
Gouraud
350
2D
  3
GouraudWithEdges
350
2E
  3
Hidden
350
31
  3
JitterOff
350
3B
  3
Linepattern
350
38
  3
OverhangOff
350
3C
  3
Realistic
350
33
  3
Shaded
350
42
  3
Shaded with edges
350
41
  3
Shades of Gray
350
3E
  3
Sketchy
350
3F
  3
Thicken
350
37
  3
Wireframe
350
30
  3
X-Ray
350
40
  0
XRECORD
  5
6A1
102
{ACAD_REACTORS
330
C
102
}
330
C
100
AcDbXrecord
280
     1
 90
        1
330
6A
  0
DICTIONARY
  5
69D
102
{ACAD_REACTORS
330
C
102
}
330
C
100
AcDbDictionary
281
     1
  3
CANNOSCALE
350
69E
  3
CMLEADERSTYLE
350
6A3
  3
CTABLESTYLE
350
6A2
  0
LAYOUT
  5
1E
102
{ACAD_REACTORS
330
1A
102
}
330
1A
100
AcDbPlotSettings
  1

  2
none_device
  4

  6

 40
0.0
 41
0.0
 42
0.0
 43
0.0
 44
0.0
 45
0.0
 46
0.0
 47
0.0
 48
0.0
 49
0.0
140
0.0
141
0.0
142
1.0
143
1.0
 70
   688
 72
     0
 73
     0
 74
     5
  7

 75
    16
 76
     0
 77
     2
 78
   300
147
1.0
148
0.0
149
0.0
100
AcDbLayout
  1
Layout1
 70
     1
 71
     1
 10
0.0
 20
0.0
 11
297.0
 21
210.0
 12
0.0
 22
0.0
 32
0.0
 14
0.0
 24
0.0
 34
0.0
 15
297.0
 25
210.0
 35
0.0
146
0.0
 13
0.0
 23
0.0
 33
0.0
 16
1.0
 26
0.0
 36
0.0
 17
0.0
 27
1.0
 37
0.0
 76
     0
330
1B
  0
LAYOUT
  5
26
102
{ACAD_REACTORS
330
1A
102
}
330
1A
100
AcDbPlotSettings
  1

  2
none_device
  4

  6

 40
0.0
 41
0.0
 42
0.0
 43
0.0
 44
0.0
 45
0.0
 46
0.0
 47
0.0
 48
0.0
 49
0.0
140
0.0
141
0.0
142
1.0
143
1.0
 70
   688
 72
     0
 73
     0
 74
     5
  7

 75
    16
 76
     0
 77
     2
 78
   300
147
1.0
148
0.0
149
0.0
100
AcDbLayout
  1
Layout2
 70
     1
 71
     2
 10
0.0
 20
0.0
 11
0.0
 21
0.0
 12
0.0
 22
0.0
 32
0.0
 14
0.0
 24
0.0
 34
0.0
 15
0.0
 25
0.0
 35
0.0
146
0.0
 13
0.0
 23
0.0
 33
0.0
 16
1.0
 26
0.0
 36
0.0
 17
0.0
 27
1.0
 37
0.0
 76
     0
330
23
  0
LAYOUT
  5
22
102
{ACAD_REACTORS
330
1A
102
}
330
1A
100
AcDbPlotSettings
  1

  2
none_device
  4
Letter_(8.50_x_11.00_Inches)
  6

 40
6.35
 41
6.35
 42
6.35000508
 43
6.35000508
 44
215.9
 45
279.4
 46
0.0
 47
0.0
 48
0.0
 49
0.0
140
0.0
141
0.0
142
1.0
143
1.0
 70
  1712
 72
     0
 73
     0
 74
     0
  7

 75
     0
 76
     0
 77
     2
 78
   300
147
1.0
148
0.0
149
0.0
100
AcDbLayout
  1
Model
 70
     1
 71
     0
 10
0.0
 20
0.0
 11
297.0
 21
210.0
 12
0.0
 22
0.0
 32
0.0
 14
-29.05827298175015
 24
-93.62424251515151
 34
0.0
 15
270.9417270182499
 25
370.3043223210275
 35
0.0
146
0.0
 13
0.0
 23
0.0
 33
0.0
 16
1.0
 26
0.0
 36
0.0
 17
0.0
 27
1.0
 37
0.0
 76
     0
330
1F
331
29
  0
MATERIAL
  5
45
102
{ACAD_REACTORS
330
43
102
}
330
43
100
AcDbMaterial
  1
ByBlock
 72
     1
 94
      127
  0
MATERIAL
  5
44
102
{ACAD_REACTORS
330
43
102
}
330
43
100
AcDbMaterial
  1
ByLayer
 72
     1
 94
      127
  0
MATERIAL
  5
46
102
{ACAD_REACTORS
330
43
102
}
330
43
100
AcDbMaterial
  1
Global
 72
     1
 94
      127
  0
MLEADERSTYLE
  5
6C
102
{ACAD_REACTORS
330
6B
102
}
330
6B
100
AcDbMLeaderStyle
179
     2
170
     2
171
     1
172
     0
 90
        2
 40
0.0
 41
0.0
173
     1
 91
-1056964608
340
14
 92
       -2
290
     1
 42
0.09
291
     1
 43
0.36
  3
Standard
341
0
 44
0.18
300

342
11
174
     1
178
     6
175
     1
176
     0
 93
-1056964608
 45
0.18
292
     0
297
     0
 46
0.18
343
0
 94
-1056964608
 47
1.0
 49
1.0
140
1.0
293
     1
141
0.0
294
     1
177
     0
142
1.0
295
     0
296
     0
143
0.125
271
     0
272
     9
273
     9
298
     0
  0
MLINESTYLE
  5
18
102
{ACAD_REACTORS
330
17
102
}
330
17
100
AcDbMlineStyle
  2
Standard
 70
     0
  3

 62
   256
 51
90.0
 52
90.0
 71
     2
 49
0.5
 62
   256
  6
BYLAYER
 49
-0.5
 62
   256
  6
BYLAYER
  0
ACDBPLACEHOLDER
  5
F
102
{ACAD_REACTORS
330
E
102
}
330
E
  0
SCALE
  5
48
102
{ACAD_REACTORS
330
47
102
}
330
47
100
AcDbScale
 70
     0
300
1:1
140
1.0
141
1.0
290
     1
  0
SCALE
  5
49
102
{ACAD_REACTORS
330
47
102
}
330
47
100
AcDbScale
 70
     0
300
1:2
140
1.0
141
2.0
290
     0
  0
SCALE
  5
4A
102
{ACAD_REACTORS
330
47
102
}
330
47
100
AcDbScale
 70
     0
300
1:4
140
1.0
141
4.0
290
     0
  0
SCALE
  5
4B
102
{ACAD_REACTORS
330
47
102
}
330
47
100
AcDbScale
 70
     0
300
1:5
140
1.0
141
5.0
290
     0
  0
SCALE
  5
4C
102
{ACAD_REACTORS
330
47
102
}
330
47
100
AcDbScale
 70
     0
300
1:8
140
1.0
141
8.0
290
     0
  0
SCALE
  5
4D
102
{ACAD_REACTORS
330
47
102
}
330
47
100
AcDbScale
 70
     0
300
1:10
140
1.0
141
10.0
290
     0
  0
SCALE
  5
4E
102
{ACAD_REACTORS
330
47
102
}
330
47
100
AcDbScale
 70
     0
300
1:16
140
1.0
141
16.0
290
     0
  0
SCALE
  5
4F
102
{ACAD_REACTORS
330
47
102
}
330
47
100
AcDbScale
 70
     0
300
1:20
140
1.0
141
20.0
290
     0
  0
SCALE
  5
50
102
{ACAD_REACTORS
330
47
102
}
330
47
100
AcDbScale
 70
     0
300
1:30
140
1.0
141
30.0
290
     0
  0
SCALE
  5
51
102
{ACAD_REACTORS
330
47
102
}
330
47
100
AcDbScale
 70
     0
300
1:40
140
1.0
141
40.0
290
     0
  0
SCALE
  5
52
102
{ACAD_REACTORS
330
47
102
}
330
47
100
AcDbScale
 70
     0
300
1:50
140
1.0
141
50.0
290
     0
  0
SCALE
  5
53
102
{ACAD_REACTORS
330
47
102
}
330
47
100
AcDbScale
 70
     0
300
1:100
140
1.0
141
100.0
290
     0
  0
SCALE
  5
54
102
{ACAD_REACTORS
330
47
102
}
330
47
100
AcDbScale
 70
     0
300
2:1
140
2.0
141
1.0
290
     0
  0
SCALE
  5
55
102
{ACAD_REACTORS
330
47
102
}
330
47
100
AcDbScale
 70
     0
300
4:1
140
4.0
141
1.0
290
     0
  0
SCALE
  5
56
102
{ACAD_REACTORS
330
47
102
}
330
47
100
AcDbScale
 70
     0
300
8:1
140
8.0
141
1.0
290
     0
  0
SCALE
  5
57
102
{ACAD_REACTORS
330
47
102
}
330
47
100
AcDbScale
 70
     0
300
10:1
140
10.0
141
1.0
290
     0
  0
SCALE
  5
58
102
{ACAD_REACTORS
330
47
102
}
330
47
100
AcDbScale
 70
     0
300
100:1
140
100.0
141
1.0
290
     0
  0
SCALE
  5
59
102
{ACAD_REACTORS
330
47
102
}
330
47
100
AcDbScale
 70
     0
300
1/128" = 1'-0"
140
0.0078125
141
12.0
290
     0
  0
SCALE
  5
5A
102
{ACAD_REACTORS
330
47
102
}
330
47
100
AcDbScale
 70
     0
300
1/64" = 1'-0"
140
0.015625
141
12.0
290
     0
  0
SCALE
  5
5B
102
{ACAD_REACTORS
330
47
102
}
330
47
100
AcDbScale
 70
     0
300
1/32" = 1'-0"
140
0.03125
141
12.0
290
     0
  0
SCALE
  5
5C
102
{ACAD_REACTORS
330
47
102
}
330
47
100
AcDbScale
 70
     0
300
1/16" = 1'-0"
140
0.0625
141
12.0
290
     0
  0
SCALE
  5
5D
102
{ACAD_REACTORS
330
47
102
}
330
47
100
AcDbScale
 70
     0
300
3/32" = 1'-0"
140
0.09375
141
12.0
290
     0
  0
SCALE
  5
5E
102
{ACAD_REACTORS
330
47
102
}
330
47
100
AcDbScale
 70
     0
300
1/8" = 1'-0"
140
0.125
141
12.0
290
     0
  0
SCALE
  5
5F
102
{ACAD_REACTORS
330
47
102
}
330
47
100
AcDbScale
 70
     0
300
3/16" = 1'-0"
140
0.1875
141
12.0
290
     0
  0
SCALE
  5
60
102
{ACAD_REACTORS
330
47
102
}
330
47
100
AcDbScale
 70
     0
300
1/4" = 1'-0"
140
0.25
141
12.0
290
     0
  0
SCALE
  5
61
102
{ACAD_REACTORS
330
47
102
}
330
47
100
AcDbScale
 70
     0
300
3/8" = 1'-0"
140
0.375
141
12.0
290
     0
  0
SCALE
  5
62
102
{ACAD_REACTORS
330
47
102
}
330
47
100
AcDbScale
 70
     0
300
1/2" = 1'-0"
140
0.5
141
12.0
290
     0
  0
SCALE
  5
63
102
{ACAD_REACTORS
330
47
102
}
330
47
100
AcDbScale
 70
     0
300
3/4" = 1'-0"
140
0.75
141
12.0
290
     0
  0
SCALE
  5
64
102
{ACAD_REACTORS
330
47
102
}
330
47
100
AcDbScale
 70
     0
300
1" = 1'-0"
140
1.0
141
12.0
290
     0
  0
SCALE
  5
65
102
{ACAD_REACTORS
330
47
102
}
330
47
100
AcDbScale
 70
     0
300
1-1/2" = 1'-0"
140
1.5
141
12.0
290
     0
  0
SCALE
  5
66
102
{ACAD_REACTORS
330
47
102
}
330
47
100
AcDbScale
 70
     0
300
3" = 1'-0"
140
3.0
141
12.0
290
     0
  0
SCALE
  5
67
102
{ACAD_REACTORS
330
47
102
}
330
47
100
AcDbScale
 70
     0
300
6" = 1'-0"
140
6.0
141
12.0
290
     0
  0
SCALE
  5
68
102
{ACAD_REACTORS
330
47
102
}
330
47
100
AcDbScale
 70
     0
300
1'-0" = 1'-0"
140
12.0
141
12.0
290
     0
  0
TABLESTYLE
  5
6A
102
{ACAD_REACTORS
330
69
102
}
102
{ACAD_XDICTIONARY
360
69F
102
}
330
69
100
AcDbTableStyle
  3
Standard
 70
     0
 71
     0
 40
0.06
 41
0.06
280
     0
281
     0
  7
Standard
140
0.18
170
     2
 62
     0
 63
   257
283
     0
 90
        4
 91
        0
  1

274
    -2
284
     1
 64
     0
275
    -2
285
     1
 65
     0
276
    -2
286
     1
 66
     0
277
    -2
287
     1
 67
     0
278
    -2
288
     1
 68
     0
279
    -2
289
     1
 69
     0
  7
Standard
140
0.25
170
     5
 62
     0
 63
   257
283
     0
 90
        4
 91
        0
  1

274
    -2
284
     1
 64
     0
275
    -2
285
     1
 65
     0
276
    -2
286
     1
 66
     0
277
    -2
287
     1
 67
     0
278
    -2
288
     1
 68
     0
279
    -2
289
     1
 69
     0
  7
Standard
140
0.18
170
     5
 62
     0
 63
   257
283
     0
 90
        4
 91
        0
  1

274
    -2
284
     1
 64
     0
275
    -2
285
     1
 65
     0
276
    -2
286
     1
 66
     0
277
    -2
287
     1
 67
     0
278
    -2
288
     1
 68
     0
279
    -2
289
     1
 69
     0
  0
VISUALSTYLE
  5
2F
102
{ACAD_REACTORS
330
2A
102
}
330
2A
100
AcDbVisualStyle
  2
2dWireframe
 70
     4
177
     3
291
     0
 70
    58
 90
        0
176
     1
 90
        2
176
     1
 90
        0
176
     1
 90
        0
176
     1
 40
0.6
176
     1
 40
30.0
176
     1
 62
     7
420
 16777215
176
     1
 90
        1
176
     1
 90
        4
176
     1
 62
     7
176
     1
 62
   257
176
     1
 90
        1
176
     1
 90
        1
176
     1
 40
1.0
176
     1
 90
        0
176
     1
 62
   257
176
     1
 40
1.0
176
     1
 90
        1
176
     1
 90
        6
176
     1
 90
        2
176
     1
 62
     7
176
     1
 90
        5
176
     1
 90
        0
176
     1
 90
        0
176
     1
290
     0
176
     1
 90
        1
176
     1
 40
0.0
176
     1
 90
        0
176
     1
290
     1
176
     1
290
     1
176
     1
290
     0
176
     1
290
     0
176
     1
290
     0
176
     1
290
     0
176
     1
290
     0
176
     1
290
     0
176
     1
290
     0
176
     1
 90
       50
176
     1
 40
0.0
176
     1
 40
1.0
176
     1
 90
        0
176
     1
 62
    18
420
        0
176
     1
 90
       50
176
     1
 90
        3
176
     1
 62
     5
420
      255
176
     1
290
     0
176
     1
 90
       50
176
     1
 90
       50
176
     1
 90
       50
176
     1
290
     0
176
     1
 90
       50
176
     1
 62
   256
176
     0
 40
1.0
176
     0
 90
        2
176
     1
  1
strokes_ogs.tif
176
     1
290
     0
176
     1
 40
1.0
176
     1
 40
1.0
176
     1
  0
VISUALSTYLE
  5
32
102
{ACAD_REACTORS
330
2A
102
}
330
2A
100
AcDbVisualStyle
  2
Basic
 70
     7
177
     3
291
     1
 70
    58
 90
        1
176
     1
 90
        0
176
     1
 90
        1
176
     1
 90
        0
176
     1
 40
0.6
176
     1
 40
30.0
176
     1
 62
     7
420
 16777215
176
     1
 90
        0
176
     1
 90
        4
176
     1
 62
     7
176
     1
 62
   257
176
     1
 90
        1
176
     1
 90
        1
176
     1
 40
1.0
176
     1
 90
        8
176
     1
 62
     7
176
     1
 40
1.0
176
     1
 90
        1
176
     1
 90
        6
176
     1
 90
        2
176
     1
 62
     7
176
     1
 90
        5
176
     1
 90
        0
176
     1
 90
        0
176
     1
290
     0
176
     1
 90
        1
176
     1
 40
0.0
176
     1
 90
        0
176
     1
290
     0
176
     1
290
     1
176
     1
290
     1
176
     1
290
     0
176
     1
290
     0
176
     1
290
     0
176
     1
290
     0
176
     1
290
     0
176
     1
290
     0
176
     1
 90
       50
176
     1
 40
0.0
176
     1
 40
1.0
176
     1
 90
        0
176
     1
 62
    18
420
        0
176
     1
 90
       50
176
     1
 90
        3
176
     1
 62
     5
420
      255
176
     1
290
     0
176
     1
 90
       50
176
     1
 90
       50
176
     1
 90
       50
176
     1
290
     0
176
     1
 90
       50
176
     1
 62
   256
176
     0
 40
1.0
176
     0
 90
        2
176
     1
  1
strokes_ogs.tif
176
     1
290
     0
176
     1
 40
1.0
176
     1
 40
1.0
176
     1
  0
VISUALSTYLE
  5
36
102
{ACAD_REACTORS
330
2A
102
}
330
2A
100
AcDbVisualStyle
  2
Brighten
 70
    12
177
     3
291
     1
 70
    58
 90
        2
176
     1
 90
        2
176
     1
 90
        0
176
     1
 90
        0
176
     1
 40
0.6
176
     1
 40
30.0
176
     1
 62
     7
420
 16777215
176
     1
 90
        1
176
     1
 90
        4
176
     1
 62
     7
176
     1
 62
   257
176
     1
 90
        1
176
     1
 90
        1
176
     1
 40
1.0
176
     1
 90
        8
176
     1
 62
     7
176
     1
 40
1.0
176
     1
 90
        1
176
     1
 90
        6
176
     1
 90
        2
176
     1
 62
     7
176
     1
 90
        5
176
     1
 90
        0
176
     1
 90
        0
176
     1
290
     0
176
     1
 90
        1
176
     1
 40
50.0
176
     1
 90
        0
176
     1
290
     0
176
     1
290
     1
176
     1
290
     1
176
     1
290
     0
176
     1
290
     0
176
     1
290
     0
176
     1
290
     0
176
     1
290
     0
176
     1
290
     0
176
     1
 90
       50
176
     1
 40
0.0
176
     1
 40
1.0
176
     1
 90
        0
176
     1
 62
    18
420
        0
176
     1
 90
       50
176
     1
 90
        3
176
     1
 62
     5
420
      255
176
     1
290
     0
176
     1
 90
       50
176
     1
 90
       50
176
     1
 90
       50
176
     1
290
     0
176
     1
 90
       50
176
     1
 62
   256
176
     0
 40
1.0
176
     0
 90
        2
176
     1
  1
strokes_ogs.tif
176
     1
290
     0
176
     1
 40
1.0
176
     1
 40
1.0
176
     1
  0
VISUALSTYLE
  5
3A
102
{ACAD_REACTORS
330
2A
102
}
330
2A
100
AcDbVisualStyle
  2
ColorChange
 70
    16
177
     3
291
     1
 70
    58
 90
        2
176
     1
 90
        2
176
     1
 90
        3
176
     1
 90
        0
176
     1
 40
0.6
176
     1
 40
30.0
176
     1
 62
     8
420
  8421504
176
     1
 90
        1
176
     1
 90
        4
176
     1
 62
     7
176
     1
 62
   257
176
     1
 90
        1
176
     1
 90
        1
176
     1
 40
1.0
176
     1
 90
        8
176
     1
 62
     8
420
  8421504
176
     1
 40
1.0
176
     1
 90
        1
176
     1
 90
        6
176
     1
 90
        2
176
     1
 62
     7
176
     1
 90
        5
176
     1
 90
        0
176
     1
 90
        0
176
     1
290
     0
176
     1
 90
        1
176
     1
 40
0.0
176
     1
 90
        0
176
     1
290
     0
176
     1
290
     1
176
     1
290
     1
176
     1
290
     0
176
     1
290
     0
176
     1
290
     0
176
     1
290
     0
176
     1
290
     0
176
     1
290
     0
176
     1
 90
       50
176
     1
 40
0.0
176
     1
 40
1.0
176
     1
 90
        0
176
     1
 62
    18
420
        0
176
     1
 90
       50
176
     1
 90
        3
176
     1
 62
     5
420
      255
176
     1
290
     0
176
     1
 90
       50
176
     1
 90
       50
176
     1
 90
       50
176
     1
290
     0
176
     1
 90
       50
176
     1
 62
   256
176
     0
 40
1.0
176
     0
 90
        2
176
     1
  1
strokes_ogs.tif
176
     1
290
     0
176
     1
 40
1.0
176
     1
 40
1.0
176
     1
  0
VISUALSTYLE
  5
34
102
{ACAD_REACTORS
330
2A
102
}
330
2A
100
AcDbVisualStyle
  2
Conceptual
 70
     9
177
     3
291
     0
 70
    58
 90
        3
176
     1
 90
        2
176
     1
 90
        0
176
     1
 90
        0
176
     1
 40
0.6
176
     1
 40
30.0
176
     1
 62
     7
420
 16777215
176
     1
 90
        2
176
     1
 90
        2
176
     1
 62
     7
176
     1
 62
   257
176
     1
 90
        1
176
     1
 90
        1
176
     1
 40
179.0
176
     1
 90
        8
176
     1
 62
     7
176
     1
 40
1.0
176
     1
 90
        1
176
     1
 90
        6
176
     1
 90
        2
176
     1
 62
     7
176
     1
 90
        3
176
     1
 90
        0
176
     1
 90
        0
176
     1
290
     0
176
     1
 90
        1
176
     1
 40
0.0
176
     1
 90
        0
176
     1
290
     0
176
     1
290
     1
176
     1
290
     1
176
     1
290
     0
176
     1
290
     0
176
     1
290
     0
176
     1
290
     0
176
     1
290
     0
176
     1
290
     0
176
     1
 90
       50
176
     1
 40
0.0
176
     1
 40
1.0
176
     1
 90
        0
176
     1
 62
    18
420
        0
176
     1
 90
       50
176
     1
 90
        3
176
     1
 62
     5
420
      255
176
     1
290
     0
176
     1
 90
       50
176
     1
 90
       50
176
     1
 90
       50
176
     1
290
     0
176
     1
 90
       50
176
     1
 62
   256
176
     0
 40
1.0
176
     0
 90
        2
176
     1
  1
strokes_ogs.tif
176
     1
290
     0
176
     1
 40
1.0
176
     1
 40
1.0
176
     1
  0
VISUALSTYLE
  5
35
102
{ACAD_REACTORS
330
2A
102
}
330
2A
100
AcDbVisualStyle
  2
Dim
 70
    11
177
     3
291
     1
 70
    58
 90
        2
176
     1
 90
        2
176
     1
 90
        0
176
     1
 90
        0
176
     1
 40
0.6
176
     1
 40
30.0
176
     1
 62
     7
420
 16777215
176
     1
 90
        1
176
     1
 90
        4
176
     1
 62
     7
176
     1
 62
   257
176
     1
 90
        1
176
     1
 90
        1
176
     1
 40
1.0
176
     1
 90
        8
176
     1
 62
     7
176
     1
 40
1.0
176
     1
 90
        1
176
     1
 90
        6
176
     1
 90
        2
176
     1
 62
     7
176
     1
 90
        5
176
     1
 90
        0
176
     1
 90
        0
176
     1
290
     0
176
     1
 90
        1
176
     1
 40
-50.0
176
     1
 90
        0
176
     1
290
     0
176
     1
290
     1
176
     1
290
     1
176
     1
290
     0
176
     1
290
     0
176
     1
290
     0
176
     1
290
     0
176
     1
290
     0
176
     1
290
     0
176
     1
 90
       50
176
     1
 40
0.0
176
     1
 40
1.0
176
     1
 90
        0
176
     1
 62
    18
420
        0
176
     1
 90
       50
176
     1
 90
        3
176
     1
 62
     5
420
      255
176
     1
290
     0
176
     1
 90
       50
176
     1
 90
       50
176
     1
 90
       50
176
     1
290
     0
176
     1
 90
       50
176
     1
 62
   256
176
     0
 40
1.0
176
     0
 90
        2
176
     1
  1
strokes_ogs.tif
176
     1
290
     0
176
     1
 40
1.0
176
     1
 40
1.0
176
     1
  0
VISUALSTYLE
  5
3D
102
{ACAD_REACTORS
330
2A
102
}
330
2A
100
AcDbVisualStyle
  2
EdgeColorOff
 70
    22
177
     3
291
     1
 70
    58
 90
        2
176
     0
 90
        2
176
     0
 90
        0
176
     0
 90
        0
176
     0
 40
0.6
176
     0
 40
30.0
176
     0
 62
     7
420
 16777215
176
     0
 90
        1
176
     0
 90
        4
176
     0
 62
     7
176
     0
 62
   257
176
     0
 90
        1
176
     0
 90
        1
176
     0
 40
1.0
176
     0
 90
        8
176
     2
 62
     7
176
     0
 40
1.0
176
     0
 90
        1
176
     0
 90
        6
176
     0
 90
        2
176
     0
 62
     7
176
     0
 90
        5
176
     0
 90
        0
176
     0
 90
        0
176
     0
290
     0
176
     0
 90
        1
176
     0
 40
0.0
176
     0
 90
        0
176
     0
290
     0
176
     0
290
     1
176
     0
290
     1
176
     0
290
     0
176
     0
290
     0
176
     0
290
     0
176
     0
290
     0
176
     0
290
     0
176
     0
290
     0
176
     0
 90
       50
176
     0
 40
0.0
176
     0
 40
1.0
176
     0
 90
        0
176
     0
 62
    18
420
        0
176
     0
 90
       50
176
     0
 90
        3
176
     0
 62
     5
420
      255
176
     0
290
     0
176
     0
 90
       50
176
     0
 90
       50
176
     0
 90
       50
176
     0
290
     0
176
     0
 90
       50
176
     0
 62
   256
176
     0
 40
1.0
176
     0
 90
        2
176
     0
  1
strokes_ogs.tif
176
     0
290
     0
176
     0
 40
1.0
176
     0
 40
1.0
176
     0
  0
VISUALSTYLE
  5
39
102
{ACAD_REACTORS
330
2A
102
}
330
2A
100
AcDbVisualStyle
  2
Facepattern
 70
    15
177
     3
291
     1
 70
    58
 90
        2
176
     1
 90
        2
176
     1
 90
        0
176
     1
 90
        0
176
     1
 40
0.6
176
     1
 40
30.0
176
     1
 62
     7
420
 16777215
176
     1
 90
        1
176
     1
 90
        4
176
     1
 62
     7
176
     1
 62
   257
176
     1
 90
        1
176
     1
 90
        1
176
     1
 40
1.0
176
     1
 90
        8
176
     1
 62
     7
176
     1
 40
1.0
176
     1
 90
        1
176
     1
 90
        6
176
     1
 90
        2
176
     1
 62
     7
176
     1
 90
        5
176
     1
 90
        0
176
     1
 90
        0
176
     1
290
     0
176
     1
 90
        1
176
     1
 40
0.0
176
     1
 90
        0
176
     1
290
     0
176
     1
290
     1
176
     1
290
     1
176
     1
290
     0
176
     1
290
     0
176
     1
290
     0
176
     1
290
     0
176
     1
290
     0
176
     1
290
     0
176
     1
 90
       50
176
     1
 40
0.0
176
     1
 40
1.0
176
     1
 90
        0
176
     1
 62
    18
420
        0
176
     1
 90
       50
176
     1
 90
        3
176
     1
 62
     5
420
      255
176
     1
290
     0
176
     1
 90
       50
176
     1
 90
       50
176
     1
 90
       50
176
     1
290
     0
176
     1
 90
       50
176
     1
 62
   256
176
     0
 40
1.0
176
     0
 90
        2
176
     1
  1
strokes_ogs.tif
176
     1
290
     0
176
     1
 40
1.0
176
     1
 40
1.0
176
     1
  0
VISUALSTYLE
  5
2B
102
{ACAD_REACTORS
330
2A
102
}
330
2A
100
AcDbVisualStyle
  2
Flat
 70
     0
177
     3
291
     1
 70
    58
 90
        2
176
     1
 90
        1
176
     1
 90
        1
176
     1
 90
        2
176
     1
 40
0.6
176
     1
 40
30.0
176
     1
 62
     7
420
 16777215
176
     1
 90
        0
176
     1
 90
        0
176
     1
 62
     7
176
     1
 62
   257
176
     1
 90
        1
176
     1
 90
        1
176
     1
 40
1.0
176
     1
 90
        8
176
     1
 62
     7
176
     1
 40
1.0
176
     1
 90
        1
176
     1
 90
        6
176
     1
 90
        2
176
     1
 62
     7
176
     1
 90
        5
176
     1
 90
        0
176
     1
 90
        0
176
     1
290
     0
176
     1
 90
       13
176
     1
 40
0.0
176
     1
 90
        0
176
     1
290
     0
176
     1
290
     1
176
     1
290
     1
176
     1
290
     0
176
     1
290
     0
176
     1
290
     0
176
     1
290
     0
176
     1
290
     0
176
     1
290
     0
176
     1
 90
       50
176
     1
 40
0.0
176
     1
 40
1.0
176
     1
 90
        0
176
     1
 62
    18
420
        0
176
     1
 90
       50
176
     1
 90
        3
176
     1
 62
     5
420
      255
176
     1
290
     0
176
     1
 90
       50
176
     1
 90
       50
176
     1
 90
       50
176
     1
290
     0
176
     1
 90
       50
176
     1
 62
   256
176
     0
 40
1.0
176
     0
 90
        2
176
     1
  1
strokes_ogs.tif
176
     1
290
     0
176
     1
 40
1.0
176
     1
 40
1.0
176
     1
  0
VISUALSTYLE
  5
2C
102
{ACAD_REACTORS
330
2A
102
}
330
2A
100
AcDbVisualStyle
  2
FlatWithEdges
 70
     1
177
     3
291
     1
 70
    58
 90
        2
176
     1
 90
        1
176
     1
 90
        1
176
     1
 90
        2
176
     1
 40
0.6
176
     1
 40
30.0
176
     1
 62
     7
420
 16777215
176
     1
 90
        1
176
     1
 90
        0
176
     1
 62
     7
176
     1
 62
   257
176
     1
 90
        1
176
     1
 90
        1
176
     1
 40
1.0
176
     1
 90
        0
176
     1
 62
   257
176
     1
 40
1.0
176
     1
 90
        1
176
     1
 90
        6
176
     1
 90
        2
176
     1
 62
     7
176
     1
 90
        5
176
     1
 90
        0
176
     1
 90
        0
176
     1
290
     0
176
     1
 90
       13
176
     1
 40
0.0
176
     1
 90
        0
176
     1
290
     0
176
     1
290
     1
176
     1
290
     1
176
     1
290
     0
176
     1
290
     0
176
     1
290
     0
176
     1
290
     0
176
     1
290
     0
176
     1
290
     0
176
     1
 90
       50
176
     1
 40
0.0
176
     1
 40
1.0
176
     1
 90
        0
176
     1
 62
    18
420
        0
176
     1
 90
       50
176
     1
 90
        3
176
     1
 62
     5
420
      255
176
     1
290
     0
176
     1
 90
       50
176
     1
 90
       50
176
     1
 90
       50
176
     1
290
     0
176
     1
 90
       50
176
     1
 62
   256
176
     0
 40
1.0
176
     0
 90
        2
176
     1
  1
strokes_ogs.tif
176
     1
290
     0
176
     1
 40
1.0
176
     1
 40
1.0
176
     1
  0
VISUALSTYLE
  5
2D
102
{ACAD_REACTORS
330
2A
102
}
330
2A
100
AcDbVisualStyle
  2
Gouraud
 70
     2
177
     3
291
     1
 70
    58
 90
        2
176
     1
 90
        2
176
     1
 90
        1
176
     1
 90
        2
176
     1
 40
0.6
176
     1
 40
30.0
176
     1
 62
     7
420
 16777215
176
     1
 90
        0
176
     1
 90
        0
176
     1
 62
     7
176
     1
 62
   257
176
     1
 90
        1
176
     1
 90
        1
176
     1
 40
1.0
176
     1
 90
        0
176
     1
 62
     7
176
     1
 40
1.0
176
     1
 90
        1
176
     1
 90
        6
176
     1
 90
        2
176
     1
 62
     7
176
     1
 90
        5
176
     1
 90
        0
176
     1
 90
        0
176
     1
290
     0
176
     1
 90
       13
176
     1
 40
0.0
176
     1
 90
        0
176
     1
290
     0
176
     1
290
     1
176
     1
290
     1
176
     1
290
     0
176
     1
290
     0
176
     1
290
     0
176
     1
290
     0
176
     1
290
     0
176
     1
290
     0
176
     1
 90
       50
176
     1
 40
0.0
176
     1
 40
1.0
176
     1
 90
        0
176
     1
 62
    18
420
        0
176
     1
 90
       50
176
     1
 90
        3
176
     1
 62
     5
420
      255
176
     1
290
     0
176
     1
 90
       50
176
     1
 90
       50
176
     1
 90
       50
176
     1
290
     0
176
     1
 90
       50
176
     1
 62
   256
176
     0
 40
1.0
176
     0
 90
        2
176
     1
  1
strokes_ogs.tif
176
     1
290
     0
176
     1
 40
1.0
176
     1
 40
1.0
176
     1
  0
VISUALSTYLE
  5
2E
102
{ACAD_REACTORS
330
2A
102
}
330
2A
100
AcDbVisualStyle
  2
GouraudWithEdges
 70
     3
177
     3
291
     1
 70
    58
 90
        2
176
     1
 90
        2
176
     1
 90
        1
176
     1
 90
        2
176
     1
 40
0.6
176
     1
 40
30.0
176
     1
 62
     7
420
 16777215
176
     1
 90
        1
176
     1
 90
        0
176
     1
 62
     7
176
     1
 62
   257
176
     1
 90
        1
176
     1
 90
        1
176
     1
 40
1.0
176
     1
 90
        0
176
     1
 62
   257
176
     1
 40
1.0
176
     1
 90
        1
176
     1
 90
        6
176
     1
 90
        2
176
     1
 62
     7
176
     1
 90
        5
176
     1
 90
        0
176
     1
 90
        0
176
     1
290
     0
176
     1
 90
       13
176
     1
 40
0.0
176
     1
 90
        0
176
     1
290
     0
176
     1
290
     1
176
     1
290
     1
176
     1
290
     0
176
     1
290
     0
176
     1
290
     0
176
     1
290
     0
176
     1
290
     0
176
     1
290
     0
176
     1
 90
       50
176
     1
 40
0.0
176
     1
 40
1.0
176
     1
 90
        0
176
     1
 62
    18
420
        0
176
     1
 90
       50
176
     1
 90
        3
176
     1
 62
     5
420
      255
176
     1
290
     0
176
     1
 90
       50
176
     1
 90
       50
176
     1
 90
       50
176
     1
290
     0
176
     1
 90
       50
176
     1
 62
   256
176
     0
 40
1.0
176
     0
 90
        2
176
     1
  1
strokes_ogs.tif
176
     1
290
     0
176
     1
 40
1.0
176
     1
 40
1.0
176
     1
  0
VISUALSTYLE
  5
31
102
{ACAD_REACTORS
330
2A
102
}
330
2A
100
AcDbVisualStyle
  2
Hidden
 70
     6
177
     3
291
     0
 70
    58
 90
        1
176
     1
 90
        2
176
     1
 90
        2
176
     1
 90
        0
176
     1
 40
0.6
176
     1
 40
30.0
176
     1
 62
     7
420
 16777215
176
     1
 90
        2
176
     1
 90
        2
176
     1
 62
     7
176
     1
 62
   257
176
     1
 90
        2
176
     1
 90
        1
176
     1
 40
40.0
176
     1
 90
        0
176
     1
 62
   257
176
     1
 40
1.0
176
     1
 90
        1
176
     1
 90
        6
176
     1
 90
        2
176
     1
 62
     7
176
     1
 90
        3
176
     1
 90
        0
176
     1
 90
        0
176
     1
290
     0
176
     1
 90
        1
176
     1
 40
0.0
176
     1
 90
        0
176
     1
290
     0
176
     1
290
     1
176
     1
290
     1
176
     1
290
     0
176
     1
290
     0
176
     1
290
     0
176
     1
290
     0
176
     1
290
     0
176
     1
290
     0
176
     1
 90
       50
176
     1
 40
0.0
176
     1
 40
1.0
176
     1
 90
        0
176
     1
 62
    18
420
        0
176
     1
 90
       50
176
     1
 90
        3
176
     1
 62
     5
420
      255
176
     1
290
     0
176
     1
 90
       50
176
     1
 90
       50
176
     1
 90
       50
176
     1
290
     0
176
     1
 90
       50
176
     1
 62
   256
176
     0
 40
1.0
176
     0
 90
        2
176
     1
  1
strokes_ogs.tif
176
     1
290
     0
176
     1
 40
1.0
176
     1
 40
1.0
176
     1
  0
VISUALSTYLE
  5
3B
102
{ACAD_REACTORS
330
2A
102
}
330
2A
100
AcDbVisualStyle
  2
JitterOff
 70
    20
177
     3
291
     1
 70
    58
 90
        2
176
     0
 90
        2
176
     0
 90
        0
176
     0
 90
        0
176
     0
 40
0.6
176
     0
 40
30.0
176
     0
 62
     7
420
 16777215
176
     0
 90
        1
176
     0
 90
        4
176
     0
 62
     7
176
     0
 62
   257
176
     0
 90
        1
176
     0
 90
        1
176
     0
 40
1.0
176
     0
 90
       10
176
     2
 62
     7
176
     0
 40
1.0
176
     0
 90
        1
176
     0
 90
        6
176
     0
 90
        2
176
     0
 62
     7
176
     0
 90
        5
176
     0
 90
        0
176
     0
 90
        0
176
     0
290
     0
176
     0
 90
        1
176
     0
 40
0.0
176
     0
 90
        0
176
     0
290
     0
176
     0
290
     1
176
     0
290
     1
176
     0
290
     0
176
     0
290
     0
176
     0
290
     0
176
     0
290
     0
176
     0
290
     0
176
     0
290
     0
176
     0
 90
       50
176
     0
 40
0.0
176
     0
 40
1.0
176
     0
 90
        0
176
     0
 62
    18
420
        0
176
     0
 90
       50
176
     0
 90
        3
176
     0
 62
     5
420
      255
176
     0
290
     0
176
     0
 90
       50
176
     0
 90
       50
176
     0
 90
       50
176
     0
290
     0
176
     0
 90
       50
176
     0
 62
   256
176
     0
 40
1.0
176
     0
 90
        2
176
     0
  1
strokes_ogs.tif
176
     0
290
     0
176
     0
 40
1.0
176
     0
 40
1.0
176
     0
  0
VISUALSTYLE
  5
38
102
{ACAD_REACTORS
330
2A
102
}
330
2A
100
AcDbVisualStyle
  2
Linepattern
 70
    14
177
     3
291
     1
 70
    58
 90
        2
176
     1
 90
        2
176
     1
 90
        0
176
     1
 90
        0
176
     1
 40
0.6
176
     1
 40
30.0
176
     1
 62
     7
420
 16777215
176
     1
 90
        1
176
     1
 90
        4
176
     1
 62
     7
176
     1
 62
   257
176
     1
 90
        7
176
     1
 90
        7
176
     1
 40
1.0
176
     1
 90
        8
176
     1
 62
     7
176
     1
 40
1.0
176
     1
 90
        1
176
     1
 90
        6
176
     1
 90
        2
176
     1
 62
     7
176
     1
 90
        5
176
     1
 90
        0
176
     1
 90
        0
176
     1
290
     0
176
     1
 90
        1
176
     1
 40
0.0
176
     1
 90
        0
176
     1
290
     0
176
     1
290
     1
176
     1
290
     1
176
     1
290
     0
176
     1
290
     0
176
     1
290
     0
176
     1
290
     0
176
     1
290
     0
176
     1
290
     0
176
     1
 90
       50
176
     1
 40
0.0
176
     1
 40
1.0
176
     1
 90
        0
176
     1
 62
    18
420
        0
176
     1
 90
       50
176
     1
 90
        3
176
     1
 62
     5
420
      255
176
     1
290
     0
176
     1
 90
       50
176
     1
 90
       50
176
     1
 90
       50
176
     1
290
     0
176
     1
 90
       50
176
     1
 62
   256
176
     0
 40
1.0
176
     0
 90
        2
176
     1
  1
strokes_ogs.tif
176
     1
290
     0
176
     1
 40
1.0
176
     1
 40
1.0
176
     1
  0
VISUALSTYLE
  5
3C
102
{ACAD_REACTORS
330
2A
102
}
330
2A
100
AcDbVisualStyle
  2
OverhangOff
 70
    21
177
     3
291
     1
 70
    58
 90
        2
176
     0
 90
        2
176
     0
 90
        0
176
     0
 90
        0
176
     0
 40
0.6
176
     0
 40
30.0
176
     0
 62
     7
420
 16777215
176
     0
 90
        1
176
     0
 90
        4
176
     0
 62
     7
176
     0
 62
   257
176
     0
 90
        1
176
     0
 90
        1
176
     0
 40
1.0
176
     0
 90
        9
176
     2
 62
     7
176
     0
 40
1.0
176
     0
 90
        1
176
     0
 90
        6
176
     0
 90
        2
176
     0
 62
     7
176
     0
 90
        5
176
     0
 90
        0
176
     0
 90
        0
176
     0
290
     0
176
     0
 90
        1
176
     0
 40
0.0
176
     0
 90
        0
176
     0
290
     0
176
     0
290
     1
176
     0
290
     1
176
     0
290
     0
176
     0
290
     0
176
     0
290
     0
176
     0
290
     0
176
     0
290
     0
176
     0
290
     0
176
     0
 90
       50
176
     0
 40
0.0
176
     0
 40
1.0
176
     0
 90
        0
176
     0
 62
    18
420
        0
176
     0
 90
       50
176
     0
 90
        3
176
     0
 62
     5
420
      255
176
     0
290
     0
176
     0
 90
       50
176
     0
 90
       50
176
     0
 90
       50
176
     0
290
     0
176
     0
 90
       50
176
     0
 62
   256
176
     0
 40
1.0
176
     0
 90
        2
176
     0
  1
strokes_ogs.tif
176
     0
290
     0
176
     0
 40
1.0
176
     0
 40
1.0
176
     0
  0
VISUALSTYLE
  5
33
102
{ACAD_REACTORS
330
2A
102
}
330
2A
100
AcDbVisualStyle
  2
Realistic
 70
     8
177
     3
291
     0
 70
    58
 90
        2
176
     1
 90
        3
176
     1
 90
        0
176
     1
 90
        2
176
     1
 40
0.6
176
     1
 40
30.0
176
     1
 62
     7
420
 16777215
176
     1
 90
        0
176
     1
 90
        0
176
     1
 62
     7
176
     1
 62
   257
176
     1
 90
        1
176
     1
 90
        1
176
     1
 40
1.0
176
     1
 90
        8
176
     1
 62
   257
176
     1
 40
1.0
176
     1
 90
        1
176
     1
 90
        6
176
     1
 90
        2
176
     1
 62
     7
176
     1
 90
        3
176
     1
 90
        0
176
     1
 90
        0
176
     1
290
     0
176
     1
 90
       13
176
     1
 40
0.0
176
     1
 90
        0
176
     1
290
     0
176
     1
290
     1
176
     1
290
     1
176
     1
290
     0
176
     1
290
     0
176
     1
290
     0
176
     1
290
     0
176
     1
290
     0
176
     1
290
     0
176
     1
 90
       50
176
     1
 40
0.0
176
     1
 40
1.0
176
     1
 90
        0
176
     1
 62
    18
420
        0
176
     1
 90
       50
176
     1
 90
        3
176
     1
 62
     5
420
      255
176
     1
290
     0
176
     1
 90
       50
176
     1
 90
       50
176
     1
 90
       50
176
     1
290
     0
176
     1
 90
       50
176
     1
 62
   256
176
     0
 40
1.0
176
     0
 90
        2
176
     1
  1
strokes_ogs.tif
176
     1
290
     0
176
     1
 40
1.0
176
     1
 40
1.0
176
     1
  0
VISUALSTYLE
  5
42
102
{ACAD_REACTORS
330
2A
102
}
330
2A
100
AcDbVisualStyle
  2
Shaded
 70
    27
177
     3
291
     0
 70
    58
 90
        2
176
     1
 90
        2
176
     1
 90
        1
176
     1
 90
        2
176
     1
 40
0.6
176
     1
 40
30.0
176
     1
 62
     7
420
 16777215
176
     1
 90
        0
176
     1
 90
        4
176
     1
 62
     7
176
     1
 62
   257
176
     1
 90
        1
176
     1
 90
        1
176
     1
 40
1.0
176
     1
 90
        8
176
     1
 62
   257
176
     1
 40
1.0
176
     1
 90
        1
176
     1
 90
        6
176
     1
 90
        2
176
     1
 62
     8
420
  7895160
176
     1
 90
        3
176
     1
 90
        0
176
     1
 90
        0
176
     1
290
     0
176
     1
 90
        5
176
     1
 40
0.0
176
     1
 90
        0
176
     1
290
     0
176
     1
290
     1
176
     1
290
     1
176
     1
290
     0
176
     1
290
     0
176
     1
290
     0
176
     1
290
     0
176
     1
290
     0
176
     1
290
     0
176
     1
 90
       50
176
     1
 40
0.0
176
     1
 40
1.0
176
     1
 90
        0
176
     1
 62
    18
420
        0
176
     1
 90
       50
176
     1
 90
        3
176
     1
 62
     5
420
      255
176
     1
290
     0
176
     1
 90
       50
176
     1
 90
       50
176
     1
 90
       50
176
     1
290
     0
176
     1
 90
       50
176
     1
 62
   256
176
     0
 40
1.0
176
     0
 90
        2
176
     1
  1
strokes_ogs.tif
176
     1
290
     0
176
     1
 40
1.0
176
     1
 40
1.0
176
     1
  0
VISUALSTYLE
  5
41
102
{ACAD_REACTORS
330
2A
102
}
330
2A
100
AcDbVisualStyle
  2
Shaded with edges
 70
    26
177
     3
291
     0
 70
    58
 90
        2
176
     1
 90
        2
176
     1
 90
        1
176
     1
 90
        2
176
     1
 40
0.6
176
     1
 40
30.0
176
     1
 62
     7
420
 16777215
176
     1
 90
        1
176
     1
 90
       10
176
     1
 62
     7
176
     1
 62
   257
176
     1
 90
        2
176
     1
 90
        1
176
     1
 40
1.0
176
     1
 90
        8
176
     1
 62
   257
176
     1
 40
1.0
176
     1
 90
        1
176
     1
 90
        6
176
     1
 90
        2
176
     1
 62
     7
176
     1
 90
        3
176
     1
 90
        0
176
     1
 90
        0
176
     1
290
     0
176
     1
 90
        5
176
     1
 40
0.0
176
     1
 90
        0
176
     1
290
     0
176
     1
290
     1
176
     1
290
     1
176
     1
290
     0
176
     1
290
     0
176
     1
290
     0
176
     1
290
     0
176
     1
290
     0
176
     1
290
     0
176
     1
 90
       50
176
     1
 40
0.0
176
     1
 40
1.0
176
     1
 90
        0
176
     1
 62
    18
420
        0
176
     1
 90
       50
176
     1
 90
        3
176
     1
 62
     5
420
      255
176
     1
290
     0
176
     1
 90
       50
176
     1
 90
       50
176
     1
 90
       50
176
     1
290
     0
176
     1
 90
       50
176
     1
 62
   256
176
     0
 40
1.0
176
     0
 90
        2
176
     1
  1
strokes_ogs.tif
176
     1
290
     0
176
     1
 40
1.0
176
     1
 40
1.0
176
     1
  0
VISUALSTYLE
  5
3E
102
{ACAD_REACTORS
330
2A
102
}
330
2A
100
AcDbVisualStyle
  2
Shades of Gray
 70
    23
177
     3
291
     0
 70
    58
 90
        2
176
     1
 90
        2
176
     1
 90
        3
176
     1
 90
        0
176
     1
 40
0.6
176
     1
 40
30.0
176
     1
 62
     7
420
 16777215
176
     1
 90
        2
176
     1
 90
        2
176
     1
 62
     7
176
     1
 62
     7
176
     1
 90
        1
176
     1
 90
        1
176
     1
 40
40.0
176
     1
 90
        8
176
     1
 62
     7
176
     1
 40
1.0
176
     1
 90
        1
176
     1
 90
        6
176
     1
 90
        2
176
     1
 62
     7
176
     1
 90
        3
176
     1
 90
        0
176
     1
 90
        0
176
     1
290
     0
176
     1
 90
        1
176
     1
 40
0.0
176
     1
 90
        0
176
     1
290
     0
176
     1
290
     1
176
     1
290
     1
176
     1
290
     0
176
     1
290
     0
176
     1
290
     0
176
     1
290
     0
176
     1
290
     0
176
     1
290
     0
176
     1
 90
       50
176
     1
 40
0.0
176
     1
 40
1.0
176
     1
 90
        0
176
     1
 62
    18
420
        0
176
     1
 90
       50
176
     1
 90
        3
176
     1
 62
     5
420
      255
176
     1
290
     0
176
     1
 90
       50
176
     1
 90
       50
176
     1
 90
       50
176
     1
290
     0
176
     1
 90
       50
176
     1
 62
   256
176
     0
 40
1.0
176
     0
 90
        2
176
     1
  1
strokes_ogs.tif
176
     1
290
     0
176
     1
 40
1.0
176
     1
 40
1.0
176
     1
  0
VISUALSTYLE
  5
3F
102
{ACAD_REACTORS
330
2A
102
}
330
2A
100
AcDbVisualStyle
  2
Sketchy
 70
    24
177
     3
291
     0
 70
    58
 90
        1
176
     1
 90
        2
176
     1
 90
        2
176
     1
 90
        0
176
     1
 40
0.6
176
     1
 40
30.0
176
     1
 62
     7
420
 16777215
176
     1
 90
        2
176
     1
 90
        2
176
     1
 62
     7
176
     1
 62
     7
176
     1
 90
        1
176
     1
 90
        1
176
     1
 40
40.0
176
     1
 90
       11
176
     1
 62
     7
176
     1
 40
1.0
176
     1
 90
        1
176
     1
 90
        6
176
     1
 90
        2
176
     1
 62
     7
176
     1
 90
        6
176
     1
 90
        0
176
     1
 90
        0
176
     1
290
     0
176
     1
 90
        1
176
     1
 40
0.0
176
     1
 90
        0
176
     1
290
     0
176
     1
290
     1
176
     1
290
     1
176
     1
290
     0
176
     1
290
     0
176
     1
290
     0
176
     1
290
     0
176
     1
290
     0
176
     1
290
     0
176
     1
 90
       50
176
     1
 40
0.0
176
     1
 40
1.0
176
     1
 90
        0
176
     1
 62
    18
420
        0
176
     1
 90
       50
176
     1
 90
        3
176
     1
 62
     5
420
      255
176
     1
290
     0
176
     1
 90
       50
176
     1
 90
       50
176
     1
 90
       50
176
     1
290
     0
176
     1
 90
       50
176
     1
 62
   256
176
     0
 40
1.0
176
     0
 90
        2
176
     1
  1
strokes_ogs.tif
176
     1
290
     0
176
     1
 40
1.0
176
     1
 40
1.0
176
     1
  0
VISUALSTYLE
  5
37
102
{ACAD_REACTORS
330
2A
102
}
330
2A
100
AcDbVisualStyle
  2
Thicken
 70
    13
177
     3
291
     1
 70
    58
 90
        2
176
     1
 90
        2
176
     1
 90
        0
176
     1
 90
        0
176
     1
 40
0.6
176
     1
 40
30.0
176
     1
 62
     7
420
 16777215
176
     1
 90
        1
176
     1
 90
        4
176
     1
 62
     7
176
     1
 62
   257
176
     1
 90
        1
176
     1
 90
        1
176
     1
 40
1.0
176
     1
 90
       12
176
     1
 62
     7
176
     1
 40
1.0
176
     1
 90
        1
176
     1
 90
        6
176
     1
 90
        2
176
     1
 62
     7
176
     1
 90
        5
176
     1
 90
        0
176
     1
 90
        0
176
     1
290
     0
176
     1
 90
        1
176
     1
 40
0.0
176
     1
 90
        0
176
     1
290
     0
176
     1
290
     1
176
     1
290
     1
176
     1
290
     0
176
     1
290
     0
176
     1
290
     0
176
     1
290
     0
176
     1
290
     0
176
     1
290
     0
176
     1
 90
       50
176
     1
 40
0.0
176
     1
 40
1.0
176
     1
 90
        0
176
     1
 62
    18
420
        0
176
     1
 90
       50
176
     1
 90
        3
176
     1
 62
     5
420
      255
176
     1
290
     0
176
     1
 90
       50
176
     1
 90
       50
176
     1
 90
       50
176
     1
290
     0
176
     1
 90
       50
176
     1
 62
   256
176
     0
 40
1.0
176
     0
 90
        2
176
     1
  1
strokes_ogs.tif
176
     1
290
     0
176
     1
 40
1.0
176
     1
 40
1.0
176
     1
  0
VISUALSTYLE
  5
30
102
{ACAD_REACTORS
330
2A
102
}
330
2A
100
AcDbVisualStyle
  2
Wireframe
 70
     5
177
     3
291
     0
 70
    58
 90
        0
176
     1
 90
        2
176
     1
 90
        0
176
     1
 90
        0
176
     1
 40
0.6
176
     1
 40
30.0
176
     1
 62
     7
420
 16777215
176
     1
 90
        1
176
     1
 90
        4
176
     1
 62
     7
176
     1
 62
   257
176
     1
 90
        1
176
     1
 90
        1
176
     1
 40
1.0
176
     1
 90
        0
176
     1
 62
   257
176
     1
 40
1.0
176
     1
 90
        1
176
     1
 90
        6
176
     1
 90
        2
176
     1
 62
     7
176
     1
 90
        3
176
     1
 90
        0
176
     1
 90
        0
176
     1
290
     0
176
     1
 90
        1
176
     1
 40
0.0
176
     1
 90
        0
176
     1
290
     0
176
     1
290
     1
176
     1
290
     1
176
     1
290
     0
176
     1
290
     0
176
     1
290
     0
176
     1
290
     0
176
     1
290
     0
176
     1
290
     0
176
     1
 90
       50
176
     1
 40
0.0
176
     1
 40
1.0
176
     1
 90
        0
176
     1
 62
    18
420
        0
176
     1
 90
       50
176
     1
 90
        3
176
     1
 62
     5
420
      255
176
     1
290
     0
176
     1
 90
       50
176
     1
 90
       50
176
     1
 90
       50
176
     1
290
     0
176
     1
 90
       50
176
     1
 62
   256
176
     0
 40
1.0
176
     0
 90
        2
176
     1
  1
strokes_ogs.tif
176
     1
290
     0
176
     1
 40
1.0
176
     1
 40
1.0
176
     1
  0
VISUALSTYLE
  5
40
102
{ACAD_REACTORS
330
2A
102
}
330
2A
100
AcDbVisualStyle
  2
X-Ray
 70
    25
177
     3
291
     0
 70
    58
 90
        2
176
     1
 90
        2
176
     1
 90
        1
176
     1
 90
        1
176
     1
 40
0.5
176
     1
 40
30.0
176
     1
 62
     7
420
 16777215
176
     1
 90
        1
176
     1
 90
        0
176
     1
 62
     7
176
     1
 62
   257
176
     1
 90
        1
176
     1
 90
        1
176
     1
 40
1.0
176
     1
 90
        8
176
     1
 62
     7
176
     1
 40
1.0
176
     1
 90
        1
176
     1
 90
        6
176
     1
 90
        2
176
     1
 62
     7
176
     1
 90
        3
176
     1
 90
        0
176
     1
 90
        0
176
     1
290
     0
176
     1
 90
       13
176
     1
 40
0.0
176
     1
 90
        0
176
     1
290
     0
176
     1
290
     1
176
     1
290
     1
176
     1
290
     0
176
     1
290
     0
176
     1
290
     0
176
     1
290
     0
176
     1
290
     0
176
     1
290
     0
176
     1
 90
       50
176
     1
 40
0.0
176
     1
 40
1.0
176
     1
 90
        0
176
     1
 62
    18
420
        0
176
     1
 90
       50
176
     1
 90
        3
176
     1
 62
     5
420
      255
176
     1
290
     0
176
     1
 90
       50
176
     1
 90
       50
176
     1
 90
       50
176
     1
290
     0
176
     1
 90
       50
176
     1
 62
   256
176
     0
 40
1.0
176
     0
 90
        2
176
     1
  1
strokes_ogs.tif
176
     1
290
     0
176
     1
 40
1.0
176
     1
 40
1.0
176
     1
  0
DICTIONARYVAR
  5
69E
102
{ACAD_REACTORS
330
69D
102
}
330
69D
100
DictionaryVariables
280
     0
  1
1:1
  0
DICTIONARYVAR
  5
6A3
102
{ACAD_REACTORS
330
69D
102
}
330
69D
100
DictionaryVariables
280
     0
  1
Standard
  0
DICTIONARYVAR
  5
6A2
102
{ACAD_REACTORS
330
69D
102
}
330
69D
100
DictionaryVariables
280
     0
  1
Standard
  0
DICTIONARY
  5
69F
330
6A
100
AcDbDictionary
280
     1
281
     1
  3
ACAD_ROUNDTRIP_2008_TABLESTYLE_CELLSTYLEMAP
360
6A0
  0
CELLSTYLEMAP
  5
6A0
102
{ACAD_REACTORS
330
69F
102
}
330
69F
100
AcDbCellStyleMap
 90
        3
300
CELLSTYLE
  1
TABLEFORMAT_BEGIN
 90
        5
170
     1
 91
        0
 92
    32768
 62
   257
 93
        1
300
CONTENTFORMAT
  1
CONTENTFORMAT_BEGIN
 90
        0
 91
        0
 92
        4
 93
        0
300

 40
0.0
140
1.0
 94
        5
 62
     0
340
11
144
0.25
309
CONTENTFORMAT_END
171
     1
301
MARGIN
  1
CELLMARGIN_BEGIN
 40
0.06
 40
0.06
 40
0.06
 40
0.06
 40
0.06
 40
0.06
309
CELLMARGIN_END
 94
        6
 95
        1
302
GRIDFORMAT
  1
GRIDFORMAT_BEGIN
 90
        0
 91
        1
 62
     0
 92
       -2
340
14
 93
        0
 40
0.045
309
GRIDFORMAT_END
 95
        2
302
GRIDFORMAT
  1
GRIDFORMAT_BEGIN
 90
        0
 91
        1
 62
     0
 92
       -2
340
14
 93
        0
 40
0.045
309
GRIDFORMAT_END
 95
        4
302
GRIDFORMAT
  1
GRIDFORMAT_BEGIN
 90
        0
 91
        1
 62
     0
 92
       -2
340
14
 93
        0
 40
0.045
309
GRIDFORMAT_END
 95
        8
302
GRIDFORMAT
  1
GRIDFORMAT_BEGIN
 90
        0
 91
        1
 62
     0
 92
       -2
340
14
 93
        0
 40
0.045
309
GRIDFORMAT_END
 95
       16
302
GRIDFORMAT
  1
GRIDFORMAT_BEGIN
 90
        0
 91
        1
 62
     0
 92
       -2
340
14
 93
        0
 40
0.045
309
GRIDFORMAT_END
 95
       32
302
GRIDFORMAT
  1
GRIDFORMAT_BEGIN
 90
        0
 91
        1
 62
     0
 92
       -2
340
14
 93
        0
 40
0.045
309
GRIDFORMAT_END
309
TABLEFORMAT_END
  1
CELLSTYLE_BEGIN
 90
        1
 91
        1
300
_TITLE
309
CELLSTYLE_END
300
CELLSTYLE
  1
TABLEFORMAT_BEGIN
 90
        5
170
     1
 91
        0
 92
        0
 62
   257
 93
        1
300
CONTENTFORMAT
  1
CONTENTFORMAT_BEGIN
 90
        0
 91
        0
 92
        4
 93
        0
300

 40
0.0
140
1.0
 94
        5
 62
     0
340
11
144
0.18
309
CONTENTFORMAT_END
171
     1
301
MARGIN
  1
CELLMARGIN_BEGIN
 40
0.06
 40
0.06
 40
0.06
 40
0.06
 40
0.06
 40
0.06
309
CELLMARGIN_END
 94
        6
 95
        1
302
GRIDFORMAT
  1
GRIDFORMAT_BEGIN
 90
        0
 91
        1
 62
     0
 92
       -2
340
14
 93
        0
 40
0.045
309
GRIDFORMAT_END
 95
        2
302
GRIDFORMAT
  1
GRIDFORMAT_BEGIN
 90
        0
 91
        1
 62
     0
 92
       -2
340
14
 93
        0
 40
0.045
309
GRIDFORMAT_END
 95
        4
302
GRIDFORMAT
  1
GRIDFORMAT_BEGIN
 90
        0
 91
        1
 62
     0
 92
       -2
340
14
 93
        0
 40
0.045
309
GRIDFORMAT_END
 95
        8
302
GRIDFORMAT
  1
GRIDFORMAT_BEGIN
 90
        0
 91
        1
 62
     0
 92
       -2
340
14
 93
        0
 40
0.045
309
GRIDFORMAT_END
 95
       16
302
GRIDFORMAT
  1
GRIDFORMAT_BEGIN
 90
        0
 91
        1
 62
     0
 92
       -2
340
14
 93
        0
 40
0.045
309
GRIDFORMAT_END
 95
       32
302
GRIDFORMAT
  1
GRIDFORMAT_BEGIN
 90
        0
 91
        1
 62
     0
 92
       -2
340
14
 93
        0
 40
0.045
309
GRIDFORMAT_END
309
TABLEFORMAT_END
  1
CELLSTYLE_BEGIN
 90
        2
 91
        1
300
_HEADER
309
CELLSTYLE_END
300
CELLSTYLE
  1
TABLEFORMAT_BEGIN
 90
        5
170
     1
 91
        0
 92
        0
 62
   257
 93
        1
300
CONTENTFORMAT
  1
CONTENTFORMAT_BEGIN
 90
        0
 91
        0
 92
        4
 93
        0
300

 40
0.0
140
1.0
 94
        2
 62
     0
340
11
144
0.18
309
CONTENTFORMAT_END
171
     1
301
MARGIN
  1
CELLMARGIN_BEGIN
 40
0.06
 40
0.06
 40
0.06
 40
0.06
 40
0.06
 40
0.06
309
CELLMARGIN_END
 94
        6
 95
        1
302
GRIDFORMAT
  1
GRIDFORMAT_BEGIN
 90
        0
 91
        1
 62
     0
 92
       -2
340
14
 93
        0
 40
0.045
309
GRIDFORMAT_END
 95
        2
302
GRIDFORMAT
  1
GRIDFORMAT_BEGIN
 90
        0
 91
        1
 62
     0
 92
       -2
340
14
 93
        0
 40
0.045
309
GRIDFORMAT_END
 95
        4
302
GRIDFORMAT
  1
GRIDFORMAT_BEGIN
 90
        0
 91
        1
 62
     0
 92
       -2
340
14
 93
        0
 40
0.045
309
GRIDFORMAT_END
 95
        8
302
GRIDFORMAT
  1
GRIDFORMAT_BEGIN
 90
        0
 91
        1
 62
     0
 92
       -2
340
14
 93
        0
 40
0.045
309
GRIDFORMAT_END
 95
       16
302
GRIDFORMAT
  1
GRIDFORMAT_BEGIN
 90
        0
 91
        1
 62
     0
 92
       -2
340
14
 93
        0
 40
0.045
309
GRIDFORMAT_END
 95
       32
302
GRIDFORMAT
  1
GRIDFORMAT_BEGIN
 90
        0
 91
        1
 62
     0
 92
       -2
340
14
 93
        0
 40
0.045
309
GRIDFORMAT_END
309
TABLEFORMAT_END
  1
CELLSTYLE_BEGIN
 90
        3
 91
        2
300
_DATA
309
CELLSTYLE_END
  0
ENDSEC
  0
EOF
