  0
SECTION
  2
HEADER
  9
$ACADVER
  1
AC1032
  9
$ACADMAINTVER
 90
       55
  9
$DWGCODEPAGE
  3
ANSI_932
  9
$LASTSAVEDBY
  1
client05
  9
$REQUIREDVERSIONS
160
                 0
  9
$INSBASE
 10
0.0
 20
0.0
 30
0.0
  9
$EXTMIN
 10
-43.33677997610511
 20
-102.1090392992922
 30
0.0
  9
$EXTMAX
 10
281.6632200238949
 20
352.4363523944733
 30
0.0
  9
$LIMMIN
 10
0.0
 20
0.0
  9
$LIMMAX
 10
297.0
 20
210.0
  9
$ORTHOMODE
 70
     0
  9
$REGENMODE
 70
     1
  9
$FILLMODE
 70
     1
  9
$QTEXTMODE
 70
     0
  9
$MIRRTEXT
 70
     1
  9
$LTSCALE
 40
0.25
  9
$ATTMODE
 70
     1
  9
$TEXTSIZE
 40
5.0
  9
$TRACEWID
 40
0.05
  9
$TEXTSTYLE
  7
Standard
  9
$CLAYER
  8
0
  9
$CELTYPE
  6
ByLayer
  9
$CECOLOR
 62
   256
  9
$CELTSCALE
 40
1.0
  9
$DISPSILH
 70
     0
  9
$DIMSCALE
 40
1.0
  9
$DIMASZ
 40
4.0
  9
$DIMEXO
 40
2.0
  9
$DIMDLI
 40
10.0
  9
$DIMRND
 40
0.0
  9
$DIMDLE
 40
0.0
  9
$DIMEXE
 40
2.0
  9
$DIMTP
 40
0.0
  9
$DIMTM
 40
0.0
  9
$DIMTXT
 40
3.5
  9
$DIMCEN
 40
0.09
  9
$DIMTSZ
 40
0.0
  9
$DIMTOL
 70
     0
  9
$DIMLIM
 70
     0
  9
$DIMTIH
 70
     0
  9
$DIMTOH
 70
     0
  9
$DIMSE1
 70
     0
  9
$DIMSE2
 70
     0
  9
$DIMTAD
 70
     3
  9
$DIMZIN
 70
     8
  9
$DIMBLK
  1

  9
$DIMASO
 70
     1
  9
$DIMSHO
 70
     1
  9
$DIMPOST
  1

  9
$DIMAPOST
  1

  9
$DIMALT
 70
     0
  9
$DIMALTD
 70
     2
  9
$DIMALTF
 40
25.4
  9
$DIMLFAC
 40
1.0
  9
$DIMTOFL
 70
     1
  9
$DIMTVP
 40
0.7
  9
$DIMTIX
 70
     0
  9
$DIMSOXD
 70
     0
  9
$DIMSAH
 70
     0
  9
$DIMBLK1
  1

  9
$DIMBLK2
  1

  9
$DIMSTYLE
  2
Standard
  9
$DIMCLRD
 70
     0
  9
$DIMCLRE
 70
     0
  9
$DIMCLRT
 70
     0
  9
$DIMTFAC
 40
0.5
  9
$DIMGAP
 40
0.09
  9
$DIMJUST
 70
     0
  9
$DIMSD1
 70
     0
  9
$DIMSD2
 70
     0
  9
$DIMTOLJ
 70
     1
  9
$DIMTZIN
 70
     8
  9
$DIMALTZ
 70
     0
  9
$DIMALTTZ
 70
     0
  9
$DIMUPT
 70
     1
  9
$DIMDEC
 70
     2
  9
$DIMTDEC
 70
     4
  9
$DIMALTU
 70
     2
  9
$DIMALTTD
 70
     2
  9
$DIMTXSTY
  7
Standard
  9
$DIMAUNIT
 70
     0
  9
$DIMADEC
 70
     0
  9
$DIMALTRND
 40
0.0
  9
$DIMAZIN
 70
     0
  9
$DIMDSEP
 70
    46
  9
$DIMATFIT
 70
     2
  9
$DIMFRAC
 70
     0
  9
$DIMLDRBLK
  1

  9
$DIMLUNIT
 70
     2
  9
$DIMLWD
 70
    -2
  9
$DIMLWE
 70
    -2
  9
$DIMTMOVE
 70
     2
  9
$DIMFXL
 40
1.0
  9
$DIMFXLON
 70
     0
  9
$DIMJOGANG
 40
0.7853981633974483
  9
$DIMTFILL
 70
     0
  9
$DIMTFILLCLR
 70
     0
  9
$DIMARCSYM
 70
     0
  9
$DIMLTYPE
  6

  9
$DIMLTEX1
  6

  9
$DIMLTEX2
  6

  9
$DIMTXTDIRECTION
 70
     0
  9
$LUNITS
 70
     2
  9
$LUPREC
 70
     4
  9
$SKETCHINC
 40
0.1
  9
$FILLETRAD
 40
0.5
  9
$AUNITS
 70
     0
  9
$AUPREC
 70
     0
  9
$MENU
  1
.
  9
$ELEVATION
 40
0.0
  9
$PELEVATION
 40
0.0
  9
$THICKNESS
 40
0.0
  9
$LIMCHECK
 70
     0
  9
$CHAMFERA
 40
0.0
  9
$CHAMFERB
 40
0.0
  9
$CHAMFERC
 40
0.0
  9
$CHAMFERD
 40
0.0
  9
$SKPOLY
 70
     0
  9
$TDCREATE
 40
2459374.923240741
  9
$TDUCREATE
 40
2459374.548240741
  9
$TDUPDATE
 40
2459374.548248276
  9
$TDUUPDATE
 40
2459374.173248276
  9
$TDINDWG
 40
0.0000000116
  9
$TDUSRTIMER
 40
0.0000000116
  9
$USRTIMER
 70
     1
  9
$ANGBASE
 50
0.0
  9
$ANGDIR
 70
     0
  9
$PDMODE
 70
     0
  9
$PDSIZE
 40
0.0
  9
$PLINEWID
 40
0.0
  9
$SPLFRAME
 70
     0
  9
$SPLINETYPE
 70
     6
  9
$SPLINESEGS
 70
     8
  9
$HANDSEED
  5
624
  9
$SURFTAB1
 70
     6
  9
$SURFTAB2
 70
     6
  9
$SURFTYPE
 70
     6
  9
$SURFU
 70
     6
  9
$SURFV
 70
     6
  9
$UCSBASE
  2

  9
$UCSNAME
  2

  9
$UCSORG
 10
0.0
 20
0.0
 30
0.0
  9
$UCSXDIR
 10
1.0
 20
0.0
 30
0.0
  9
$UCSYDIR
 10
0.0
 20
1.0
 30
0.0
  9
$UCSORTHOREF
  2

  9
$UCSORTHOVIEW
 70
     0
  9
$UCSORGTOP
 10
0.0
 20
0.0
 30
0.0
  9
$UCSORGBOTTOM
 10
0.0
 20
0.0
 30
0.0
  9
$UCSORGLEFT
 10
0.0
 20
0.0
 30
0.0
  9
$UCSORGRIGHT
 10
0.0
 20
0.0
 30
0.0
  9
$UCSORGFRONT
 10
0.0
 20
0.0
 30
0.0
  9
$UCSORGBACK
 10
0.0
 20
0.0
 30
0.0
  9
$PUCSBASE
  2

  9
$PUCSNAME
  2

  9
$PUCSORG
 10
0.0
 20
0.0
 30
0.0
  9
$PUCSXDIR
 10
1.0
 20
0.0
 30
0.0
  9
$PUCSYDIR
 10
0.0
 20
1.0
 30
0.0
  9
$PUCSORTHOREF
  2

  9
$PUCSORTHOVIEW
 70
     0
  9
$PUCSORGTOP
 10
0.0
 20
0.0
 30
0.0
  9
$PUCSORGBOTTOM
 10
0.0
 20
0.0
 30
0.0
  9
$PUCSORGLEFT
 10
0.0
 20
0.0
 30
0.0
  9
$PUCSORGRIGHT
 10
0.0
 20
0.0
 30
0.0
  9
$PUCSORGFRONT
 10
0.0
 20
0.0
 30
0.0
  9
$PUCSORGBACK
 10
0.0
 20
0.0
 30
0.0
  9
$USERI1
 70
     0
  9
$USERI2
 70
     0
  9
$USERI3
 70
     0
  9
$USERI4
 70
     0
  9
$USERI5
 70
     0
  9
$USERR1
 40
0.0
  9
$USERR2
 40
0.0
  9
$USERR3
 40
0.0
  9
$USERR4
 40
0.0
  9
$USERR5
 40
0.0
  9
$WORLDVIEW
 70
     1
  9
$SHADEDGE
 70
     3
  9
$SHADEDIF
 70
    70
  9
$TILEMODE
 70
     1
  9
$MAXACTVP
 70
    64
  9
$PINSBASE
 10
0.0
 20
0.0
 30
0.0
  9
$PLIMCHECK
 70
     0
  9
$PEXTMIN
 10
0.0
 20
0.0
 30
0.0
  9
$PEXTMAX
 10
297.0
 20
210.0
 30
0.0
  9
$PLIMMIN
 10
0.0
 20
0.0
  9
$PLIMMAX
 10
297.0
 20
210.0
  9
$UNITMODE
 70
     0
  9
$VISRETAIN
 70
     1
  9
$PLINEGEN
 70
     0
  9
$PSLTSCALE
 70
     1
  9
$TREEDEPTH
 70
  3020
  9
$CMLSTYLE
  2
Standard
  9
$CMLJUST
 70
     0
  9
$CMLSCALE
 40
1.0
  9
$PROXYGRAPHICS
 70
     1
  9
$MEASUREMENT
 70
     1
  9
$CELWEIGHT
370
    -1
  9
$ENDCAPS
280
     0
  9
$JOINSTYLE
280
     0
  9
$LWDISPLAY
290
     0
  9
$INSUNITS
 70
     4
  9
$HYPERLINKBASE
  1

  9
$STYLESHEET
  1

  9
$XEDIT
290
     1
  9
$CEPSNTYPE
380
     0
  9
$PSTYLEMODE
290
     1
  9
$FINGERPRINTGUID
  2
{f96a32e5-c39b-4f92-a679-a2c110a5f54a}
  9
$VERSIONGUID
  2
{FAEB1C32-E019-11D5-929B-00C0DF256EC4}
  9
$EXTNAMES
290
     1
  9
$PSVPSCALE
 40
0.0
  9
$OLESTARTUP
290
     0
  9
$SORTENTS
280
   127
  9
$INDEXCTL
280
     0
  9
$HIDETEXT
280
     1
  9
$XCLIPFRAME
280
     2
  9
$HALOGAP
280
     0
  9
$OBSCOLOR
 70
   257
  9
$OBSLTYPE
280
     0
  9
$INTERSECTIONDISPLAY
280
     0
  9
$INTERSECTIONCOLOR
 70
   257
  9
$DIMASSOC
280
     1
  9
$PROJECTNAME
  1

  9
$CAMERADISPLAY
290
     0
  9
$LENSLENGTH
 40
50.0
  9
$CAMERAHEIGHT
 40
0.0
  9
$STEPSPERSEC
 40
2.0
  9
$STEPSIZE
 40
6.0
  9
$3DDWFPREC
 40
2.0
  9
$PSOLWIDTH
 40
0.25
  9
$PSOLHEIGHT
 40
4.0
  9
$LOFTANG1
 40
1.570796326794897
  9
$LOFTANG2
 40
1.570796326794897
  9
$LOFTMAG1
 40
0.0
  9
$LOFTMAG2
 40
0.0
  9
$LOFTPARAM
 70
     7
  9
$LOFTNORMALS
280
     1
  9
$LATITUDE
 40
37.795
  9
$LONGITUDE
 40
-122.394
  9
$NORTHDIRECTION
 40
0.0
  9
$TIMEZONE
 70
 -8000
  9
$LIGHTGLYPHDISPLAY
280
     1
  9
$TILEMODELIGHTSYNCH
280
     1
  9
$CMATERIAL
347
44
  9
$SOLIDHIST
280
     0
  9
$SHOWHIST
280
     1
  9
$DWFFRAME
280
     2
  9
$DGNFRAME
280
     2
  9
$REALWORLDSCALE
290
     1
  9
$INTERFERECOLOR
 62
   256
  9
$CSHADOW
280
     0
  9
$SHADOWPLANELOCATION
 40
0.0
  0
ENDSEC
  0
SECTION
  2
CLASSES
  0
CLASS
  1
ACDBDICTIONARYWDFLT
  2
AcDbDictionaryWithDefault
  3
ObjectDBX Classes
 90
        0
 91
        3
280
     0
281
     0
  0
CLASS
  1
VISUALSTYLE
  2
AcDbVisualStyle
  3
ObjectDBX Classes
 90
     4095
 91
        3
280
     0
281
     0
  0
CLASS
  1
MATERIAL
  2
AcDbMaterial
  3
ObjectDBX Classes
 90
     1153
 91
        3
280
     0
281
     0
  0
CLASS
  1
SCALE
  2
AcDbScale
  3
ObjectDBX Classes
 90
     1153
 91
        3
280
     0
281
     0
  0
CLASS
  1
TABLESTYLE
  2
AcDbTableStyle
  3
ObjectDBX Classes
 90
     4095
 91
        3
280
     0
281
     0
  0
CLASS
  1
MLEADERSTYLE
  2
AcDbMLeaderStyle
  3
ACDB_MLEADERSTYLE_CLASS
 90
     4095
 91
        3
280
     0
281
     0
  0
CLASS
  1
SUN
  2
AcDbSun
  3
SCENEOE
 90
     1153
 91
        3
280
     0
281
     0
  0
CLASS
  1
DICTIONARYVAR
  2
AcDbDictionaryVar
  3
ObjectDBX Classes
 90
        0
 91
        3
280
     0
281
     0
  0
CLASS
  1
CELLSTYLEMAP
  2
AcDbCellStyleMap
  3
ObjectDBX Classes
 90
     1152
 91
        3
280
     0
281
     0
  0
ENDSEC
  0
SECTION
  2
TABLES
  0
TABLE
  2
VPORT
  5
8
330
0
100
AcDbSymbolTable
 70
     1
  0
VPORT
  5
29
330
8
100
AcDbSymbolTableRecord
100
AcDbViewportTableRecord
  2
*Active
 70
     0
 10
0.0
 20
0.0
 11
1.0
 21
1.0
 12
10.42990654205607
 22
4.5
 13
0.0
 23
0.0
 14
0.5
 24
0.5
 15
0.5
 25
0.5
 16
0.0
 26
0.0
 36
1.0
 17
0.0
 27
0.0
 37
0.0
 40
9.0
 41
1.972972972850329
 42
50.0
 43
0.0
 44
0.0
 50
0.0
 51
0.0
 71
     0
 72
   100
 73
     1
 74
     3
 75
     0
 76
     0
 77
     0
 78
     0
281
     0
 65
     1
110
0.0
120
0.0
130
0.0
111
1.0
121
0.0
131
0.0
112
0.0
122
1.0
132
0.0
 79
     0
146
0.0
348
2F
 60
     3
 61
     5
292
     1
282
     1
141
0.0
142
0.0
 63
   250
361
6D
  0
ENDTAB
  0
TABLE
  2
LTYPE
  5
5
330
0
100
AcDbSymbolTable
 70
     9
  0
LTYPE
  5
14
330
5
100
AcDbSymbolTableRecord
100
AcDbLinetypeTableRecord
  2
ByBlock
 70
     0
  3

 72
    65
 73
     0
 40
0.0
  0
LTYPE
  5
15
330
5
100
AcDbSymbolTableRecord
100
AcDbLinetypeTableRecord
  2
ByLayer
 70
     0
  3

 72
    65
 73
     0
 40
0.0
  0
LTYPE
  5
16
330
5
100
AcDbSymbolTableRecord
100
AcDbLinetypeTableRecord
  2
Continuous
 70
     0
  3
Solid line
 72
    65
 73
     0
 40
0.0
  0
LTYPE
  5
BC
330
5
100
AcDbSymbolTableRecord
100
AcDbLinetypeTableRecord
  2
DOT
 70
     0
  3
DOT
 72
    65
 73
     2
 40
4.0
 49
6.0
 74
     0
 49
-2.0
 74
     0
  0
LTYPE
  5
BD
330
5
100
AcDbSymbolTableRecord
100
AcDbLinetypeTableRecord
  2
HIDDEN
 70
     0
  3
HIDDEN
 72
    65
 73
     2
 40
4.2
 49
8.4
 74
     0
 49
-4.2
 74
     0
  0
LTYPE
  5
BE
330
5
100
AcDbSymbolTableRecord
100
AcDbLinetypeTableRecord
  2
DASHDOT
 70
     0
  3
DASHDOT
 72
    65
 73
     4
 40
14.5
 49
30.0
 74
     0
 49
-9.0
 74
     0
 49
2.5
 74
     0
 49
-9.0
 74
     0
  0
LTYPE
  5
BF
330
5
100
AcDbSymbolTableRecord
100
AcDbLinetypeTableRecord
  2
PHANTOM
 70
     0
  3
PHANTOM
 72
    65
 73
     6
 40
12.0
 49
30.0
 74
     0
 49
-9.0
 74
     0
 49
2.5
 74
     0
 49
-5.0
 74
     0
 49
2.5
 74
     0
 49
-9.0
 74
     0
  0
LTYPE
  5
C0
330
5
100
AcDbSymbolTableRecord
100
AcDbLinetypeTableRecord
  2
ACAD_ISO14W100
 70
     0
  3
ACAD_ISO14W100
 72
    65
 73
     8
 40
1.5
 49
12.0
 74
     0
 49
-3.0
 74
     0
 49
0.5
 74
     0
 49
-3.0
 74
     0
 49
0.5
 74
     0
 49
-3.0
 74
     0
 49
0.5
 74
     0
 49
-3.0
 74
     0
  0
LTYPE
  5
C1
330
5
100
AcDbSymbolTableRecord
100
AcDbLinetypeTableRecord
  2
ACAD_ISO06W100
 70
     0
  3
ACAD_ISO06W100
 72
    65
 73
     8
 40
13.5
 49
24.0
 74
     0
 49
-3.0
 74
     0
 49
0.5
 74
     0
 49
-3.0
 74
     0
 49
0.5
 74
     0
 49
-3.0
 74
     0
 49
0.5
 74
     0
 49
-3.0
 74
     0
  0
LTYPE
  5
C2
330
5
100
AcDbSymbolTableRecord
100
AcDbLinetypeTableRecord
  2
ACAD_ISO11W100
 70
     0
  3
ACAD_ISO11W100
 72
    65
 73
     6
 40
15.5
 49
12.0
 74
     0
 49
-3.0
 74
     0
 49
12.0
 74
     0
 49
-3.0
 74
     0
 49
0.5
 74
     0
 49
-3.0
 74
     0
  0
LTYPE
  5
C3
330
5
100
AcDbSymbolTableRecord
100
AcDbLinetypeTableRecord
  2
ACAD_ISO13W100
 70
     0
  3
ACAD_ISO13W100
 72
    65
 73
     8
 40
13.0
 49
12.0
 74
     0
 49
-3.0
 74
     0
 49
12.0
 74
     0
 49
-3.0
 74
     0
 49
0.5
 74
     0
 49
-3.0
 74
     0
 49
0.5
 74
     0
 49
-3.0
 74
     0
  0
ENDTAB
  0
TABLE
  2
LAYER
  5
2
330
0
100
AcDbSymbolTable
 70
    30
  0
LAYER
  5
10
330
2
100
AcDbSymbolTableRecord
100
AcDbLayerTableRecord
  2
0
 70
     0
 62
     7
  6
Continuous
370
    -3
390
F
347
46
348
0
  0
LAYER
  5
C4
330
2
100
AcDbSymbolTableRecord
100
AcDbLayerTableRecord
  2
1
 70
     0
 62
     7
  6
Continuous
370
     9
390
F
347
46
348
0
  0
LAYER
  5
C5
330
2
100
AcDbSymbolTableRecord
100
AcDbLayerTableRecord
  2
2
 70
     0
 62
   136
420
    32896
  6
Continuous
370
     9
390
F
347
46
348
0
  0
LAYER
  5
C6
330
2
100
AcDbSymbolTableRecord
100
AcDbLayerTableRecord
  2
3
 70
     0
 62
   216
420
  8388736
  6
Continuous
370
     9
390
F
347
46
348
0
  0
LAYER
  5
C7
330
2
100
AcDbSymbolTableRecord
100
AcDbLayerTableRecord
  2
4
 70
     0
 62
    56
420
  8421376
  6
Continuous
370
     9
390
F
347
46
348
0
  0
LAYER
  5
C8
330
2
100
AcDbSymbolTableRecord
100
AcDbLayerTableRecord
  2
5
 70
     0
 62
    96
420
    32768
  6
Continuous
370
     9
390
F
347
46
348
0
  0
LAYER
  5
C9
330
2
100
AcDbSymbolTableRecord
100
AcDbLayerTableRecord
  2
6
 70
     0
 62
    16
420
  8388608
  6
Continuous
370
     9
390
F
347
46
348
0
  0
LAYER
  5
CA
330
2
100
AcDbSymbolTableRecord
100
AcDbLayerTableRecord
  2
7
 70
     0
 62
     4
  6
Continuous
370
     9
390
F
347
46
348
0
  0
LAYER
  5
CB
330
2
100
AcDbSymbolTableRecord
100
AcDbLayerTableRecord
  2
8
 70
     0
 62
     6
  6
Continuous
370
     9
390
F
347
46
348
0
  0
LAYER
  5
CC
330
2
100
AcDbSymbolTableRecord
100
AcDbLayerTableRecord
  2
9
 70
     0
 62
     2
  6
Continuous
370
     9
390
F
347
46
348
0
  0
LAYER
  5
CD
330
2
100
AcDbSymbolTableRecord
100
AcDbLayerTableRecord
  2
10
 70
     0
 62
     3
  6
Continuous
370
     9
390
F
347
46
348
0
  0
LAYER
  5
CE
330
2
100
AcDbSymbolTableRecord
100
AcDbLayerTableRecord
  2
11
 70
     0
 62
     8
420
  8421504
  6
Continuous
370
     9
390
F
347
46
348
0
  0
LAYER
  5
CF
330
2
100
AcDbSymbolTableRecord
100
AcDbLayerTableRecord
  2
12
 70
     0
 62
   138
420
    20560
  6
Continuous
370
     9
390
F
347
46
348
0
  0
LAYER
  5
D0
330
2
100
AcDbSymbolTableRecord
100
AcDbLayerTableRecord
  2
13
 70
     0
 62
   218
420
  5242960
  6
Continuous
370
     9
390
F
347
46
348
0
  0
LAYER
  5
D1
330
2
100
AcDbSymbolTableRecord
100
AcDbLayerTableRecord
  2
14
 70
     0
 62
    58
420
  5263360
  6
Continuous
370
     9
390
F
347
46
348
0
  0
LAYER
  5
D2
330
2
100
AcDbSymbolTableRecord
100
AcDbLayerTableRecord
  2
15
 70
     0
 62
    98
420
    20480
  6
Continuous
370
     9
390
F
347
46
348
0
  0
LAYER
  5
D3
330
2
100
AcDbSymbolTableRecord
100
AcDbLayerTableRecord
  2
16
 70
     0
 62
    18
420
  5242880
  6
Continuous
370
     9
390
F
347
46
348
0
  0
LAYER
  5
D4
330
2
100
AcDbSymbolTableRecord
100
AcDbLayerTableRecord
  2
17
 70
     0
 62
   132
420
    49344
  6
Continuous
370
     9
390
F
347
46
348
0
  0
LAYER
  5
D5
330
2
100
AcDbSymbolTableRecord
100
AcDbLayerTableRecord
  2
18
 70
     0
 62
   212
420
 12583104
  6
Continuous
370
     9
390
F
347
46
348
0
  0
LAYER
  5
D6
330
2
100
AcDbSymbolTableRecord
100
AcDbLayerTableRecord
  2
19
 70
     0
 62
    52
420
 12632064
  6
Continuous
370
     9
390
F
347
46
348
0
  0
LAYER
  5
D7
330
2
100
AcDbSymbolTableRecord
100
AcDbLayerTableRecord
  2
20
 70
     0
 62
   251
420
  5263440
  6
Continuous
370
     9
390
F
347
46
348
0
  0
LAYER
  5
D8
330
2
100
AcDbSymbolTableRecord
100
AcDbLayerTableRecord
  2
100
 70
     0
 62
     7
  6
Continuous
370
     9
390
F
347
46
348
0
  0
LAYER
  5
D9
330
2
100
AcDbSymbolTableRecord
100
AcDbLayerTableRecord
  2
101
 70
     0
 62
     7
  6
Continuous
370
     9
390
F
347
46
348
0
  0
LAYER
  5
DA
330
2
100
AcDbSymbolTableRecord
100
AcDbLayerTableRecord
  2
102
 70
     0
 62
     7
  6
Continuous
370
     9
390
F
347
46
348
0
  0
LAYER
  5
DB
330
2
100
AcDbSymbolTableRecord
100
AcDbLayerTableRecord
  2
103
 70
     0
 62
     9
420
 12434877
  6
Continuous
370
     9
390
F
347
46
348
0
  0
LAYER
  5
DC
330
2
100
AcDbSymbolTableRecord
100
AcDbLayerTableRecord
  2
104
 70
     0
 62
   253
420
 10263708
  6
Continuous
370
     9
390
F
347
46
348
0
  0
LAYER
  5
DD
330
2
100
AcDbSymbolTableRecord
100
AcDbLayerTableRecord
  2
105
 70
     0
 62
     8
420
  7566195
  6
Continuous
370
     9
390
F
347
46
348
0
  0
LAYER
  5
DE
330
2
100
AcDbSymbolTableRecord
100
AcDbLayerTableRecord
  2
106
 70
     0
 62
     8
420
  7566195
  6
Continuous
370
     9
390
F
347
46
348
0
  0
LAYER
  5
DF
330
2
100
AcDbSymbolTableRecord
100
AcDbLayerTableRecord
  2
107
 70
     0
 62
     1
  6
Continuous
370
     9
390
F
347
46
348
0
  0
LAYER
  5
E0
330
2
100
AcDbSymbolTableRecord
100
AcDbLayerTableRecord
  2
128
 70
     0
 62
     7
  6
Continuous
370
     9
390
F
347
46
348
0
  0
ENDTAB
  0
TABLE
  2
STYLE
  5
3
330
0
100
AcDbSymbolTable
 70
     2
  0
STYLE
  5
11
330
3
100
AcDbSymbolTableRecord
100
AcDbTextStyleTableRecord
  2
Standard
 70
     0
 40
0.0
 41
1.0
 50
0.0
 71
     0
 42
5.0
  3
txt
  4
bigfont
  0
STYLE
  5
6F
330
3
100
AcDbSymbolTableRecord
100
AcDbTextStyleTableRecord
  2
T_STANDARD
 70
     4
 40
10.0
 41
1.0
 50
0.0
 71
     0
 42
5.0
  3
txt
  4
bigfont
1001
ACAD
1000

1071
      256
  0
ENDTAB
  0
TABLE
  2
VIEW
  5
6
330
0
100
AcDbSymbolTable
 70
     0
  0
ENDTAB
  0
TABLE
  2
UCS
  5
7
330
0
100
AcDbSymbolTable
 70
     0
  0
ENDTAB
  0
TABLE
  2
APPID
  5
9
330
0
100
AcDbSymbolTable
 70
     2
  0
APPID
  5
12
330
9
100
AcDbSymbolTableRecord
100
AcDbRegAppTableRecord
  2
ACAD
 70
     0
  0
APPID
  5
6E
330
9
100
AcDbSymbolTableRecord
100
AcDbRegAppTableRecord
  2
ODA
 70
     0
  0
ENDTAB
  0
TABLE
  2
DIMSTYLE
  5
A
330
0
100
AcDbSymbolTable
 70
     1
100
AcDbDimStyleTable
  0
DIMSTYLE
105
27
330
A
100
AcDbSymbolTableRecord
100
AcDbDimStyleTableRecord
  2
Standard
 70
     0
178
     0
340
11
  0
ENDTAB
  0
TABLE
  2
BLOCK_RECORD
  5
1
330
0
100
AcDbSymbolTable
 70
    56
  0
BLOCK_RECORD
  5
1F
330
1
100
AcDbSymbolTableRecord
100
AcDbBlockTableRecord
  2
*Model_Space
340
22
 70
     0
280
     1
281
     0
  0
BLOCK_RECORD
  5
1B
330
1
100
AcDbSymbolTableRecord
100
AcDbBlockTableRecord
  2
*Paper_Space
340
1E
 70
     0
280
     1
281
     0
  0
BLOCK_RECORD
  5
23
330
1
100
AcDbSymbolTableRecord
100
AcDbBlockTableRecord
  2
*Paper_Space0
340
26
 70
     0
280
     1
281
     0
  0
BLOCK_RECORD
  5
70
330
1
100
AcDbSymbolTableRecord
100
AcDbBlockTableRecord
  2
_ORIGIN
340
0
 70
     0
280
     1
281
     0
  0
BLOCK_RECORD
  5
75
330
1
100
AcDbSymbolTableRecord
100
AcDbBlockTableRecord
  2
_DOTBLANK
340
0
 70
     0
280
     1
281
     0
  0
BLOCK_RECORD
  5
7A
330
1
100
AcDbSymbolTableRecord
100
AcDbBlockTableRecord
  2
_DOT
340
0
 70
     0
280
     1
281
     0
  0
BLOCK_RECORD
  5
7F
330
1
100
AcDbSymbolTableRecord
100
AcDbBlockTableRecord
  2
_OPEN
340
0
 70
     0
280
     1
281
     0
  0
BLOCK_RECORD
  5
85
330
1
100
AcDbSymbolTableRecord
100
AcDbBlockTableRecord
  2
_CLOSED
340
0
 70
     0
280
     1
281
     0
  0
BLOCK_RECORD
  5
8C
330
1
100
AcDbSymbolTableRecord
100
AcDbBlockTableRecord
  2
_CLOSEDBLANK
340
0
 70
     0
280
     1
281
     0
  0
BLOCK_RECORD
  5
92
330
1
100
AcDbSymbolTableRecord
100
AcDbBlockTableRecord
  2
_ARROWFILLED
340
0
 70
     0
280
     1
281
     0
  0
BLOCK_RECORD
  5
96
330
1
100
AcDbSymbolTableRecord
100
AcDbBlockTableRecord
  2
_BOXBLANK
340
0
 70
     0
280
     1
281
     0
  0
BLOCK_RECORD
  5
9E
330
1
100
AcDbSymbolTableRecord
100
AcDbBlockTableRecord
  2
_BOXFILLED
340
0
 70
     0
280
     1
281
     0
  0
BLOCK_RECORD
  5
A3
330
1
100
AcDbSymbolTableRecord
100
AcDbBlockTableRecord
  2
_INTEGRAL
340
0
 70
     0
280
     1
281
     0
  0
BLOCK_RECORD
  5
A8
330
1
100
AcDbSymbolTableRecord
100
AcDbBlockTableRecord
  2
_OBLIQUE
340
0
 70
     0
280
     1
281
     0
  0
BLOCK_RECORD
  5
AC
330
1
100
AcDbSymbolTableRecord
100
AcDbBlockTableRecord
  2
_NONE
340
0
 70
     0
280
     1
281
     0
  0
BLOCK_RECORD
  5
AF
330
1
100
AcDbSymbolTableRecord
100
AcDbBlockTableRecord
  2
MARK_OPEN
340
0
 70
     0
280
     1
281
     0
  0
BLOCK_RECORD
  5
B4
330
1
100
AcDbSymbolTableRecord
100
AcDbBlockTableRecord
  2
MARK_ORIGIN
340
0
 70
     0
280
     1
281
     0
  0
BLOCK_RECORD
  5
B8
330
1
100
AcDbSymbolTableRecord
100
AcDbBlockTableRecord
  2
MARK_DOT
340
0
 70
     0
280
     1
281
     0
  0
BLOCK_RECORD
  5
E1
330
1
100
AcDbSymbolTableRecord
100
AcDbBlockTableRecord
  2
G1
340
0
102
{BLKREFS
331
3C5
102
}
 70
     0
280
     1
281
     0
  0
BLOCK_RECORD
  5
E4
330
1
100
AcDbSymbolTableRecord
100
AcDbBlockTableRecord
  2
G2
340
0
102
{BLKREFS
331
F2
102
}
 70
     0
280
     1
281
     0
  0
BLOCK_RECORD
  5
F3
330
1
100
AcDbSymbolTableRecord
100
AcDbBlockTableRecord
  2
G3
340
0
102
{BLKREFS
331
103
102
}
 70
     0
280
     1
281
     0
  0
BLOCK_RECORD
  5
104
330
1
100
AcDbSymbolTableRecord
100
AcDbBlockTableRecord
  2
G4
340
0
102
{BLKREFS
331
10B
102
}
 70
     0
280
     1
281
     0
  0
BLOCK_RECORD
  5
10C
330
1
100
AcDbSymbolTableRecord
100
AcDbBlockTableRecord
  2
G5
340
0
102
{BLKREFS
331
124
102
}
 70
     0
280
     1
281
     0
  0
BLOCK_RECORD
  5
125
330
1
100
AcDbSymbolTableRecord
100
AcDbBlockTableRecord
  2
G6
340
0
102
{BLKREFS
331
12E
102
}
 70
     0
280
     1
281
     0
  0
BLOCK_RECORD
  5
12F
330
1
100
AcDbSymbolTableRecord
100
AcDbBlockTableRecord
  2
G7
340
0
102
{BLKREFS
331
141
102
}
 70
     0
280
     1
281
     0
  0
BLOCK_RECORD
  5
142
330
1
100
AcDbSymbolTableRecord
100
AcDbBlockTableRecord
  2
G8
340
0
102
{BLKREFS
331
14B
102
}
 70
     0
280
     1
281
     0
  0
BLOCK_RECORD
  5
14C
330
1
100
AcDbSymbolTableRecord
100
AcDbBlockTableRecord
  2
G9
340
0
102
{BLKREFS
331
15B
102
}
 70
     0
280
     1
281
     0
  0
BLOCK_RECORD
  5
15C
330
1
100
AcDbSymbolTableRecord
100
AcDbBlockTableRecord
  2
G10
340
0
102
{BLKREFS
331
164
102
}
 70
     0
280
     1
281
     0
  0
BLOCK_RECORD
  5
165
330
1
100
AcDbSymbolTableRecord
100
AcDbBlockTableRecord
  2
G11
340
0
102
{BLKREFS
331
16F
102
}
 70
     0
280
     1
281
     0
  0
BLOCK_RECORD
  5
170
330
1
100
AcDbSymbolTableRecord
100
AcDbBlockTableRecord
  2
G12
340
0
102
{BLKREFS
331
177
102
}
 70
     0
280
     1
281
     0
  0
BLOCK_RECORD
  5
178
330
1
100
AcDbSymbolTableRecord
100
AcDbBlockTableRecord
  2
G13
340
0
102
{BLKREFS
331
181
102
}
 70
     0
280
     1
281
     0
  0
BLOCK_RECORD
  5
182
330
1
100
AcDbSymbolTableRecord
100
AcDbBlockTableRecord
  2
G14
340
0
102
{BLKREFS
331
188
102
}
 70
     0
280
     1
281
     0
  0
BLOCK_RECORD
  5
189
330
1
100
AcDbSymbolTableRecord
100
AcDbBlockTableRecord
  2
G15
340
0
102
{BLKREFS
331
1C3
102
}
 70
     0
280
     1
281
     0
  0
BLOCK_RECORD
  5
1C4
330
1
100
AcDbSymbolTableRecord
100
AcDbBlockTableRecord
  2
G16
340
0
102
{BLKREFS
331
1D0
102
}
 70
     0
280
     1
281
     0
  0
BLOCK_RECORD
  5
1D1
330
1
100
AcDbSymbolTableRecord
100
AcDbBlockTableRecord
  2
G17
340
0
102
{BLKREFS
331
1F1
102
}
 70
     0
280
     1
281
     0
  0
BLOCK_RECORD
  5
1F2
330
1
100
AcDbSymbolTableRecord
100
AcDbBlockTableRecord
  2
G18
340
0
102
{BLKREFS
331
1FB
102
}
 70
     0
280
     1
281
     0
  0
BLOCK_RECORD
  5
1FC
330
1
100
AcDbSymbolTableRecord
100
AcDbBlockTableRecord
  2
G19
340
0
102
{BLKREFS
331
202
102
}
 70
     0
280
     1
281
     0
  0
BLOCK_RECORD
  5
203
330
1
100
AcDbSymbolTableRecord
100
AcDbBlockTableRecord
  2
G20
340
0
102
{BLKREFS
331
212
102
}
 70
     0
280
     1
281
     0
  0
BLOCK_RECORD
  5
213
330
1
100
AcDbSymbolTableRecord
100
AcDbBlockTableRecord
  2
G21
340
0
102
{BLKREFS
331
218
102
}
 70
     0
280
     1
281
     0
  0
BLOCK_RECORD
  5
219
330
1
100
AcDbSymbolTableRecord
100
AcDbBlockTableRecord
  2
G22
340
0
102
{BLKREFS
331
22F
102
}
 70
     0
280
     1
281
     0
  0
BLOCK_RECORD
  5
230
330
1
100
AcDbSymbolTableRecord
100
AcDbBlockTableRecord
  2
G23
340
0
102
{BLKREFS
331
244
102
}
 70
     0
280
     1
281
     0
  0
BLOCK_RECORD
  5
245
330
1
100
AcDbSymbolTableRecord
100
AcDbBlockTableRecord
  2
G24
340
0
102
{BLKREFS
331
28D
102
}
 70
     0
280
     1
281
     0
  0
BLOCK_RECORD
  5
28E
330
1
100
AcDbSymbolTableRecord
100
AcDbBlockTableRecord
  2
G25
340
0
102
{BLKREFS
331
293
102
}
 70
     0
280
     1
281
     0
  0
BLOCK_RECORD
  5
294
330
1
100
AcDbSymbolTableRecord
100
AcDbBlockTableRecord
  2
G26
340
0
102
{BLKREFS
331
2B2
102
}
 70
     0
280
     1
281
     0
  0
BLOCK_RECORD
  5
2B3
330
1
100
AcDbSymbolTableRecord
100
AcDbBlockTableRecord
  2
G27
340
0
102
{BLKREFS
331
2C6
102
}
 70
     0
280
     1
281
     0
  0
BLOCK_RECORD
  5
2C7
330
1
100
AcDbSymbolTableRecord
100
AcDbBlockTableRecord
  2
G28
340
0
102
{BLKREFS
331
2E8
102
}
 70
     0
280
     1
281
     0
  0
BLOCK_RECORD
  5
2E9
330
1
100
AcDbSymbolTableRecord
100
AcDbBlockTableRecord
  2
G29
340
0
102
{BLKREFS
331
2FA
102
}
 70
     0
280
     1
281
     0
  0
BLOCK_RECORD
  5
2FB
330
1
100
AcDbSymbolTableRecord
100
AcDbBlockTableRecord
  2
G30
340
0
102
{BLKREFS
331
304
102
}
 70
     0
280
     1
281
     0
  0
BLOCK_RECORD
  5
305
330
1
100
AcDbSymbolTableRecord
100
AcDbBlockTableRecord
  2
G31
340
0
102
{BLKREFS
331
30A
102
}
 70
     0
280
     1
281
     0
  0
BLOCK_RECORD
  5
30B
330
1
100
AcDbSymbolTableRecord
100
AcDbBlockTableRecord
  2
G32
340
0
102
{BLKREFS
331
311
102
}
 70
     0
280
     1
281
     0
  0
BLOCK_RECORD
  5
312
330
1
100
AcDbSymbolTableRecord
100
AcDbBlockTableRecord
  2
G33
340
0
102
{BLKREFS
331
318
102
}
 70
     0
280
     1
281
     0
  0
BLOCK_RECORD
  5
319
330
1
100
AcDbSymbolTableRecord
100
AcDbBlockTableRecord
  2
G34
340
0
102
{BLKREFS
331
33E
102
}
 70
     0
280
     1
281
     0
  0
BLOCK_RECORD
  5
33F
330
1
100
AcDbSymbolTableRecord
100
AcDbBlockTableRecord
  2
G35
340
0
102
{BLKREFS
331
345
102
}
 70
     0
280
     1
281
     0
  0
BLOCK_RECORD
  5
346
330
1
100
AcDbSymbolTableRecord
100
AcDbBlockTableRecord
  2
G36
340
0
102
{BLKREFS
331
356
102
}
 70
     0
280
     1
281
     0
  0
BLOCK_RECORD
  5
357
330
1
100
AcDbSymbolTableRecord
100
AcDbBlockTableRecord
  2
G37
340
0
102
{BLKREFS
331
371
102
}
 70
     0
280
     1
281
     0
  0
BLOCK_RECORD
  5
372
330
1
100
AcDbSymbolTableRecord
100
AcDbBlockTableRecord
  2
G38
340
0
102
{BLKREFS
331
382
102
}
 70
     0
280
     1
281
     0
  0
BLOCK_RECORD
  5
383
330
1
100
AcDbSymbolTableRecord
100
AcDbBlockTableRecord
  2
G39
340
0
102
{BLKREFS
331
397
102
}
 70
     0
280
     1
281
     0
  0
BLOCK_RECORD
  5
398
330
1
100
AcDbSymbolTableRecord
100
AcDbBlockTableRecord
  2
G40
340
0
102
{BLKREFS
331
3C4
102
}
 70
     0
280
     1
281
     0
  0
ENDTAB
  0
ENDSEC
  0
SECTION
  2
BLOCKS
  0
BLOCK
  5
20
330
1F
100
AcDbEntity
  8
0
100
AcDbBlockBegin
  2
*Model_Space
 70
     0
 10
0.0
 20
0.0
 30
0.0
  3
*Model_Space
  1

  0
ENDBLK
  5
21
330
1F
100
AcDbEntity
  8
0
100
AcDbBlockEnd
  0
BLOCK
  5
1C
330
1B
100
AcDbEntity
 67
     1
  8
0
100
AcDbBlockBegin
  2
*Paper_Space
 70
     0
 10
0.0
 20
0.0
 30
0.0
  3
*Paper_Space
  1

  0
ENDBLK
  5
1D
330
1B
100
AcDbEntity
 67
     1
  8
0
100
AcDbBlockEnd
  0
BLOCK
  5
24
330
23
100
AcDbEntity
  8
0
100
AcDbBlockBegin
  2
*Paper_Space0
 70
     0
 10
0.0
 20
0.0
 30
0.0
  3
*Paper_Space0
  1

  0
ENDBLK
  5
25
330
23
100
AcDbEntity
  8
0
100
AcDbBlockEnd
  0
BLOCK
  5
73
330
70
100
AcDbEntity
  8
0
100
AcDbBlockBegin
  2
_ORIGIN
 70
     0
 10
0.0
 20
0.0
 30
0.0
  3
_ORIGIN
  1

  0
CIRCLE
  5
71
330
70
100
AcDbEntity
  8
0
 62
     0
100
AcDbCircle
 10
0.0
 20
0.0
 30
0.0
 40
0.5
  0
LINE
  5
72
330
70
100
AcDbEntity
  8
0
 62
     0
100
AcDbLine
 10
0.0
 20
0.0
 30
0.0
 11
-1.0
 21
0.0
 31
0.0
  0
ENDBLK
  5
74
330
70
100
AcDbEntity
  8
0
100
AcDbBlockEnd
  0
BLOCK
  5
78
330
75
100
AcDbEntity
  8
0
100
AcDbBlockBegin
  2
_DOTBLANK
 70
     0
 10
0.0
 20
0.0
 30
0.0
  3
_DOTBLANK
  1

  0
CIRCLE
  5
76
330
75
100
AcDbEntity
  8
0
 62
     0
100
AcDbCircle
 10
0.0
 20
0.0
 30
0.0
 40
0.5
  0
LINE
  5
77
330
75
100
AcDbEntity
  8
0
 62
     0
100
AcDbLine
 10
-0.5
 20
0.0
 30
0.0
 11
-1.0
 21
0.0
 31
0.0
  0
ENDBLK
  5
79
330
75
100
AcDbEntity
  8
0
100
AcDbBlockEnd
  0
BLOCK
  5
7D
330
7A
100
AcDbEntity
  8
0
100
AcDbBlockBegin
  2
_DOT
 70
     0
 10
0.0
 20
0.0
 30
0.0
  3
_DOT
  1

  0
LWPOLYLINE
  5
7B
330
7A
100
AcDbEntity
  8
0
 62
     0
100
AcDbPolyline
 90
        2
 70
     1
 43
0.5
 10
-0.25
 20
0.0
 42
1.0
 10
0.25
 20
0.0
 42
1.0
  0
LINE
  5
7C
330
7A
100
AcDbEntity
  8
0
 62
     0
100
AcDbLine
 10
-0.5
 20
0.0
 30
0.0
 11
-1.0
 21
0.0
 31
0.0
  0
ENDBLK
  5
7E
330
7A
100
AcDbEntity
  8
0
100
AcDbBlockEnd
  0
BLOCK
  5
83
330
7F
100
AcDbEntity
  8
0
100
AcDbBlockBegin
  2
_OPEN
 70
     0
 10
0.0
 20
0.0
 30
0.0
  3
_OPEN
  1

  0
LINE
  5
80
330
7F
100
AcDbEntity
  8
0
 62
     0
100
AcDbLine
 10
0.0
 20
0.0
 30
0.0
 11
-1.0
 21
0.1666666666666667
 31
0.0
  0
LINE
  5
81
330
7F
100
AcDbEntity
  8
0
 62
     0
100
AcDbLine
 10
0.0
 20
0.0
 30
0.0
 11
-1.0
 21
-0.1666666666666667
 31
0.0
  0
LINE
  5
82
330
7F
100
AcDbEntity
  8
0
 62
     0
100
AcDbLine
 10
0.0
 20
0.0
 30
0.0
 11
-1.0
 21
0.0
 31
0.0
  0
ENDBLK
  5
84
330
7F
100
AcDbEntity
  8
0
100
AcDbBlockEnd
  0
BLOCK
  5
8A
330
85
100
AcDbEntity
  8
0
100
AcDbBlockBegin
  2
_CLOSED
 70
     0
 10
0.0
 20
0.0
 30
0.0
  3
_CLOSED
  1

  0
LINE
  5
86
330
85
100
AcDbEntity
  8
0
 62
     0
100
AcDbLine
 10
0.0
 20
0.0
 30
0.0
 11
-1.0
 21
0.1666666666666667
 31
0.0
  0
LINE
  5
87
330
85
100
AcDbEntity
  8
0
 62
     0
100
AcDbLine
 10
0.0
 20
0.0
 30
0.0
 11
-1.0
 21
-0.1666666666666667
 31
0.0
  0
LINE
  5
88
330
85
100
AcDbEntity
  8
0
 62
     0
100
AcDbLine
 10
-1.0
 20
0.1666666666666667
 30
0.0
 11
-1.0
 21
-0.1666666666666667
 31
0.0
  0
LINE
  5
89
330
85
100
AcDbEntity
  8
0
 62
     0
100
AcDbLine
 10
0.0
 20
0.0
 30
0.0
 11
-1.0
 21
0.0
 31
0.0
  0
ENDBLK
  5
8B
330
85
100
AcDbEntity
  8
0
100
AcDbBlockEnd
  0
BLOCK
  5
90
330
8C
100
AcDbEntity
  8
0
100
AcDbBlockBegin
  2
_CLOSEDBLANK
 70
     0
 10
0.0
 20
0.0
 30
0.0
  3
_CLOSEDBLANK
  1

  0
LINE
  5
8D
330
8C
100
AcDbEntity
  8
0
 62
     0
100
AcDbLine
 10
0.0
 20
0.0
 30
0.0
 11
-1.0
 21
0.1666666666666667
 31
0.0
  0
LINE
  5
8E
330
8C
100
AcDbEntity
  8
0
 62
     0
100
AcDbLine
 10
0.0
 20
0.0
 30
0.0
 11
-1.0
 21
-0.1666666666666667
 31
0.0
  0
LINE
  5
8F
330
8C
100
AcDbEntity
  8
0
 62
     0
100
AcDbLine
 10
-1.0
 20
0.1666666666666667
 30
0.0
 11
-1.0
 21
-0.1666666666666667
 31
0.0
  0
ENDBLK
  5
91
330
8C
100
AcDbEntity
  8
0
100
AcDbBlockEnd
  0
BLOCK
  5
94
330
92
100
AcDbEntity
  8
0
100
AcDbBlockBegin
  2
_ARROWFILLED
 70
     0
 10
0.0
 20
0.0
 30
0.0
  3
_ARROWFILLED
  1

  0
SOLID
  5
93
330
92
100
AcDbEntity
  8
0
 62
     0
100
AcDbTrace
 10
0.0
 20
0.0
 30
0.0
 11
-1.0
 21
-0.1666666666666667
 31
0.0
 12
-1.0
 22
0.1666666666666667
 32
0.0
 13
0.0
 23
0.0
 33
0.0
  0
ENDBLK
  5
95
330
92
100
AcDbEntity
  8
0
100
AcDbBlockEnd
  0
BLOCK
  5
9C
330
96
100
AcDbEntity
  8
0
100
AcDbBlockBegin
  2
_BOXBLANK
 70
     0
 10
0.0
 20
0.0
 30
0.0
  3
_BOXBLANK
  1

  0
LINE
  5
97
330
96
100
AcDbEntity
  8
0
 62
     0
100
AcDbLine
 10
-0.5
 20
-0.5
 30
0.0
 11
0.5
 21
-0.5
 31
0.0
  0
LINE
  5
98
330
96
100
AcDbEntity
  8
0
 62
     0
100
AcDbLine
 10
0.5
 20
-0.5
 30
0.0
 11
0.5
 21
0.5
 31
0.0
  0
LINE
  5
99
330
96
100
AcDbEntity
  8
0
 62
     0
100
AcDbLine
 10
0.5
 20
0.5
 30
0.0
 11
-0.5
 21
0.5
 31
0.0
  0
LINE
  5
9A
330
96
100
AcDbEntity
  8
0
 62
     0
100
AcDbLine
 10
-0.5
 20
0.5
 30
0.0
 11
-0.5
 21
-0.5
 31
0.0
  0
LINE
  5
9B
330
96
100
AcDbEntity
  8
0
 62
     0
100
AcDbLine
 10
-0.5
 20
0.0
 30
0.0
 11
-1.0
 21
0.0
 31
0.0
  0
ENDBLK
  5
9D
330
96
100
AcDbEntity
  8
0
100
AcDbBlockEnd
  0
BLOCK
  5
A1
330
9E
100
AcDbEntity
  8
0
100
AcDbBlockBegin
  2
_BOXFILLED
 70
     0
 10
0.0
 20
0.0
 30
0.0
  3
_BOXFILLED
  1

  0
SOLID
  5
9F
330
9E
100
AcDbEntity
  8
0
 62
     0
100
AcDbTrace
 10
-0.5
 20
0.5
 30
0.0
 11
0.5
 21
0.5
 31
0.0
 12
-0.5
 22
-0.5
 32
0.0
 13
0.5
 23
-0.5
 33
0.0
  0
LINE
  5
A0
330
9E
100
AcDbEntity
  8
0
 62
     0
100
AcDbLine
 10
-0.5
 20
0.0
 30
0.0
 11
-1.0
 21
0.0
 31
0.0
  0
ENDBLK
  5
A2
330
9E
100
AcDbEntity
  8
0
100
AcDbBlockEnd
  0
BLOCK
  5
A6
330
A3
100
AcDbEntity
  8
0
100
AcDbBlockBegin
  2
_INTEGRAL
 70
     0
 10
0.0
 20
0.0
 30
0.0
  3
_INTEGRAL
  1

  0
ARC
  5
A4
330
A3
100
AcDbEntity
  8
0
 62
     0
100
AcDbCircle
 10
0.444888
 20
-0.0913346
 30
0.0
 40
0.4541666
100
AcDbArc
 50
101.9999999999999
 51
167.9999999999998
  0
ARC
  5
A5
330
A3
100
AcDbEntity
  8
0
 62
     0
100
AcDbCircle
 10
-0.444888
 20
0.0913346
 30
0.0
 40
0.4541666
100
AcDbArc
 50
281.9999999999997
 51
347.9999999999997
  0
ENDBLK
  5
A7
330
A3
100
AcDbEntity
  8
0
100
AcDbBlockEnd
  0
BLOCK
  5
AA
330
A8
100
AcDbEntity
  8
0
100
AcDbBlockBegin
  2
_OBLIQUE
 70
     0
 10
0.0
 20
0.0
 30
0.0
  3
_OBLIQUE
  1

  0
LINE
  5
A9
330
A8
100
AcDbEntity
  8
0
 62
     0
100
AcDbLine
 10
-0.5
 20
-0.5
 30
0.0
 11
0.5
 21
0.5
 31
0.0
  0
ENDBLK
  5
AB
330
A8
100
AcDbEntity
  8
0
100
AcDbBlockEnd
  0
BLOCK
  5
AD
330
AC
100
AcDbEntity
  8
0
100
AcDbBlockBegin
  2
_NONE
 70
     0
 10
0.0
 20
0.0
 30
0.0
  3
_NONE
  1

  0
ENDBLK
  5
AE
330
AC
100
AcDbEntity
  8
0
100
AcDbBlockEnd
  0
BLOCK
  5
B2
330
AF
100
AcDbEntity
  8
0
100
AcDbBlockBegin
  2
MARK_OPEN
 70
     0
 10
0.0
 20
0.0
 30
0.0
  3
MARK_OPEN
  1

  0
LINE
  5
B0
330
AF
100
AcDbEntity
  8
0
 62
     0
100
AcDbLine
 10
0.0
 20
0.0
 30
0.0
 11
-1.0
 21
0.1666666666666667
 31
0.0
  0
LINE
  5
B1
330
AF
100
AcDbEntity
  8
0
 62
     0
100
AcDbLine
 10
0.0
 20
0.0
 30
0.0
 11
-1.0
 21
-0.1666666666666667
 31
0.0
  0
ENDBLK
  5
B3
330
AF
100
AcDbEntity
  8
0
100
AcDbBlockEnd
  0
BLOCK
  5
B6
330
B4
100
AcDbEntity
  8
0
100
AcDbBlockBegin
  2
MARK_ORIGIN
 70
     0
 10
0.0
 20
0.0
 30
0.0
  3
MARK_ORIGIN
  1

  0
CIRCLE
  5
B5
330
B4
100
AcDbEntity
  8
0
 62
     0
100
AcDbCircle
 10
0.0
 20
0.0
 30
0.0
 40
0.5
  0
ENDBLK
  5
B7
330
B4
100
AcDbEntity
  8
0
100
AcDbBlockEnd
  0
BLOCK
  5
BA
330
B8
100
AcDbEntity
  8
0
100
AcDbBlockBegin
  2
MARK_DOT
 70
     0
 10
0.0
 20
0.0
 30
0.0
  3
MARK_DOT
  1

  0
LWPOLYLINE
  5
B9
330
B8
100
AcDbEntity
  8
0
 62
     0
100
AcDbPolyline
 90
        2
 70
     1
 43
0.5
 10
-0.25
 20
0.0
 42
1.0
 10
0.25
 20
0.0
 42
1.0
  0
ENDBLK
  5
BB
330
B8
100
AcDbEntity
  8
0
100
AcDbBlockEnd
  0
BLOCK
  5
E2
330
E1
100
AcDbEntity
  8
0
100
AcDbBlockBegin
  2
G1
 70
     0
 10
0.0
 20
0.0
 30
0.0
  3
G1
  1

  0
INSERT
  5
F2
330
E1
100
AcDbEntity
  8
0
100
AcDbBlockReference
  2
G2
 10
0.0
 20
0.0
 30
0.0
  0
INSERT
  5
103
330
E1
100
AcDbEntity
  8
0
100
AcDbBlockReference
  2
G3
 10
0.0
 20
0.0
 30
0.0
  0
INSERT
  5
10B
330
E1
100
AcDbEntity
  8
0
100
AcDbBlockReference
  2
G4
 10
0.0
 20
0.0
 30
0.0
  0
INSERT
  5
124
330
E1
100
AcDbEntity
  8
0
100
AcDbBlockReference
  2
G5
 10
0.0
 20
0.0
 30
0.0
  0
INSERT
  5
12E
330
E1
100
AcDbEntity
  8
0
100
AcDbBlockReference
  2
G6
 10
0.0
 20
0.0
 30
0.0
  0
INSERT
  5
141
330
E1
100
AcDbEntity
  8
0
100
AcDbBlockReference
  2
G7
 10
0.0
 20
0.0
 30
0.0
  0
INSERT
  5
14B
330
E1
100
AcDbEntity
  8
0
100
AcDbBlockReference
  2
G8
 10
0.0
 20
0.0
 30
0.0
  0
INSERT
  5
15B
330
E1
100
AcDbEntity
  8
0
100
AcDbBlockReference
  2
G9
 10
0.0
 20
0.0
 30
0.0
  0
INSERT
  5
164
330
E1
100
AcDbEntity
  8
0
100
AcDbBlockReference
  2
G10
 10
0.0
 20
0.0
 30
0.0
  0
INSERT
  5
16F
330
E1
100
AcDbEntity
  8
0
100
AcDbBlockReference
  2
G11
 10
0.0
 20
0.0
 30
0.0
  0
INSERT
  5
177
330
E1
100
AcDbEntity
  8
0
100
AcDbBlockReference
  2
G12
 10
0.0
 20
0.0
 30
0.0
  0
INSERT
  5
181
330
E1
100
AcDbEntity
  8
0
100
AcDbBlockReference
  2
G13
 10
0.0
 20
0.0
 30
0.0
  0
INSERT
  5
188
330
E1
100
AcDbEntity
  8
0
100
AcDbBlockReference
  2
G14
 10
0.0
 20
0.0
 30
0.0
  0
INSERT
  5
1C3
330
E1
100
AcDbEntity
  8
0
100
AcDbBlockReference
  2
G15
 10
0.0
 20
0.0
 30
0.0
  0
INSERT
  5
1D0
330
E1
100
AcDbEntity
  8
0
100
AcDbBlockReference
  2
G16
 10
0.0
 20
0.0
 30
0.0
  0
INSERT
  5
1F1
330
E1
100
AcDbEntity
  8
0
100
AcDbBlockReference
  2
G17
 10
0.0
 20
0.0
 30
0.0
  0
INSERT
  5
1FB
330
E1
100
AcDbEntity
  8
0
100
AcDbBlockReference
  2
G18
 10
0.0
 20
0.0
 30
0.0
  0
INSERT
  5
202
330
E1
100
AcDbEntity
  8
0
100
AcDbBlockReference
  2
G19
 10
0.0
 20
0.0
 30
0.0
  0
INSERT
  5
212
330
E1
100
AcDbEntity
  8
0
100
AcDbBlockReference
  2
G20
 10
0.0
 20
0.0
 30
0.0
  0
INSERT
  5
218
330
E1
100
AcDbEntity
  8
0
100
AcDbBlockReference
  2
G21
 10
0.0
 20
0.0
 30
0.0
  0
INSERT
  5
22F
330
E1
100
AcDbEntity
  8
0
100
AcDbBlockReference
  2
G22
 10
0.0
 20
0.0
 30
0.0
  0
INSERT
  5
244
330
E1
100
AcDbEntity
  8
0
100
AcDbBlockReference
  2
G23
 10
0.0
 20
0.0
 30
0.0
  0
INSERT
  5
28D
330
E1
100
AcDbEntity
  8
0
100
AcDbBlockReference
  2
G24
 10
0.0
 20
0.0
 30
0.0
  0
INSERT
  5
293
330
E1
100
AcDbEntity
  8
0
100
AcDbBlockReference
  2
G25
 10
0.0
 20
0.0
 30
0.0
  0
INSERT
  5
2B2
330
E1
100
AcDbEntity
  8
0
100
AcDbBlockReference
  2
G26
 10
0.0
 20
0.0
 30
0.0
  0
INSERT
  5
2C6
330
E1
100
AcDbEntity
  8
0
100
AcDbBlockReference
  2
G27
 10
0.0
 20
0.0
 30
0.0
  0
INSERT
  5
2E8
330
E1
100
AcDbEntity
  8
0
100
AcDbBlockReference
  2
G28
 10
0.0
 20
0.0
 30
0.0
  0
INSERT
  5
2FA
330
E1
100
AcDbEntity
  8
0
100
AcDbBlockReference
  2
G29
 10
0.0
 20
0.0
 30
0.0
  0
INSERT
  5
304
330
E1
100
AcDbEntity
  8
0
100
AcDbBlockReference
  2
G30
 10
0.0
 20
0.0
 30
0.0
  0
INSERT
  5
30A
330
E1
100
AcDbEntity
  8
0
100
AcDbBlockReference
  2
G31
 10
0.0
 20
0.0
 30
0.0
  0
INSERT
  5
311
330
E1
100
AcDbEntity
  8
0
100
AcDbBlockReference
  2
G32
 10
0.0
 20
0.0
 30
0.0
  0
INSERT
  5
318
330
E1
100
AcDbEntity
  8
0
100
AcDbBlockReference
  2
G33
 10
0.0
 20
0.0
 30
0.0
  0
INSERT
  5
33E
330
E1
100
AcDbEntity
  8
0
100
AcDbBlockReference
  2
G34
 10
0.0
 20
0.0
 30
0.0
  0
INSERT
  5
345
330
E1
100
AcDbEntity
  8
0
100
AcDbBlockReference
  2
G35
 10
0.0
 20
0.0
 30
0.0
  0
INSERT
  5
356
330
E1
100
AcDbEntity
  8
0
100
AcDbBlockReference
  2
G36
 10
0.0
 20
0.0
 30
0.0
  0
INSERT
  5
371
330
E1
100
AcDbEntity
  8
0
100
AcDbBlockReference
  2
G37
 10
0.0
 20
0.0
 30
0.0
  0
INSERT
  5
382
330
E1
100
AcDbEntity
  8
0
100
AcDbBlockReference
  2
G38
 10
0.0
 20
0.0
 30
0.0
  0
INSERT
  5
397
330
E1
100
AcDbEntity
  8
0
100
AcDbBlockReference
  2
G39
 10
0.0
 20
0.0
 30
0.0
  0
INSERT
  5
3C4
330
E1
100
AcDbEntity
  8
0
100
AcDbBlockReference
  2
G40
 10
0.0
 20
0.0
 30
0.0
  0
ENDBLK
  5
E3
330
E1
100
AcDbEntity
  8
0
100
AcDbBlockEnd
  0
BLOCK
  5
E5
330
E4
100
AcDbEntity
  8
0
100
AcDbBlockBegin
  2
G2
 70
     0
 10
0.0
 20
0.0
 30
0.0
  3
G2
  1

  0
LINE
  5
E7
330
E4
100
AcDbEntity
  8
100
  6
Continuous
 62
     7
370
    30
100
AcDbLine
 10
87.176361
 20
210.0
 30
0.0
 11
85.399752
 21
209.394802
 31
0.0
  0
LINE
  5
E8
330
E4
100
AcDbEntity
  8
100
  6
Continuous
 62
     7
370
    30
100
AcDbLine
 10
85.399752
 20
209.394802
 30
0.0
 11
84.174505
 21
208.598391
 31
0.0
  0
LINE
  5
E9
330
E4
100
AcDbEntity
  8
100
  6
Continuous
 62
     7
370
    30
100
AcDbLine
 10
84.174505
 20
208.598391
 30
0.0
 11
83.684406
 21
207.80198
 31
0.0
  0
LINE
  5
EA
330
E4
100
AcDbEntity
  8
100
  6
Continuous
 62
     7
370
    30
100
AcDbLine
 10
83.684406
 20
207.80198
 30
0.0
 11
85.828589
 21
207.985767
 31
0.0
  0
LINE
  5
EB
330
E4
100
AcDbEntity
  8
100
  6
Continuous
 62
     7
370
    30
100
AcDbLine
 10
85.828589
 20
207.985767
 30
0.0
 11
87.482673
 21
207.985767
 31
0.0
  0
LINE
  5
EC
330
E4
100
AcDbEntity
  8
100
  6
Continuous
 62
     7
370
    30
100
AcDbLine
 10
87.482673
 20
207.985767
 30
0.0
 11
89.381807
 21
207.863243
 31
0.0
  0
LINE
  5
ED
330
E4
100
AcDbEntity
  8
100
  6
Continuous
 62
     7
370
    30
100
AcDbLine
 10
89.381807
 20
207.863243
 30
0.0
 11
91.035891
 21
207.80198
 31
0.0
  0
LINE
  5
EE
330
E4
100
AcDbEntity
  8
100
  6
Continuous
 62
     7
370
    30
100
AcDbLine
 10
91.035891
 20
207.80198
 30
0.0
 11
90.23948
 21
208.537129
 31
0.0
  0
LINE
  5
EF
330
E4
100
AcDbEntity
  8
100
  6
Continuous
 62
     7
370
    30
100
AcDbLine
 10
90.23948
 20
208.537129
 30
0.0
 11
89.136757
 21
209.33354
 31
0.0
  0
LINE
  5
F0
330
E4
100
AcDbEntity
  8
100
  6
Continuous
 62
     7
370
    30
100
AcDbLine
 10
89.136757
 20
209.33354
 30
0.0
 11
87.91151
 21
210.0
 31
0.0
  0
LINE
  5
F1
330
E4
100
AcDbEntity
  8
100
  6
Continuous
 62
     7
370
    30
100
AcDbLine
 10
87.91151
 20
210.0
 30
0.0
 11
87.176361
 21
210.0
 31
0.0
  0
ENDBLK
  5
E6
330
E4
100
AcDbEntity
  8
0
100
AcDbBlockEnd
  0
BLOCK
  5
F4
330
F3
100
AcDbEntity
  8
0
100
AcDbBlockBegin
  2
G3
 70
     0
 10
0.0
 20
0.0
 30
0.0
  3
G3
  1

  0
LINE
  5
F6
330
F3
100
AcDbEntity
  8
100
  6
Continuous
 62
     7
370
    30
100
AcDbLine
 10
83.684406
 20
207.80198
 30
0.0
 11
81.540223
 21
207.250619
 31
0.0
  0
LINE
  5
F7
330
F3
100
AcDbEntity
  8
100
  6
Continuous
 62
     7
370
    30
100
AcDbLine
 10
81.540223
 20
207.250619
 30
0.0
 11
79.518564
 21
206.270421
 31
0.0
  0
LINE
  5
F8
330
F3
100
AcDbEntity
  8
100
  6
Continuous
 62
     7
370
    30
100
AcDbLine
 10
79.518564
 20
206.270421
 30
0.0
 11
78.905941
 21
205.841584
 31
0.0
  0
LINE
  5
F9
330
F3
100
AcDbEntity
  8
100
  6
Continuous
 62
     7
370
    30
100
AcDbLine
 10
78.905941
 20
205.841584
 30
0.0
 11
78.660891
 21
200.450495
 31
0.0
  0
LINE
  5
FA
330
F3
100
AcDbEntity
  8
100
  6
Continuous
 62
     7
370
    30
100
AcDbLine
 10
78.660891
 20
200.450495
 30
0.0
 11
81.907797
 21
200.756807
 31
0.0
  0
LINE
  5
FB
330
F3
100
AcDbEntity
  8
100
  6
Continuous
 62
     7
370
    30
100
AcDbLine
 10
81.907797
 20
200.756807
 30
0.0
 11
85.154703
 21
201.001856
 31
0.0
  0
LINE
  5
FC
330
F3
100
AcDbEntity
  8
100
  6
Continuous
 62
     7
370
    30
100
AcDbLine
 10
85.154703
 20
201.001856
 30
0.0
 11
88.401609
 21
200.940594
 31
0.0
  0
LINE
  5
FD
330
F3
100
AcDbEntity
  8
100
  6
Continuous
 62
     7
370
    30
100
AcDbLine
 10
88.401609
 20
200.940594
 30
0.0
 11
92.444926
 21
200.818069
 31
0.0
  0
LINE
  5
FE
330
F3
100
AcDbEntity
  8
100
  6
Continuous
 62
     7
370
    30
100
AcDbLine
 10
92.444926
 20
200.818069
 30
0.0
 11
95.691832
 21
200.695545
 31
0.0
  0
LINE
  5
FF
330
F3
100
AcDbEntity
  8
100
  6
Continuous
 62
     7
370
    30
100
AcDbLine
 10
95.691832
 20
200.695545
 30
0.0
 11
96.917079
 21
200.57302
 31
0.0
  0
LINE
  5
100
330
F3
100
AcDbEntity
  8
100
  6
Continuous
 62
     7
370
    30
100
AcDbLine
 10
96.917079
 20
200.57302
 30
0.0
 11
96.855817
 21
204.738861
 31
0.0
  0
LINE
  5
101
330
F3
100
AcDbEntity
  8
100
  6
Continuous
 62
     7
370
    30
100
AcDbLine
 10
96.855817
 20
204.738861
 30
0.0
 11
94.466584
 21
206.51547
 31
0.0
  0
LINE
  5
102
330
F3
100
AcDbEntity
  8
100
  6
Continuous
 62
     7
370
    30
100
AcDbLine
 10
94.466584
 20
206.51547
 30
0.0
 11
91.035891
 21
207.80198
 31
0.0
  0
ENDBLK
  5
F5
330
F3
100
AcDbEntity
  8
0
100
AcDbBlockEnd
  0
BLOCK
  5
105
330
104
100
AcDbEntity
  8
0
100
AcDbBlockBegin
  2
G4
 70
     0
 10
0.0
 20
0.0
 30
0.0
  3
G4
  1

  0
LINE
  5
107
330
104
100
AcDbEntity
  8
100
  6
Continuous
 62
     7
370
    30
100
AcDbLine
 10
88.401609
 20
200.940594
 30
0.0
 11
88.524134
 21
206.821782
 31
0.0
  0
LINE
  5
108
330
104
100
AcDbEntity
  8
100
  6
Continuous
 62
     7
370
    30
100
AcDbLine
 10
88.524134
 20
206.821782
 30
0.0
 11
89.015756
 21
207.886859
 31
0.0
  0
LINE
  5
109
330
104
100
AcDbEntity
  8
100
  6
Continuous
 62
     7
370
    30
100
AcDbLine
 10
89.015756
 20
207.886859
 30
0.0
 11
87.79362
 21
207.965706
 31
0.0
  0
LINE
  5
10A
330
104
100
AcDbEntity
  8
100
  6
Continuous
 62
     7
370
    30
100
AcDbLine
 10
87.79362
 20
207.965706
 30
0.0
 11
88.524134
 21
206.821782
 31
0.0
  0
ENDBLK
  5
106
330
104
100
AcDbEntity
  8
0
100
AcDbBlockEnd
  0
BLOCK
  5
10D
330
10C
100
AcDbEntity
  8
0
100
AcDbBlockBegin
  2
G5
 70
     0
 10
0.0
 20
0.0
 30
0.0
  3
G5
  1

  0
LINE
  5
10F
330
10C
100
AcDbEntity
  8
100
  6
Continuous
 62
     7
370
    30
100
AcDbLine
 10
20.308478
 20
162.774134
 30
0.0
 11
21.778775
 21
177.722153
 31
0.0
  0
LINE
  5
110
330
10C
100
AcDbEntity
  8
100
  6
Continuous
 62
     7
370
    30
100
AcDbLine
 10
21.778775
 20
177.722153
 30
0.0
 11
20.185953
 21
179.314975
 31
0.0
  0
LINE
  5
111
330
10C
100
AcDbEntity
  8
100
  6
Continuous
 62
     7
370
    30
100
AcDbLine
 10
20.185953
 20
179.314975
 30
0.0
 11
17.612933
 21
182.01052
 31
0.0
  0
LINE
  5
112
330
10C
100
AcDbEntity
  8
100
  6
Continuous
 62
     7
370
    30
100
AcDbLine
 10
17.612933
 20
182.01052
 30
0.0
 11
16.020111
 21
184.706064
 31
0.0
  0
LINE
  5
113
330
10C
100
AcDbEntity
  8
100
  6
Continuous
 62
     7
370
    30
100
AcDbLine
 10
16.020111
 20
184.706064
 30
0.0
 11
15.407488
 21
187.156559
 31
0.0
  0
LINE
  5
114
330
10C
100
AcDbEntity
  8
100
  6
Continuous
 62
     7
370
    30
100
AcDbLine
 10
15.407488
 20
187.156559
 30
0.0
 11
15.162438
 21
190.342203
 31
0.0
  0
LINE
  5
115
330
10C
100
AcDbEntity
  8
100
  6
Continuous
 62
     7
370
    30
100
AcDbLine
 10
15.162438
 20
190.342203
 30
0.0
 11
15.897587
 21
193.650371
 31
0.0
  0
LINE
  5
116
330
10C
100
AcDbEntity
  8
100
  6
Continuous
 62
     7
370
    30
100
AcDbLine
 10
15.897587
 20
193.650371
 30
0.0
 11
18.103032
 21
195.733292
 31
0.0
  0
LINE
  5
117
330
10C
100
AcDbEntity
  8
100
  6
Continuous
 62
     7
370
    30
100
AcDbLine
 10
18.103032
 20
195.733292
 30
0.0
 11
21.4112
 21
196.71349
 31
0.0
  0
LINE
  5
118
330
10C
100
AcDbEntity
  8
100
  6
Continuous
 62
     7
370
    30
100
AcDbLine
 10
21.4112
 20
196.71349
 30
0.0
 11
22.391399
 21
196.71349
 31
0.0
  0
LINE
  5
119
330
10C
100
AcDbEntity
  8
100
  6
Continuous
 62
     7
370
    30
100
AcDbLine
 10
22.391399
 20
196.71349
 30
0.0
 11
32.070854
 21
194.38552
 31
0.0
  0
LINE
  5
11A
330
10C
100
AcDbEntity
  8
100
  6
Continuous
 62
     7
370
    30
100
AcDbLine
 10
32.070854
 20
194.38552
 30
0.0
 11
35.501547
 21
193.527847
 31
0.0
  0
LINE
  5
11B
330
10C
100
AcDbEntity
  8
100
  6
Continuous
 62
     7
370
    30
100
AcDbLine
 10
35.501547
 20
193.527847
 30
0.0
 11
37.952042
 21
191.56745
 31
0.0
  0
LINE
  5
11C
330
10C
100
AcDbEntity
  8
100
  6
Continuous
 62
     7
370
    30
100
AcDbLine
 10
37.952042
 20
191.56745
 30
0.0
 11
40.402537
 21
190.832302
 31
0.0
  0
LINE
  5
11D
330
10C
100
AcDbEntity
  8
100
  6
Continuous
 62
     7
370
    30
100
AcDbLine
 10
40.402537
 20
190.832302
 30
0.0
 11
53.757735
 21
193.282797
 31
0.0
  0
LINE
  5
11E
330
10C
100
AcDbEntity
  8
100
  6
Continuous
 62
     7
370
    30
100
AcDbLine
 10
53.757735
 20
193.282797
 30
0.0
 11
55.963181
 21
195.365718
 31
0.0
  0
LINE
  5
11F
330
10C
100
AcDbEntity
  8
100
  6
Continuous
 62
     7
370
    30
100
AcDbLine
 10
55.963181
 20
195.365718
 30
0.0
 11
60.619121
 21
197.571163
 31
0.0
  0
LINE
  5
120
330
10C
100
AcDbEntity
  8
100
  6
Continuous
 62
     7
370
    30
100
AcDbLine
 10
60.619121
 20
197.571163
 30
0.0
 11
65.765161
 21
199.04146
 31
0.0
  0
LINE
  5
121
330
10C
100
AcDbEntity
  8
100
  6
Continuous
 62
     7
370
    30
100
AcDbLine
 10
65.765161
 20
199.04146
 30
0.0
 11
70.666151
 21
199.899134
 31
0.0
  0
LINE
  5
122
330
10C
100
AcDbEntity
  8
100
  6
Continuous
 62
     7
370
    30
100
AcDbLine
 10
70.666151
 20
199.899134
 30
0.0
 11
75.199567
 21
200.511757
 31
0.0
  0
LINE
  5
123
330
10C
100
AcDbEntity
  8
100
  6
Continuous
 62
     7
370
    30
100
AcDbLine
 10
75.199567
 20
200.511757
 30
0.0
 11
78.660891
 21
200.450495
 31
0.0
  0
ENDBLK
  5
10E
330
10C
100
AcDbEntity
  8
0
100
AcDbBlockEnd
  0
BLOCK
  5
126
330
125
100
AcDbEntity
  8
0
100
AcDbBlockBegin
  2
G6
 70
     0
 10
0.0
 20
0.0
 30
0.0
  3
G6
  1

  0
LINE
  5
128
330
125
100
AcDbEntity
  8
100
  6
Continuous
 62
     7
370
    30
100
AcDbLine
 10
96.917079
 20
200.57302
 30
0.0
 11
103.502785
 21
200.144183
 31
0.0
  0
LINE
  5
129
330
125
100
AcDbEntity
  8
100
  6
Continuous
 62
     7
370
    30
100
AcDbLine
 10
103.502785
 20
200.144183
 30
0.0
 11
109.261448
 21
198.551361
 31
0.0
  0
LINE
  5
12A
330
125
100
AcDbEntity
  8
100
  6
Continuous
 62
     7
370
    30
100
AcDbLine
 10
109.261448
 20
198.551361
 30
0.0
 11
115.51021
 21
196.223391
 31
0.0
  0
LINE
  5
12B
330
125
100
AcDbEntity
  8
100
  6
Continuous
 62
     7
370
    30
100
AcDbLine
 10
115.51021
 20
196.223391
 30
0.0
 11
120.4112
 21
193.895421
 31
0.0
  0
LINE
  5
12C
330
125
100
AcDbEntity
  8
100
  6
Continuous
 62
     7
370
    30
100
AcDbLine
 10
120.4112
 20
193.895421
 30
0.0
 11
121.636448
 21
192.670173
 31
0.0
  0
LINE
  5
12D
330
125
100
AcDbEntity
  8
100
  6
Continuous
 62
     7
370
    30
100
AcDbLine
 10
121.636448
 20
192.670173
 30
0.0
 11
125.189666
 21
175.149134
 31
0.0
  0
ENDBLK
  5
127
330
125
100
AcDbEntity
  8
0
100
AcDbBlockEnd
  0
BLOCK
  5
130
330
12F
100
AcDbEntity
  8
0
100
AcDbBlockBegin
  2
G7
 70
     0
 10
0.0
 20
0.0
 30
0.0
  3
G7
  1

  0
LINE
  5
132
330
12F
100
AcDbEntity
  8
100
  6
Continuous
 62
     7
370
    30
100
AcDbLine
 10
25.577042
 20
178.824876
 30
0.0
 11
25.086943
 21
165.102104
 31
0.0
  0
LINE
  5
133
330
12F
100
AcDbEntity
  8
100
  6
Continuous
 62
     7
370
    30
100
AcDbLine
 10
25.086943
 20
165.102104
 30
0.0
 11
20.365028
 21
163.349058
 31
0.0
  0
LINE
  5
134
330
12F
100
AcDbEntity
  8
100
  6
Continuous
 62
     7
370
    30
100
AcDbLine
 10
20.365028
 20
163.349058
 30
0.0
 11
15.591275
 21
161.671411
 31
0.0
  0
LINE
  5
135
330
12F
100
AcDbEntity
  8
100
  6
Continuous
 62
     7
370
    30
100
AcDbLine
 10
15.591275
 20
161.671411
 30
0.0
 11
10.812809
 21
159.343441
 31
0.0
  0
LINE
  5
136
330
12F
100
AcDbEntity
  8
100
  6
Continuous
 62
     7
370
    30
100
AcDbLine
 10
10.812809
 20
159.343441
 30
0.0
 11
6.279394
 21
156.647896
 31
0.0
  0
LINE
  5
137
330
12F
100
AcDbEntity
  8
100
  6
Continuous
 62
     7
370
    30
100
AcDbLine
 10
6.279394
 20
156.647896
 30
0.0
 11
2.481126
 21
153.339728
 31
0.0
  0
LINE
  5
138
330
12F
100
AcDbEntity
  8
100
  6
Continuous
 62
     7
370
    30
100
AcDbLine
 10
2.481126
 20
153.339728
 30
0.0
 11
1.868502
 21
151.011757
 31
0.0
  0
LINE
  5
139
330
12F
100
AcDbEntity
  8
100
  6
Continuous
 62
     7
370
    30
100
AcDbLine
 10
1.868502
 20
151.011757
 30
0.0
 11
2.236077
 21
149.173886
 31
0.0
  0
LINE
  5
13A
330
12F
100
AcDbEntity
  8
100
  6
Continuous
 62
     7
370
    30
100
AcDbLine
 10
2.236077
 20
149.173886
 30
0.0
 11
4.073948
 21
145.988243
 31
0.0
  0
LINE
  5
13B
330
12F
100
AcDbEntity
  8
100
  6
Continuous
 62
     7
370
    30
100
AcDbLine
 10
4.073948
 20
145.988243
 30
0.0
 11
7.014542
 21
143.047649
 31
0.0
  0
LINE
  5
13C
330
12F
100
AcDbEntity
  8
100
  6
Continuous
 62
     7
370
    30
100
AcDbLine
 10
7.014542
 20
143.047649
 30
0.0
 11
10.32271
 21
141.699876
 31
0.0
  0
LINE
  5
13D
330
12F
100
AcDbEntity
  8
100
  6
Continuous
 62
     7
370
    30
100
AcDbLine
 10
10.32271
 20
141.699876
 30
0.0
 11
15.836324
 21
139.126856
 31
0.0
  0
LINE
  5
13E
330
12F
100
AcDbEntity
  8
100
  6
Continuous
 62
     7
370
    30
100
AcDbLine
 10
15.836324
 20
139.126856
 30
0.0
 11
19.879641
 21
137.41151
 31
0.0
  0
LINE
  5
13F
330
12F
100
AcDbEntity
  8
100
  6
Continuous
 62
     7
370
    30
100
AcDbLine
 10
19.879641
 20
137.41151
 30
0.0
 11
26.128403
 21
136.063738
 31
0.0
  0
LINE
  5
140
330
12F
100
AcDbEntity
  8
100
  6
Continuous
 62
     7
370
    30
100
AcDbLine
 10
26.128403
 20
136.063738
 30
0.0
 11
36.788057
 21
133.245668
 31
0.0
  0
ENDBLK
  5
131
330
12F
100
AcDbEntity
  8
0
100
AcDbBlockEnd
  0
BLOCK
  5
143
330
142
100
AcDbEntity
  8
0
100
AcDbBlockBegin
  2
G8
 70
     0
 10
0.0
 20
0.0
 30
0.0
  3
G8
  1

  0
LINE
  5
145
330
142
100
AcDbEntity
  8
100
  6
Continuous
 62
     7
370
    30
100
AcDbLine
 10
25.331993
 20
179.927599
 30
0.0
 11
20.063428
 21
184.58354
 31
0.0
  0
LINE
  5
146
330
142
100
AcDbEntity
  8
100
  6
Continuous
 62
     7
370
    30
100
AcDbLine
 10
20.063428
 20
184.58354
 30
0.0
 11
19.32828
 21
185.563738
 31
0.0
  0
LINE
  5
147
330
142
100
AcDbEntity
  8
100
  6
Continuous
 62
     7
370
    30
100
AcDbLine
 10
19.32828
 20
185.563738
 30
0.0
 11
19.08323
 21
188.994431
 31
0.0
  0
LINE
  5
148
330
142
100
AcDbEntity
  8
100
  6
Continuous
 62
     7
370
    30
100
AcDbLine
 10
19.08323
 20
188.994431
 30
0.0
 11
19.32828
 21
192.915223
 31
0.0
  0
LINE
  5
149
330
142
100
AcDbEntity
  8
100
  6
Continuous
 62
     7
370
    30
100
AcDbLine
 10
19.32828
 20
192.915223
 30
0.0
 11
20.063428
 21
194.875619
 31
0.0
  0
LINE
  5
14A
330
142
100
AcDbEntity
  8
100
  6
Continuous
 62
     7
370
    30
100
AcDbLine
 10
20.063428
 20
194.875619
 30
0.0
 11
21.349938
 21
195.855817
 31
0.0
  0
ENDBLK
  5
144
330
142
100
AcDbEntity
  8
0
100
AcDbBlockEnd
  0
BLOCK
  5
14D
330
14C
100
AcDbEntity
  8
0
100
AcDbBlockBegin
  2
G9
 70
     0
 10
0.0
 20
0.0
 30
0.0
  3
G9
  1

  0
LINE
  5
14F
330
14C
100
AcDbEntity
  8
100
  6
Continuous
 62
     7
370
    30
100
AcDbLine
 10
23.769802
 20
195.488243
 30
0.0
 11
22.789604
 21
195.1513
 31
0.0
  0
LINE
  5
150
330
14C
100
AcDbEntity
  8
100
  6
Continuous
 62
     7
370
    30
100
AcDbLine
 10
22.789604
 20
195.1513
 30
0.0
 11
22.299505
 21
194.324257
 31
0.0
  0
LINE
  5
151
330
14C
100
AcDbEntity
  8
100
  6
Continuous
 62
     7
370
    30
100
AcDbLine
 10
22.299505
 20
194.324257
 30
0.0
 11
22.299505
 21
193.160272
 31
0.0
  0
LINE
  5
152
330
14C
100
AcDbEntity
  8
100
  6
Continuous
 62
     7
370
    30
100
AcDbLine
 10
22.299505
 20
193.160272
 30
0.0
 11
22.42203
 21
192.210705
 31
0.0
  0
LINE
  5
153
330
14C
100
AcDbEntity
  8
100
  6
Continuous
 62
     7
370
    30
100
AcDbLine
 10
22.42203
 20
192.210705
 30
0.0
 11
23.126547
 21
191.353032
 31
0.0
  0
LINE
  5
154
330
14C
100
AcDbEntity
  8
100
  6
Continuous
 62
     7
370
    30
100
AcDbLine
 10
23.126547
 20
191.353032
 30
0.0
 11
23.953589
 21
191.261139
 31
0.0
  0
LINE
  5
155
330
14C
100
AcDbEntity
  8
100
  6
Continuous
 62
     7
370
    30
100
AcDbLine
 10
23.953589
 20
191.261139
 30
0.0
 11
25.056312
 21
191.444926
 31
0.0
  0
LINE
  5
156
330
14C
100
AcDbEntity
  8
100
  6
Continuous
 62
     7
370
    30
100
AcDbLine
 10
25.056312
 20
191.444926
 30
0.0
 11
25.607673
 21
192.210705
 31
0.0
  0
LINE
  5
157
330
14C
100
AcDbEntity
  8
100
  6
Continuous
 62
     7
370
    30
100
AcDbLine
 10
25.607673
 20
192.210705
 30
0.0
 11
25.668936
 21
193.497215
 31
0.0
  0
LINE
  5
158
330
14C
100
AcDbEntity
  8
100
  6
Continuous
 62
     7
370
    30
100
AcDbLine
 10
25.668936
 20
193.497215
 30
0.0
 11
25.240099
 21
194.569307
 31
0.0
  0
LINE
  5
159
330
14C
100
AcDbEntity
  8
100
  6
Continuous
 62
     7
370
    30
100
AcDbLine
 10
25.240099
 20
194.569307
 30
0.0
 11
24.872525
 21
195.120668
 31
0.0
  0
LINE
  5
15A
330
14C
100
AcDbEntity
  8
100
  6
Continuous
 62
     7
370
    30
100
AcDbLine
 10
24.872525
 20
195.120668
 30
0.0
 11
23.769802
 21
195.488243
 31
0.0
  0
ENDBLK
  5
14E
330
14C
100
AcDbEntity
  8
0
100
AcDbBlockEnd
  0
BLOCK
  5
15D
330
15C
100
AcDbEntity
  8
0
100
AcDbBlockBegin
  2
G10
 70
     0
 10
0.0
 20
0.0
 30
0.0
  3
G10
  1

  0
LINE
  5
15F
330
15C
100
AcDbEntity
  8
100
  6
Continuous
 62
     7
370
    30
100
AcDbLine
 10
23.769802
 20
195.488243
 30
0.0
 11
24.566213
 21
194.783725
 31
0.0
  0
LINE
  5
160
330
15C
100
AcDbEntity
  8
100
  6
Continuous
 62
     7
370
    30
100
AcDbLine
 10
24.566213
 20
194.783725
 30
0.0
 11
24.780631
 21
193.803527
 31
0.0
  0
LINE
  5
161
330
15C
100
AcDbEntity
  8
100
  6
Continuous
 62
     7
370
    30
100
AcDbLine
 10
24.780631
 20
193.803527
 30
0.0
 11
24.841894
 21
192.700804
 31
0.0
  0
LINE
  5
162
330
15C
100
AcDbEntity
  8
100
  6
Continuous
 62
     7
370
    30
100
AcDbLine
 10
24.841894
 20
192.700804
 30
0.0
 11
24.566213
 21
191.628713
 31
0.0
  0
LINE
  5
163
330
15C
100
AcDbEntity
  8
100
  6
Continuous
 62
     7
370
    30
100
AcDbLine
 10
24.566213
 20
191.628713
 30
0.0
 11
24.301294
 21
191.31909
 31
0.0
  0
ENDBLK
  5
15E
330
15C
100
AcDbEntity
  8
0
100
AcDbBlockEnd
  0
BLOCK
  5
166
330
165
100
AcDbEntity
  8
0
100
AcDbBlockBegin
  2
G11
 70
     0
 10
0.0
 20
0.0
 30
0.0
  3
G11
  1

  0
LINE
  5
168
330
165
100
AcDbEntity
  8
100
  6
Continuous
 62
     7
370
    30
100
AcDbLine
 10
34.582611
 20
183.113243
 30
0.0
 11
32.377166
 21
181.704208
 31
0.0
  0
LINE
  5
169
330
165
100
AcDbEntity
  8
100
  6
Continuous
 62
     7
370
    30
100
AcDbLine
 10
32.377166
 20
181.704208
 30
0.0
 11
30.723082
 21
179.131188
 31
0.0
  0
LINE
  5
16A
330
165
100
AcDbEntity
  8
100
  6
Continuous
 62
     7
370
    30
100
AcDbLine
 10
30.723082
 20
179.131188
 30
0.0
 11
29.865408
 21
175.884282
 31
0.0
  0
LINE
  5
16B
330
165
100
AcDbEntity
  8
100
  6
Continuous
 62
     7
370
    30
100
AcDbLine
 10
29.865408
 20
175.884282
 30
0.0
 11
29.681621
 21
172.698639
 31
0.0
  0
LINE
  5
16C
330
165
100
AcDbEntity
  8
100
  6
Continuous
 62
     7
370
    30
100
AcDbLine
 10
29.681621
 20
172.698639
 30
0.0
 11
29.926671
 21
170.064356
 31
0.0
  0
LINE
  5
16D
330
165
100
AcDbEntity
  8
100
  6
Continuous
 62
     7
370
    30
100
AcDbLine
 10
29.926671
 20
170.064356
 30
0.0
 11
31.151918
 21
168.10396
 31
0.0
  0
LINE
  5
16E
330
165
100
AcDbEntity
  8
100
  6
Continuous
 62
     7
370
    30
100
AcDbLine
 10
31.151918
 20
168.10396
 30
0.0
 11
31.580755
 21
167.613861
 31
0.0
  0
ENDBLK
  5
167
330
165
100
AcDbEntity
  8
0
100
AcDbBlockEnd
  0
BLOCK
  5
171
330
170
100
AcDbEntity
  8
0
100
AcDbBlockBegin
  2
G12
 70
     0
 10
0.0
 20
0.0
 30
0.0
  3
G12
  1

  0
LINE
  5
173
330
170
100
AcDbEntity
  8
100
  6
Continuous
 62
     7
370
    30
100
AcDbLine
 10
37.339418
 20
182.806931
 30
0.0
 11
38.197092
 21
180.356436
 31
0.0
  0
LINE
  5
174
330
170
100
AcDbEntity
  8
100
  6
Continuous
 62
     7
370
    30
100
AcDbLine
 10
38.197092
 20
180.356436
 30
0.0
 11
38.258354
 21
179.131188
 31
0.0
  0
LINE
  5
175
330
170
100
AcDbEntity
  8
100
  6
Continuous
 62
     7
370
    30
100
AcDbLine
 10
38.258354
 20
179.131188
 30
0.0
 11
40.4638
 21
181.887995
 31
0.0
  0
LINE
  5
176
330
170
100
AcDbEntity
  8
100
  6
Continuous
 62
     7
370
    30
100
AcDbLine
 10
40.4638
 20
181.887995
 30
0.0
 11
37.339418
 21
182.806931
 31
0.0
  0
ENDBLK
  5
172
330
170
100
AcDbEntity
  8
0
100
AcDbBlockEnd
  0
BLOCK
  5
179
330
178
100
AcDbEntity
  8
0
100
AcDbBlockBegin
  2
G13
 70
     0
 10
0.0
 20
0.0
 30
0.0
  3
G13
  1

  0
LINE
  5
17B
330
178
100
AcDbEntity
  8
100
  6
Continuous
 62
     7
370
    30
100
AcDbLine
 10
35.501547
 20
181.275371
 30
0.0
 11
33.724938
 21
179.376238
 31
0.0
  0
LINE
  5
17C
330
178
100
AcDbEntity
  8
100
  6
Continuous
 62
     7
370
    30
100
AcDbLine
 10
33.724938
 20
179.376238
 30
0.0
 11
33.051052
 21
177.415842
 31
0.0
  0
LINE
  5
17D
330
178
100
AcDbEntity
  8
100
  6
Continuous
 62
     7
370
    30
100
AcDbLine
 10
33.051052
 20
177.415842
 30
0.0
 11
32.193379
 21
174.29146
 31
0.0
  0
LINE
  5
17E
330
178
100
AcDbEntity
  8
100
  6
Continuous
 62
     7
370
    30
100
AcDbLine
 10
32.193379
 20
174.29146
 30
0.0
 11
32.254641
 21
171.289604
 31
0.0
  0
LINE
  5
17F
330
178
100
AcDbEntity
  8
100
  6
Continuous
 62
     7
370
    30
100
AcDbLine
 10
32.254641
 20
171.289604
 30
0.0
 11
32.622215
 21
169.63552
 31
0.0
  0
LINE
  5
180
330
178
100
AcDbEntity
  8
100
  6
Continuous
 62
     7
370
    30
100
AcDbLine
 10
32.622215
 20
169.63552
 30
0.0
 11
33.112314
 21
168.961634
 31
0.0
  0
ENDBLK
  5
17A
330
178
100
AcDbEntity
  8
0
100
AcDbBlockEnd
  0
BLOCK
  5
183
330
182
100
AcDbEntity
  8
0
100
AcDbBlockBegin
  2
G14
 70
     0
 10
0.0
 20
0.0
 30
0.0
  3
G14
  1

  0
LINE
  5
185
330
182
100
AcDbEntity
  8
100
  6
Continuous
 62
     7
370
    30
100
AcDbLine
 10
38.258354
 20
179.131188
 30
0.0
 11
37.829517
 21
171.595916
 31
0.0
  0
LINE
  5
186
330
182
100
AcDbEntity
  8
100
  6
Continuous
 62
     7
370
    30
100
AcDbLine
 10
37.829517
 20
171.595916
 30
0.0
 11
36.114171
 21
170.799505
 31
0.0
  0
LINE
  5
187
330
182
100
AcDbEntity
  8
100
  6
Continuous
 62
     7
370
    30
100
AcDbLine
 10
36.114171
 20
170.799505
 30
0.0
 11
29.715496
 21
166.034474
 31
0.0
  0
ENDBLK
  5
184
330
182
100
AcDbEntity
  8
0
100
AcDbBlockEnd
  0
BLOCK
  5
18A
330
189
100
AcDbEntity
  8
0
100
AcDbBlockBegin
  2
G15
 70
     0
 10
0.0
 20
0.0
 30
0.0
  3
G15
  1

  0
LINE
  5
18C
330
189
100
AcDbEntity
  8
100
  6
Continuous
 62
     7
370
    30
100
AcDbLine
 10
25.086943
 20
165.102104
 30
0.0
 11
33.602413
 21
166.81745
 31
0.0
  0
LINE
  5
18D
330
189
100
AcDbEntity
  8
100
  6
Continuous
 62
     7
370
    30
100
AcDbLine
 10
33.602413
 20
166.81745
 30
0.0
 11
43.588181
 21
168.900371
 31
0.0
  0
LINE
  5
18E
330
189
100
AcDbEntity
  8
100
  6
Continuous
 62
     7
370
    30
100
AcDbLine
 10
43.588181
 20
168.900371
 30
0.0
 11
50.817141
 21
170.064356
 31
0.0
  0
LINE
  5
18F
330
189
100
AcDbEntity
  8
100
  6
Continuous
 62
     7
370
    30
100
AcDbLine
 10
50.817141
 20
170.064356
 30
0.0
 11
57.004641
 21
170.738243
 31
0.0
  0
LINE
  5
190
330
189
100
AcDbEntity
  8
100
  6
Continuous
 62
     7
370
    30
100
AcDbLine
 10
57.004641
 20
170.738243
 30
0.0
 11
69.379641
 21
172.024752
 31
0.0
  0
LINE
  5
191
330
189
100
AcDbEntity
  8
100
  6
Continuous
 62
     7
370
    30
100
AcDbLine
 10
69.379641
 20
172.024752
 30
0.0
 11
76.424814
 21
172.576114
 31
0.0
  0
LINE
  5
192
330
189
100
AcDbEntity
  8
100
  6
Continuous
 62
     7
370
    30
100
AcDbLine
 10
76.424814
 20
172.576114
 30
0.0
 11
82.428527
 21
173.00495
 31
0.0
  0
LINE
  5
193
330
189
100
AcDbEntity
  8
100
  6
Continuous
 62
     7
370
    30
100
AcDbLine
 10
82.428527
 20
173.00495
 30
0.0
 11
97.682859
 21
173.801361
 31
0.0
  0
LINE
  5
194
330
189
100
AcDbEntity
  8
100
  6
Continuous
 62
     7
370
    30
100
AcDbLine
 10
97.682859
 20
173.801361
 30
0.0
 11
106.075804
 21
174.29146
 31
0.0
  0
LINE
  5
195
330
189
100
AcDbEntity
  8
100
  6
Continuous
 62
     7
370
    30
100
AcDbLine
 10
106.075804
 20
174.29146
 30
0.0
 11
126.414913
 21
174.475248
 31
0.0
  0
LINE
  5
196
330
189
100
AcDbEntity
  8
100
  6
Continuous
 62
     7
370
    30
100
AcDbLine
 10
126.414913
 20
174.475248
 30
0.0
 11
139.280012
 21
174.352723
 31
0.0
  0
LINE
  5
197
330
189
100
AcDbEntity
  8
100
  6
Continuous
 62
     7
370
    30
100
AcDbLine
 10
139.280012
 20
174.352723
 30
0.0
 11
154.718131
 21
173.00495
 31
0.0
  0
LINE
  5
198
330
189
100
AcDbEntity
  8
100
  6
Continuous
 62
     7
370
    30
100
AcDbLine
 10
154.718131
 20
173.00495
 30
0.0
 11
173.954517
 21
170.67698
 31
0.0
  0
LINE
  5
199
330
189
100
AcDbEntity
  8
100
  6
Continuous
 62
     7
370
    30
100
AcDbLine
 10
173.954517
 20
170.67698
 30
0.0
 11
189.882735
 21
167.491337
 31
0.0
  0
LINE
  5
19A
330
189
100
AcDbEntity
  8
100
  6
Continuous
 62
     7
370
    30
100
AcDbLine
 10
189.882735
 20
167.491337
 30
0.0
 11
205.443379
 21
162.957921
 31
0.0
  0
LINE
  5
19B
330
189
100
AcDbEntity
  8
100
  6
Continuous
 62
     7
370
    30
100
AcDbLine
 10
205.443379
 20
162.957921
 30
0.0
 11
211.324567
 21
160.017327
 31
0.0
  0
LINE
  5
19C
330
189
100
AcDbEntity
  8
100
  6
Continuous
 62
     7
370
    30
100
AcDbLine
 10
211.324567
 20
160.017327
 30
0.0
 11
216.103032
 21
156.709158
 31
0.0
  0
LINE
  5
19D
330
189
100
AcDbEntity
  8
100
  6
Continuous
 62
     7
370
    30
100
AcDbLine
 10
216.103032
 20
156.709158
 30
0.0
 11
218.676052
 21
152.910891
 31
0.0
  0
LINE
  5
19E
330
189
100
AcDbEntity
  8
100
  6
Continuous
 62
     7
370
    30
100
AcDbLine
 10
218.676052
 20
152.910891
 30
0.0
 11
219.533725
 21
151.501856
 31
0.0
  0
LINE
  5
19F
330
189
100
AcDbEntity
  8
100
  6
Continuous
 62
     7
370
    30
100
AcDbLine
 10
219.533725
 20
151.501856
 30
0.0
 11
220.207611
 21
149.847772
 31
0.0
  0
LINE
  5
1A0
330
189
100
AcDbEntity
  8
100
  6
Continuous
 62
     7
370
    30
100
AcDbLine
 10
220.207611
 20
149.847772
 30
0.0
 11
220.391399
 21
148.009901
 31
0.0
  0
LINE
  5
1A1
330
189
100
AcDbEntity
  8
100
  6
Continuous
 62
     7
370
    30
100
AcDbLine
 10
220.391399
 20
148.009901
 30
0.0
 11
219.778775
 21
146.417079
 31
0.0
  0
LINE
  5
1A2
330
189
100
AcDbEntity
  8
100
  6
Continuous
 62
     7
370
    30
100
AcDbLine
 10
219.778775
 20
146.417079
 30
0.0
 11
218.185953
 21
144.334158
 31
0.0
  0
LINE
  5
1A3
330
189
100
AcDbEntity
  8
100
  6
Continuous
 62
     7
370
    30
100
AcDbLine
 10
218.185953
 20
144.334158
 30
0.0
 11
216.164295
 21
142.251238
 31
0.0
  0
LINE
  5
1A4
330
189
100
AcDbEntity
  8
100
  6
Continuous
 62
     7
370
    30
100
AcDbLine
 10
216.164295
 20
142.251238
 30
0.0
 11
211.875928
 21
139.862005
 31
0.0
  0
LINE
  5
1A5
330
189
100
AcDbEntity
  8
100
  6
Continuous
 62
     7
370
    30
100
AcDbLine
 10
211.875928
 20
139.862005
 30
0.0
 11
208.016399
 21
138.514233
 31
0.0
  0
LINE
  5
1A6
330
189
100
AcDbEntity
  8
100
  6
Continuous
 62
     7
370
    30
100
AcDbLine
 10
208.016399
 20
138.514233
 30
0.0
 11
200.297339
 21
135.757426
 31
0.0
  0
LINE
  5
1A7
330
189
100
AcDbEntity
  8
100
  6
Continuous
 62
     7
370
    30
100
AcDbLine
 10
200.297339
 20
135.757426
 30
0.0
 11
190.740408
 21
133.429455
 31
0.0
  0
LINE
  5
1A8
330
189
100
AcDbEntity
  8
100
  6
Continuous
 62
     7
370
    30
100
AcDbLine
 10
190.740408
 20
133.429455
 30
0.0
 11
180.938428
 21
131.469059
 31
0.0
  0
LINE
  5
1A9
330
189
100
AcDbEntity
  8
100
  6
Continuous
 62
     7
370
    30
100
AcDbLine
 10
180.938428
 20
131.469059
 30
0.0
 11
171.871597
 21
130.733911
 31
0.0
  0
LINE
  5
1AA
330
189
100
AcDbEntity
  8
100
  6
Continuous
 62
     7
370
    30
100
AcDbLine
 10
171.871597
 20
130.733911
 30
0.0
 11
158.271349
 21
129.631188
 31
0.0
  0
LINE
  5
1AB
330
189
100
AcDbEntity
  8
100
  6
Continuous
 62
     7
370
    30
100
AcDbLine
 10
158.271349
 20
129.631188
 30
0.0
 11
149.204517
 21
129.141089
 31
0.0
  0
LINE
  5
1AC
330
189
100
AcDbEntity
  8
100
  6
Continuous
 62
     7
370
    30
100
AcDbLine
 10
149.204517
 20
129.141089
 30
0.0
 11
139.034963
 21
128.528465
 31
0.0
  0
LINE
  5
1AD
330
189
100
AcDbEntity
  8
100
  6
Continuous
 62
     7
370
    30
100
AcDbLine
 10
139.034963
 20
128.528465
 30
0.0
 11
139.371906
 21
103.732519
 31
0.0
  0
LINE
  5
1AE
330
189
100
AcDbEntity
  8
100
  6
Continuous
 62
     7
370
    30
100
AcDbLine
 10
139.371906
 20
103.732519
 30
0.0
 11
141.332302
 21
102.568533
 31
0.0
  0
LINE
  5
1AF
330
189
100
AcDbEntity
  8
100
  6
Continuous
 62
     7
370
    30
100
AcDbLine
 10
141.332302
 20
102.568533
 30
0.0
 11
141.883663
 21
101.220761
 31
0.0
  0
LINE
  5
1B0
330
189
100
AcDbEntity
  8
100
  6
Continuous
 62
     7
370
    30
100
AcDbLine
 10
141.883663
 20
101.220761
 30
0.0
 11
141.454827
 21
99.995514
 31
0.0
  0
LINE
  5
1B1
330
189
100
AcDbEntity
  8
100
  6
Continuous
 62
     7
370
    30
100
AcDbLine
 10
141.454827
 20
99.995514
 30
0.0
 11
140.168317
 21
99.444152
 31
0.0
  0
LINE
  5
1B2
330
189
100
AcDbEntity
  8
100
  6
Continuous
 62
     7
370
    30
100
AcDbLine
 10
140.168317
 20
99.444152
 30
0.0
 11
139.616955
 21
99.38289
 31
0.0
  0
LINE
  5
1B3
330
189
100
AcDbEntity
  8
100
  6
Continuous
 62
     7
370
    30
100
AcDbLine
 10
139.616955
 20
99.38289
 30
0.0
 11
139.678218
 21
101.343286
 31
0.0
  0
LINE
  5
1B4
330
189
100
AcDbEntity
  8
100
  6
Continuous
 62
     7
370
    30
100
AcDbLine
 10
139.678218
 20
101.343286
 30
0.0
 11
138.759282
 21
101.772123
 31
0.0
  0
LINE
  5
1B5
330
189
100
AcDbEntity
  8
100
  6
Continuous
 62
     7
370
    30
100
AcDbLine
 10
138.759282
 20
101.772123
 30
0.0
 11
137.227723
 21
101.772123
 31
0.0
  0
LINE
  5
1B6
330
189
100
AcDbEntity
  8
100
  6
Continuous
 62
     7
370
    30
100
AcDbLine
 10
137.227723
 20
101.772123
 30
0.0
 11
136.615099
 21
101.159499
 31
0.0
  0
LINE
  5
1B7
330
189
100
AcDbEntity
  8
100
  6
Continuous
 62
     7
370
    30
100
AcDbLine
 10
136.615099
 20
101.159499
 30
0.0
 11
134.83849
 21
100.975712
 31
0.0
  0
LINE
  5
1B8
330
189
100
AcDbEntity
  8
100
  6
Continuous
 62
     7
370
    30
100
AcDbLine
 10
134.83849
 20
100.975712
 30
0.0
 11
134.83849
 21
99.566677
 31
0.0
  0
LINE
  5
1B9
330
189
100
AcDbEntity
  8
100
  6
Continuous
 62
     7
370
    30
100
AcDbLine
 10
134.83849
 20
99.566677
 30
0.0
 11
134.225866
 21
98.709004
 31
0.0
  0
LINE
  5
1BA
330
189
100
AcDbEntity
  8
100
  6
Continuous
 62
     7
370
    30
100
AcDbLine
 10
134.225866
 20
98.709004
 30
0.0
 11
134.348391
 21
97.116182
 31
0.0
  0
LINE
  5
1BB
330
189
100
AcDbEntity
  8
100
  6
Continuous
 62
     7
370
    30
100
AcDbLine
 10
134.348391
 20
97.116182
 30
0.0
 11
135.634901
 21
95.890934
 31
0.0
  0
LINE
  5
1BC
330
189
100
AcDbEntity
  8
100
  6
Continuous
 62
     7
370
    30
100
AcDbLine
 10
135.634901
 20
95.890934
 30
0.0
 11
136.247525
 21
64.157024
 31
0.0
  0
LINE
  5
1BD
330
189
100
AcDbEntity
  8
100
  6
Continuous
 62
     7
370
    30
100
AcDbLine
 10
136.247525
 20
64.157024
 30
0.0
 11
136.247525
 21
58.64341
 31
0.0
  0
LINE
  5
1BE
330
189
100
AcDbEntity
  8
100
  6
Continuous
 62
     7
370
    30
100
AcDbLine
 10
136.247525
 20
58.64341
 30
0.0
 11
135.389851
 21
56.683014
 31
0.0
  0
LINE
  5
1BF
330
189
100
AcDbEntity
  8
100
  6
Continuous
 62
     7
370
    30
100
AcDbLine
 10
135.389851
 20
56.683014
 30
0.0
 11
135.389851
 21
54.845142
 31
0.0
  0
LINE
  5
1C0
330
189
100
AcDbEntity
  8
100
  6
Continuous
 62
     7
370
    30
100
AcDbLine
 10
135.389851
 20
54.845142
 30
0.0
 11
131.959158
 21
54.967667
 31
0.0
  0
LINE
  5
1C1
330
189
100
AcDbEntity
  8
100
  6
Continuous
 62
     7
370
    30
100
AcDbLine
 10
131.959158
 20
54.967667
 30
0.0
 11
132.326733
 21
95.645885
 31
0.0
  0
LINE
  5
1C2
330
189
100
AcDbEntity
  8
100
  6
Continuous
 62
     7
370
    30
100
AcDbLine
 10
132.326733
 20
95.645885
 30
0.0
 11
134.348391
 21
97.116182
 31
0.0
  0
ENDBLK
  5
18B
330
189
100
AcDbEntity
  8
0
100
AcDbBlockEnd
  0
BLOCK
  5
1C5
330
1C4
100
AcDbEntity
  8
0
100
AcDbBlockBegin
  2
G16
 70
     0
 10
0.0
 20
0.0
 30
0.0
  3
G16
  1

  0
LINE
  5
1C7
330
1C4
100
AcDbEntity
  8
100
  6
Continuous
 62
     7
370
    30
100
AcDbLine
 10
37.829517
 20
171.595916
 30
0.0
 11
45.303527
 21
173.985149
 31
0.0
  0
LINE
  5
1C8
330
1C4
100
AcDbEntity
  8
100
  6
Continuous
 62
     7
370
    30
100
AcDbLine
 10
45.303527
 20
173.985149
 30
0.0
 11
50.939666
 21
175.639233
 31
0.0
  0
LINE
  5
1C9
330
1C4
100
AcDbEntity
  8
100
  6
Continuous
 62
     7
370
    30
100
AcDbLine
 10
50.939666
 20
175.639233
 30
0.0
 11
61.231745
 21
176.803218
 31
0.0
  0
LINE
  5
1CA
330
1C4
100
AcDbEntity
  8
100
  6
Continuous
 62
     7
370
    30
100
AcDbLine
 10
61.231745
 20
176.803218
 30
0.0
 11
70.298577
 21
177.415842
 31
0.0
  0
LINE
  5
1CB
330
1C4
100
AcDbEntity
  8
100
  6
Continuous
 62
     7
370
    30
100
AcDbLine
 10
70.298577
 20
177.415842
 30
0.0
 11
81.570854
 21
178.028465
 31
0.0
  0
LINE
  5
1CC
330
1C4
100
AcDbEntity
  8
100
  6
Continuous
 62
     7
370
    30
100
AcDbLine
 10
81.570854
 20
178.028465
 30
0.0
 11
94.803527
 21
177.783416
 31
0.0
  0
LINE
  5
1CD
330
1C4
100
AcDbEntity
  8
100
  6
Continuous
 62
     7
370
    30
100
AcDbLine
 10
94.803527
 20
177.783416
 30
0.0
 11
104.115408
 21
177.538366
 31
0.0
  0
LINE
  5
1CE
330
1C4
100
AcDbEntity
  8
100
  6
Continuous
 62
     7
370
    30
100
AcDbLine
 10
104.115408
 20
177.538366
 30
0.0
 11
113.304765
 21
176.068069
 31
0.0
  0
LINE
  5
1CF
330
1C4
100
AcDbEntity
  8
100
  6
Continuous
 62
     7
370
    30
100
AcDbLine
 10
113.304765
 20
176.068069
 30
0.0
 11
120.905071
 21
174.42546
 31
0.0
  0
ENDBLK
  5
1C6
330
1C4
100
AcDbEntity
  8
0
100
AcDbBlockEnd
  0
BLOCK
  5
1D2
330
1D1
100
AcDbEntity
  8
0
100
AcDbBlockBegin
  2
G17
 70
     0
 10
0.0
 20
0.0
 30
0.0
  3
G17
  1

  0
LINE
  5
1D4
330
1D1
100
AcDbEntity
  8
100
  6
Continuous
 62
     7
370
    30
100
AcDbLine
 10
20.308478
 20
140.045792
 30
0.0
 11
14.42729
 21
142.251238
 31
0.0
  0
LINE
  5
1D5
330
1D1
100
AcDbEntity
  8
100
  6
Continuous
 62
     7
370
    30
100
AcDbLine
 10
14.42729
 20
142.251238
 30
0.0
 11
10.383973
 21
145.314356
 31
0.0
  0
LINE
  5
1D6
330
1D1
100
AcDbEntity
  8
100
  6
Continuous
 62
     7
370
    30
100
AcDbLine
 10
10.383973
 20
145.314356
 30
0.0
 11
7.443379
 21
147.274752
 31
0.0
  0
LINE
  5
1D7
330
1D1
100
AcDbEntity
  8
100
  6
Continuous
 62
     7
370
    30
100
AcDbLine
 10
7.443379
 20
147.274752
 30
0.0
 11
5.973082
 21
149.357673
 31
0.0
  0
LINE
  5
1D8
330
1D1
100
AcDbEntity
  8
100
  6
Continuous
 62
     7
370
    30
100
AcDbLine
 10
5.973082
 20
149.357673
 30
0.0
 11
6.156869
 21
150.82797
 31
0.0
  0
LINE
  5
1D9
330
1D1
100
AcDbEntity
  8
100
  6
Continuous
 62
     7
370
    30
100
AcDbLine
 10
6.156869
 20
150.82797
 30
0.0
 11
7.688428
 21
152.849629
 31
0.0
  0
LINE
  5
1DA
330
1D1
100
AcDbEntity
  8
100
  6
Continuous
 62
     7
370
    30
100
AcDbLine
 10
7.688428
 20
152.849629
 30
0.0
 11
10.016399
 21
154.074876
 31
0.0
  0
LINE
  5
1DB
330
1D1
100
AcDbEntity
  8
100
  6
Continuous
 62
     7
370
    30
100
AcDbLine
 10
10.016399
 20
154.074876
 30
0.0
 11
13.998453
 21
155.790223
 31
0.0
  0
LINE
  5
1DC
330
1D1
100
AcDbEntity
  8
100
  6
Continuous
 62
     7
370
    30
100
AcDbLine
 10
13.998453
 20
155.790223
 30
0.0
 11
18.470606
 21
157.505569
 31
0.0
  0
LINE
  5
1DD
330
1D1
100
AcDbEntity
  8
100
  6
Continuous
 62
     7
370
    30
100
AcDbLine
 10
18.470606
 20
157.505569
 30
0.0
 11
23.310334
 21
158.792079
 31
0.0
  0
LINE
  5
1DE
330
1D1
100
AcDbEntity
  8
100
  6
Continuous
 62
     7
370
    30
100
AcDbLine
 10
23.310334
 20
158.792079
 30
0.0
 11
33.296101
 21
161.12005
 31
0.0
  0
LINE
  5
1DF
330
1D1
100
AcDbEntity
  8
100
  6
Continuous
 62
     7
370
    30
100
AcDbLine
 10
33.296101
 20
161.12005
 30
0.0
 11
44.323329
 21
163.570545
 31
0.0
  0
LINE
  5
1E0
330
1D1
100
AcDbEntity
  8
100
  6
Continuous
 62
     7
370
    30
100
AcDbLine
 10
44.323329
 20
163.570545
 30
0.0
 11
53.390161
 21
165.285891
 31
0.0
  0
LINE
  5
1E1
330
1D1
100
AcDbEntity
  8
100
  6
Continuous
 62
     7
370
    30
100
AcDbLine
 10
53.390161
 20
165.285891
 30
0.0
 11
67.603032
 21
166.756188
 31
0.0
  0
LINE
  5
1E2
330
1D1
100
AcDbEntity
  8
100
  6
Continuous
 62
     7
370
    30
100
AcDbLine
 10
67.603032
 20
166.756188
 30
0.0
 11
79.732983
 21
167.613861
 31
0.0
  0
LINE
  5
1E3
330
1D1
100
AcDbEntity
  8
100
  6
Continuous
 62
     7
370
    30
100
AcDbLine
 10
79.732983
 20
167.613861
 30
0.0
 11
91.495359
 21
167.981436
 31
0.0
  0
LINE
  5
1E4
330
1D1
100
AcDbEntity
  8
100
  6
Continuous
 62
     7
370
    30
100
AcDbLine
 10
91.495359
 20
167.981436
 30
0.0
 11
112.079517
 21
168.716584
 31
0.0
  0
LINE
  5
1E5
330
1D1
100
AcDbEntity
  8
100
  6
Continuous
 62
     7
370
    30
100
AcDbLine
 10
112.079517
 20
168.716584
 30
0.0
 11
139.402537
 21
167.858911
 31
0.0
  0
LINE
  5
1E6
330
1D1
100
AcDbEntity
  8
100
  6
Continuous
 62
     7
370
    30
100
AcDbLine
 10
139.402537
 20
167.858911
 30
0.0
 11
156.065903
 21
167.001238
 31
0.0
  0
LINE
  5
1E7
330
1D1
100
AcDbEntity
  8
100
  6
Continuous
 62
     7
370
    30
100
AcDbLine
 10
156.065903
 20
167.001238
 30
0.0
 11
172.606745
 21
165.408416
 31
0.0
  0
LINE
  5
1E8
330
1D1
100
AcDbEntity
  8
100
  6
Continuous
 62
     7
370
    30
100
AcDbLine
 10
172.606745
 20
165.408416
 30
0.0
 11
185.226795
 21
163.44802
 31
0.0
  0
LINE
  5
1E9
330
1D1
100
AcDbEntity
  8
100
  6
Continuous
 62
     7
370
    30
100
AcDbLine
 10
185.226795
 20
163.44802
 30
0.0
 11
198.581993
 21
160.752475
 31
0.0
  0
LINE
  5
1EA
330
1D1
100
AcDbEntity
  8
100
  6
Continuous
 62
     7
370
    30
100
AcDbLine
 10
198.581993
 20
160.752475
 30
0.0
 11
204.70823
 21
158.669554
 31
0.0
  0
LINE
  5
1EB
330
1D1
100
AcDbEntity
  8
100
  6
Continuous
 62
     7
370
    30
100
AcDbLine
 10
204.70823
 20
158.669554
 30
0.0
 11
208.874072
 21
155.851485
 31
0.0
  0
LINE
  5
1EC
330
1D1
100
AcDbEntity
  8
100
  6
Continuous
 62
     7
370
    30
100
AcDbLine
 10
208.874072
 20
155.851485
 30
0.0
 11
212.917389
 21
152.788366
 31
0.0
  0
LINE
  5
1ED
330
1D1
100
AcDbEntity
  8
100
  6
Continuous
 62
     7
370
    30
100
AcDbLine
 10
212.917389
 20
152.788366
 30
0.0
 11
214.51021
 21
150.215347
 31
0.0
  0
LINE
  5
1EE
330
1D1
100
AcDbEntity
  8
100
  6
Continuous
 62
     7
370
    30
100
AcDbLine
 10
214.51021
 20
150.215347
 30
0.0
 11
215.000309
 21
147.642327
 31
0.0
  0
LINE
  5
1EF
330
1D1
100
AcDbEntity
  8
100
  6
Continuous
 62
     7
370
    30
100
AcDbLine
 10
215.000309
 20
147.642327
 30
0.0
 11
213.652537
 21
145.191832
 31
0.0
  0
LINE
  5
1F0
330
1D1
100
AcDbEntity
  8
100
  6
Continuous
 62
     7
370
    30
100
AcDbLine
 10
213.652537
 20
145.191832
 30
0.0
 11
210.466894
 21
142.496287
 31
0.0
  0
ENDBLK
  5
1D3
330
1D1
100
AcDbEntity
  8
0
100
AcDbBlockEnd
  0
BLOCK
  5
1F3
330
1F2
100
AcDbEntity
  8
0
100
AcDbBlockBegin
  2
G18
 70
     0
 10
0.0
 20
0.0
 30
0.0
  3
G18
  1

  0
LINE
  5
1F5
330
1F2
100
AcDbEntity
  8
100
  6
Continuous
 62
     7
370
    30
100
AcDbLine
 10
206.791151
 20
144.334158
 30
0.0
 11
200.419864
 21
141.148515
 31
0.0
  0
LINE
  5
1F6
330
1F2
100
AcDbEntity
  8
100
  6
Continuous
 62
     7
370
    30
100
AcDbLine
 10
200.419864
 20
141.148515
 30
0.0
 11
192.088181
 21
138.69802
 31
0.0
  0
LINE
  5
1F7
330
1F2
100
AcDbEntity
  8
100
  6
Continuous
 62
     7
370
    30
100
AcDbLine
 10
192.088181
 20
138.69802
 30
0.0
 11
180.815903
 21
135.757426
 31
0.0
  0
LINE
  5
1F8
330
1F2
100
AcDbEntity
  8
100
  6
Continuous
 62
     7
370
    30
100
AcDbLine
 10
180.815903
 20
135.757426
 30
0.0
 11
173.096844
 21
134.777228
 31
0.0
  0
LINE
  5
1F9
330
1F2
100
AcDbEntity
  8
100
  6
Continuous
 62
     7
370
    30
100
AcDbLine
 10
173.096844
 20
134.777228
 30
0.0
 11
164.397587
 21
133.55198
 31
0.0
  0
LINE
  5
1FA
330
1F2
100
AcDbEntity
  8
100
  6
Continuous
 62
     7
370
    30
100
AcDbLine
 10
164.397587
 20
133.55198
 30
0.0
 11
155.943379
 21
132.694307
 31
0.0
  0
ENDBLK
  5
1F4
330
1F2
100
AcDbEntity
  8
0
100
AcDbBlockEnd
  0
BLOCK
  5
1FD
330
1FC
100
AcDbEntity
  8
0
100
AcDbBlockBegin
  2
G19
 70
     0
 10
0.0
 20
0.0
 30
0.0
  3
G19
  1

  0
LINE
  5
1FF
330
1FC
100
AcDbEntity
  8
100
  6
Continuous
 62
     7
370
    30
100
AcDbLine
 10
139.647587
 20
131.346535
 30
0.0
 11
147.611696
 21
131.591584
 31
0.0
  0
LINE
  5
200
330
1FC
100
AcDbEntity
  8
100
  6
Continuous
 62
     7
370
    30
100
AcDbLine
 10
147.611696
 20
131.591584
 30
0.0
 11
157.291151
 21
131.591584
 31
0.0
  0
LINE
  5
201
330
1FC
100
AcDbEntity
  8
100
  6
Continuous
 62
     7
370
    30
100
AcDbLine
 10
157.291151
 20
131.591584
 30
0.0
 11
166.235458
 21
131.714109
 31
0.0
  0
ENDBLK
  5
1FE
330
1FC
100
AcDbEntity
  8
0
100
AcDbBlockEnd
  0
BLOCK
  5
204
330
203
100
AcDbEntity
  8
0
100
AcDbBlockBegin
  2
G20
 70
     0
 10
0.0
 20
0.0
 30
0.0
  3
G20
  1

  0
LINE
  5
206
330
203
100
AcDbEntity
  8
100
  6
Continuous
 62
     7
370
    30
100
AcDbLine
 10
36.60427
 20
143.721535
 30
0.0
 11
36.481745
 21
120.931931
 31
0.0
  0
LINE
  5
207
330
203
100
AcDbEntity
  8
100
  6
Continuous
 62
     7
370
    30
100
AcDbLine
 10
36.481745
 20
120.931931
 30
0.0
 11
36.114171
 21
103.90099
 31
0.0
  0
LINE
  5
208
330
203
100
AcDbEntity
  8
100
  6
Continuous
 62
     7
370
    30
100
AcDbLine
 10
36.114171
 20
103.90099
 30
0.0
 11
39.544864
 21
104.881188
 31
0.0
  0
LINE
  5
209
330
203
100
AcDbEntity
  8
100
  6
Continuous
 62
     7
370
    30
100
AcDbLine
 10
39.544864
 20
104.881188
 30
0.0
 11
39.422339
 21
106.22896
 31
0.0
  0
LINE
  5
20A
330
203
100
AcDbEntity
  8
100
  6
Continuous
 62
     7
370
    30
100
AcDbLine
 10
39.422339
 20
106.22896
 30
0.0
 11
39.912438
 21
121.299505
 31
0.0
  0
LINE
  5
20B
330
203
100
AcDbEntity
  8
100
  6
Continuous
 62
     7
370
    30
100
AcDbLine
 10
39.912438
 20
121.299505
 30
0.0
 11
40.034963
 21
133.306931
 31
0.0
  0
LINE
  5
20C
330
203
100
AcDbEntity
  8
100
  6
Continuous
 62
     7
370
    30
100
AcDbLine
 10
40.034963
 20
133.306931
 30
0.0
 11
40.525062
 21
143.108911
 31
0.0
  0
LINE
  5
20D
330
203
100
AcDbEntity
  8
100
  6
Continuous
 62
     7
370
    30
100
AcDbLine
 10
40.525062
 20
143.108911
 30
0.0
 11
40.280012
 21
144.027847
 31
0.0
  0
LINE
  5
20E
330
203
100
AcDbEntity
  8
100
  6
Continuous
 62
     7
370
    30
100
AcDbLine
 10
40.280012
 20
144.027847
 30
0.0
 11
39.422339
 21
144.579208
 31
0.0
  0
LINE
  5
20F
330
203
100
AcDbEntity
  8
100
  6
Continuous
 62
     7
370
    30
100
AcDbLine
 10
39.422339
 20
144.579208
 30
0.0
 11
38.442141
 21
144.762995
 31
0.0
  0
LINE
  5
210
330
203
100
AcDbEntity
  8
100
  6
Continuous
 62
     7
370
    30
100
AcDbLine
 10
38.442141
 20
144.762995
 30
0.0
 11
37.216894
 21
144.395421
 31
0.0
  0
LINE
  5
211
330
203
100
AcDbEntity
  8
100
  6
Continuous
 62
     7
370
    30
100
AcDbLine
 10
37.216894
 20
144.395421
 30
0.0
 11
36.60427
 21
143.721535
 31
0.0
  0
ENDBLK
  5
205
330
203
100
AcDbEntity
  8
0
100
AcDbBlockEnd
  0
BLOCK
  5
214
330
213
100
AcDbEntity
  8
0
100
AcDbBlockBegin
  2
G21
 70
     0
 10
0.0
 20
0.0
 30
0.0
  3
G21
  1

  0
LINE
  5
216
330
213
100
AcDbEntity
  8
100
  6
Continuous
 62
     7
370
    30
100
AcDbLine
 10
42.79177
 20
150.766708
 30
0.0
 11
42.79177
 21
105.310025
 31
0.0
  0
LINE
  5
217
330
213
100
AcDbEntity
  8
100
  6
Continuous
 62
     7
370
    30
100
AcDbLine
 10
42.79177
 20
105.310025
 30
0.0
 11
39.544864
 21
104.881188
 31
0.0
  0
ENDBLK
  5
215
330
213
100
AcDbEntity
  8
0
100
AcDbBlockEnd
  0
BLOCK
  5
21A
330
219
100
AcDbEntity
  8
0
100
AcDbBlockBegin
  2
G22
 70
     0
 10
0.0
 20
0.0
 30
0.0
  3
G22
  1

  0
LINE
  5
21C
330
219
100
AcDbEntity
  8
100
  6
Continuous
 62
     7
370
    30
100
AcDbLine
 10
42.79177
 20
144.88552
 30
0.0
 11
41.290842
 21
145.865718
 31
0.0
  0
LINE
  5
21D
330
219
100
AcDbEntity
  8
100
  6
Continuous
 62
     7
370
    30
100
AcDbLine
 10
41.290842
 20
145.865718
 30
0.0
 11
40.73948
 21
146.784653
 31
0.0
  0
LINE
  5
21E
330
219
100
AcDbEntity
  8
100
  6
Continuous
 62
     7
370
    30
100
AcDbLine
 10
40.73948
 20
146.784653
 30
0.0
 11
40.586324
 21
147.672958
 31
0.0
  0
LINE
  5
21F
330
219
100
AcDbEntity
  8
100
  6
Continuous
 62
     7
370
    30
100
AcDbLine
 10
40.586324
 20
147.672958
 30
0.0
 11
40.586324
 21
148.591894
 31
0.0
  0
LINE
  5
220
330
219
100
AcDbEntity
  8
100
  6
Continuous
 62
     7
370
    30
100
AcDbLine
 10
40.586324
 20
148.591894
 30
0.0
 11
41.045792
 21
149.54146
 31
0.0
  0
LINE
  5
221
330
219
100
AcDbEntity
  8
100
  6
Continuous
 62
     7
370
    30
100
AcDbLine
 10
41.045792
 20
149.54146
 30
0.0
 11
41.842203
 21
150.215347
 31
0.0
  0
LINE
  5
222
330
219
100
AcDbEntity
  8
100
  6
Continuous
 62
     7
370
    30
100
AcDbLine
 10
41.842203
 20
150.215347
 30
0.0
 11
43.526918
 21
151.195545
 31
0.0
  0
LINE
  5
223
330
219
100
AcDbEntity
  8
100
  6
Continuous
 62
     7
370
    30
100
AcDbLine
 10
43.526918
 20
151.195545
 30
0.0
 11
46.038676
 21
152.053218
 31
0.0
  0
LINE
  5
224
330
219
100
AcDbEntity
  8
100
  6
Continuous
 62
     7
370
    30
100
AcDbLine
 10
46.038676
 20
152.053218
 30
0.0
 11
49.224319
 21
152.910891
 31
0.0
  0
LINE
  5
225
330
219
100
AcDbEntity
  8
100
  6
Continuous
 62
     7
370
    30
100
AcDbLine
 10
49.224319
 20
152.910891
 30
0.0
 11
53.63521
 21
154.013614
 31
0.0
  0
LINE
  5
226
330
219
100
AcDbEntity
  8
100
  6
Continuous
 62
     7
370
    30
100
AcDbLine
 10
53.63521
 20
154.013614
 30
0.0
 11
59.210087
 21
154.810025
 31
0.0
  0
LINE
  5
227
330
219
100
AcDbEntity
  8
100
  6
Continuous
 62
     7
370
    30
100
AcDbLine
 10
59.210087
 20
154.810025
 30
0.0
 11
67.786819
 21
155.545173
 31
0.0
  0
LINE
  5
228
330
219
100
AcDbEntity
  8
100
  6
Continuous
 62
     7
370
    30
100
AcDbLine
 10
67.786819
 20
155.545173
 30
0.0
 11
73.055384
 21
155.667698
 31
0.0
  0
LINE
  5
229
330
219
100
AcDbEntity
  8
100
  6
Continuous
 62
     7
370
    30
100
AcDbLine
 10
73.055384
 20
155.667698
 30
0.0
 11
75.995978
 21
155.912748
 31
0.0
  0
LINE
  5
22A
330
219
100
AcDbEntity
  8
100
  6
Continuous
 62
     7
370
    30
100
AcDbLine
 10
75.995978
 20
155.912748
 30
0.0
 11
76.241027
 21
106.780322
 31
0.0
  0
LINE
  5
22B
330
219
100
AcDbEntity
  8
100
  6
Continuous
 62
     7
370
    30
100
AcDbLine
 10
76.241027
 20
106.780322
 30
0.0
 11
68.399443
 21
106.780322
 31
0.0
  0
LINE
  5
22C
330
219
100
AcDbEntity
  8
100
  6
Continuous
 62
     7
370
    30
100
AcDbLine
 10
68.399443
 20
106.780322
 30
0.0
 11
57.49474
 21
106.045173
 31
0.0
  0
LINE
  5
22D
330
219
100
AcDbEntity
  8
100
  6
Continuous
 62
     7
370
    30
100
AcDbLine
 10
57.49474
 20
106.045173
 30
0.0
 11
48.550433
 21
105.555074
 31
0.0
  0
LINE
  5
22E
330
219
100
AcDbEntity
  8
100
  6
Continuous
 62
     7
370
    30
100
AcDbLine
 10
48.550433
 20
105.555074
 30
0.0
 11
42.79177
 21
105.310025
 31
0.0
  0
ENDBLK
  5
21B
330
219
100
AcDbEntity
  8
0
100
AcDbBlockEnd
  0
BLOCK
  5
231
330
230
100
AcDbEntity
  8
0
100
AcDbBlockBegin
  2
G23
 70
     0
 10
0.0
 20
0.0
 30
0.0
  3
G23
  1

  0
LINE
  5
233
330
230
100
AcDbEntity
  8
100
  6
Continuous
 62
     7
370
    30
100
AcDbLine
 10
76.608601
 20
103.349629
 30
0.0
 11
70.237314
 21
103.349629
 31
0.0
  0
LINE
  5
234
330
230
100
AcDbEntity
  8
100
  6
Continuous
 62
     7
370
    30
100
AcDbLine
 10
70.237314
 20
103.349629
 30
0.0
 11
61.415532
 21
103.227104
 31
0.0
  0
LINE
  5
235
330
230
100
AcDbEntity
  8
100
  6
Continuous
 62
     7
370
    30
100
AcDbLine
 10
61.415532
 20
103.227104
 30
0.0
 11
52.961324
 21
102.61448
 31
0.0
  0
LINE
  5
236
330
230
100
AcDbEntity
  8
100
  6
Continuous
 62
     7
370
    30
100
AcDbLine
 10
52.961324
 20
102.61448
 30
0.0
 11
44.997215
 21
101.879332
 31
0.0
  0
LINE
  5
237
330
230
100
AcDbEntity
  8
100
  6
Continuous
 62
     7
370
    30
100
AcDbLine
 10
44.997215
 20
101.879332
 30
0.0
 11
42.914295
 21
100.899134
 31
0.0
  0
LINE
  5
238
330
230
100
AcDbEntity
  8
100
  6
Continuous
 62
     7
370
    30
100
AcDbLine
 10
42.914295
 20
100.899134
 30
0.0
 11
43.159344
 21
98.326114
 31
0.0
  0
LINE
  5
239
330
230
100
AcDbEntity
  8
100
  6
Continuous
 62
     7
370
    30
100
AcDbLine
 10
43.159344
 20
98.326114
 30
0.0
 11
40.4638
 21
98.326114
 31
0.0
  0
LINE
  5
23A
330
230
100
AcDbEntity
  8
100
  6
Continuous
 62
     7
370
    30
100
AcDbLine
 10
40.4638
 20
98.326114
 30
0.0
 11
39.728651
 21
99.551361
 31
0.0
  0
LINE
  5
23B
330
230
100
AcDbEntity
  8
100
  6
Continuous
 62
     7
370
    30
100
AcDbLine
 10
39.728651
 20
99.551361
 30
0.0
 11
38.380879
 21
99.918936
 31
0.0
  0
LINE
  5
23C
330
230
100
AcDbEntity
  8
100
  6
Continuous
 62
     7
370
    30
100
AcDbLine
 10
38.380879
 20
99.918936
 30
0.0
 11
36.910582
 21
99.796411
 31
0.0
  0
LINE
  5
23D
330
230
100
AcDbEntity
  8
100
  6
Continuous
 62
     7
370
    30
100
AcDbLine
 10
36.910582
 20
99.796411
 30
0.0
 11
36.543007
 21
98.816213
 31
0.0
  0
LINE
  5
23E
330
230
100
AcDbEntity
  8
100
  6
Continuous
 62
     7
370
    30
100
AcDbLine
 10
36.543007
 20
98.816213
 30
0.0
 11
35.195235
 21
98.816213
 31
0.0
  0
LINE
  5
23F
330
230
100
AcDbEntity
  8
100
  6
Continuous
 62
     7
370
    30
100
AcDbLine
 10
35.195235
 20
98.816213
 30
0.0
 11
33.602413
 21
99.428837
 31
0.0
  0
LINE
  5
240
330
230
100
AcDbEntity
  8
100
  6
Continuous
 62
     7
370
    30
100
AcDbLine
 10
33.602413
 20
99.428837
 30
0.0
 11
32.377166
 21
100.409035
 31
0.0
  0
LINE
  5
241
330
230
100
AcDbEntity
  8
100
  6
Continuous
 62
     7
370
    30
100
AcDbLine
 10
32.377166
 20
100.409035
 30
0.0
 11
32.499691
 21
101.756807
 31
0.0
  0
LINE
  5
242
330
230
100
AcDbEntity
  8
100
  6
Continuous
 62
     7
370
    30
100
AcDbLine
 10
32.499691
 20
101.756807
 30
0.0
 11
34.827661
 21
103.104579
 31
0.0
  0
LINE
  5
243
330
230
100
AcDbEntity
  8
100
  6
Continuous
 62
     7
370
    30
100
AcDbLine
 10
34.827661
 20
103.104579
 30
0.0
 11
36.114171
 21
103.90099
 31
0.0
  0
ENDBLK
  5
232
330
230
100
AcDbEntity
  8
0
100
AcDbBlockEnd
  0
BLOCK
  5
246
330
245
100
AcDbEntity
  8
0
100
AcDbBlockBegin
  2
G24
 70
     0
 10
0.0
 20
0.0
 30
0.0
  3
G24
  1

  0
LINE
  5
248
330
245
100
AcDbEntity
  8
100
  6
Continuous
 62
     7
370
    30
100
AcDbLine
 10
35.348391
 20
145.02336
 30
0.0
 11
33.51052
 21
146.432395
 31
0.0
  0
LINE
  5
249
330
245
100
AcDbEntity
  8
100
  6
Continuous
 62
     7
370
    30
100
AcDbLine
 10
33.51052
 20
146.432395
 30
0.0
 11
32.22401
 21
148.270266
 31
0.0
  0
LINE
  5
24A
330
245
100
AcDbEntity
  8
100
  6
Continuous
 62
     7
370
    30
100
AcDbLine
 10
32.22401
 20
148.270266
 30
0.0
 11
32.407797
 21
150.414449
 31
0.0
  0
LINE
  5
24B
330
245
100
AcDbEntity
  8
100
  6
Continuous
 62
     7
370
    30
100
AcDbLine
 10
32.407797
 20
150.414449
 30
0.0
 11
34.429455
 21
152.313583
 31
0.0
  0
LINE
  5
24C
330
245
100
AcDbEntity
  8
100
  6
Continuous
 62
     7
370
    30
100
AcDbLine
 10
34.429455
 20
152.313583
 30
0.0
 11
37.615099
 21
153.78388
 31
0.0
  0
LINE
  5
24D
330
245
100
AcDbEntity
  8
100
  6
Continuous
 62
     7
370
    30
100
AcDbLine
 10
37.615099
 20
153.78388
 30
0.0
 11
40.555693
 21
154.82534
 31
0.0
  0
LINE
  5
24E
330
245
100
AcDbEntity
  8
100
  6
Continuous
 62
     7
370
    30
100
AcDbLine
 10
40.555693
 20
154.82534
 30
0.0
 11
43.618812
 21
155.376702
 31
0.0
  0
LINE
  5
24F
330
245
100
AcDbEntity
  8
100
  6
Continuous
 62
     7
370
    30
100
AcDbLine
 10
43.618812
 20
155.376702
 30
0.0
 11
46.988243
 21
156.050588
 31
0.0
  0
LINE
  5
250
330
245
100
AcDbEntity
  8
100
  6
Continuous
 62
     7
370
    30
100
AcDbLine
 10
46.988243
 20
156.050588
 30
0.0
 11
52.501856
 21
156.846999
 31
0.0
  0
LINE
  5
251
330
245
100
AcDbEntity
  8
100
  6
Continuous
 62
     7
370
    30
100
AcDbLine
 10
52.501856
 20
156.846999
 30
0.0
 11
58.444307
 21
157.765934
 31
0.0
  0
LINE
  5
252
330
245
100
AcDbEntity
  8
100
  6
Continuous
 62
     7
370
    30
100
AcDbLine
 10
58.444307
 20
157.765934
 30
0.0
 11
64.570545
 21
158.501083
 31
0.0
  0
LINE
  5
253
330
245
100
AcDbEntity
  8
100
  6
Continuous
 62
     7
370
    30
100
AcDbLine
 10
64.570545
 20
158.501083
 30
0.0
 11
71.370668
 21
158.92992
 31
0.0
  0
LINE
  5
254
330
245
100
AcDbEntity
  8
100
  6
Continuous
 62
     7
370
    30
100
AcDbLine
 10
71.370668
 20
158.92992
 30
0.0
 11
78.415842
 21
159.358756
 31
0.0
  0
LINE
  5
255
330
245
100
AcDbEntity
  8
100
  6
Continuous
 62
     7
370
    30
100
AcDbLine
 10
78.415842
 20
159.358756
 30
0.0
 11
87.360149
 21
159.358756
 31
0.0
  0
LINE
  5
256
330
245
100
AcDbEntity
  8
100
  6
Continuous
 62
     7
370
    30
100
AcDbLine
 10
87.360149
 20
159.358756
 30
0.0
 11
93.302599
 21
159.236231
 31
0.0
  0
LINE
  5
257
330
245
100
AcDbEntity
  8
100
  6
Continuous
 62
     7
370
    30
100
AcDbLine
 10
93.302599
 20
159.236231
 30
0.0
 11
99.551361
 21
159.052444
 31
0.0
  0
LINE
  5
258
330
245
100
AcDbEntity
  8
100
  6
Continuous
 62
     7
370
    30
100
AcDbLine
 10
99.551361
 20
159.052444
 30
0.0
 11
107.209158
 21
158.68487
 31
0.0
  0
LINE
  5
259
330
245
100
AcDbEntity
  8
100
  6
Continuous
 62
     7
370
    30
100
AcDbLine
 10
107.209158
 20
158.68487
 30
0.0
 11
113.274134
 21
158.317296
 31
0.0
  0
LINE
  5
25A
330
245
100
AcDbEntity
  8
100
  6
Continuous
 62
     7
370
    30
100
AcDbLine
 10
113.274134
 20
158.317296
 30
0.0
 11
122.095916
 21
157.214573
 31
0.0
  0
LINE
  5
25B
330
245
100
AcDbEntity
  8
100
  6
Continuous
 62
     7
370
    30
100
AcDbLine
 10
122.095916
 20
157.214573
 30
0.0
 11
127.854579
 21
156.234375
 31
0.0
  0
LINE
  5
25C
330
245
100
AcDbEntity
  8
100
  6
Continuous
 62
     7
370
    30
100
AcDbLine
 10
127.854579
 20
156.234375
 30
0.0
 11
134.715965
 21
154.273979
 31
0.0
  0
LINE
  5
25D
330
245
100
AcDbEntity
  8
100
  6
Continuous
 62
     7
370
    30
100
AcDbLine
 10
134.715965
 20
154.273979
 30
0.0
 11
138.514233
 21
152.803682
 31
0.0
  0
LINE
  5
25E
330
245
100
AcDbEntity
  8
100
  6
Continuous
 62
     7
370
    30
100
AcDbLine
 10
138.514233
 20
152.803682
 30
0.0
 11
140.413366
 21
151.21086
 31
0.0
  0
LINE
  5
25F
330
245
100
AcDbEntity
  8
100
  6
Continuous
 62
     7
370
    30
100
AcDbLine
 10
140.413366
 20
151.21086
 30
0.0
 11
141.516089
 21
149.801825
 31
0.0
  0
LINE
  5
260
330
245
100
AcDbEntity
  8
100
  6
Continuous
 62
     7
370
    30
100
AcDbLine
 10
141.516089
 20
149.801825
 30
0.0
 11
141.638614
 21
148.515316
 31
0.0
  0
LINE
  5
261
330
245
100
AcDbEntity
  8
100
  6
Continuous
 62
     7
370
    30
100
AcDbLine
 10
141.638614
 20
148.515316
 30
0.0
 11
141.087252
 21
147.290068
 31
0.0
  0
LINE
  5
262
330
245
100
AcDbEntity
  8
100
  6
Continuous
 62
     7
370
    30
100
AcDbLine
 10
141.087252
 20
147.290068
 30
0.0
 11
140.045792
 21
146.003558
 31
0.0
  0
LINE
  5
263
330
245
100
AcDbEntity
  8
100
  6
Continuous
 62
     7
370
    30
100
AcDbLine
 10
140.045792
 20
146.003558
 30
0.0
 11
138.820545
 21
145.513459
 31
0.0
  0
LINE
  5
264
330
245
100
AcDbEntity
  8
100
  6
Continuous
 62
     7
370
    30
100
AcDbLine
 10
138.820545
 20
145.513459
 30
0.0
 11
138.759282
 21
147.657642
 31
0.0
  0
LINE
  5
265
330
245
100
AcDbEntity
  8
100
  6
Continuous
 62
     7
370
    30
100
AcDbLine
 10
138.759282
 20
147.657642
 30
0.0
 11
137.656559
 21
147.902692
 31
0.0
  0
LINE
  5
266
330
245
100
AcDbEntity
  8
100
  6
Continuous
 62
     7
370
    30
100
AcDbLine
 10
137.656559
 20
147.902692
 30
0.0
 11
135.87995
 21
148.025217
 31
0.0
  0
LINE
  5
267
330
245
100
AcDbEntity
  8
100
  6
Continuous
 62
     7
370
    30
100
AcDbLine
 10
135.87995
 20
148.025217
 30
0.0
 11
134.777228
 21
147.59638
 31
0.0
  0
LINE
  5
268
330
245
100
AcDbEntity
  8
100
  6
Continuous
 62
     7
370
    30
100
AcDbLine
 10
134.777228
 20
147.59638
 30
0.0
 11
134.593441
 21
142.879177
 31
0.0
  0
LINE
  5
269
330
245
100
AcDbEntity
  8
100
  6
Continuous
 62
     7
370
    30
100
AcDbLine
 10
134.593441
 20
142.879177
 30
0.0
 11
132.694307
 21
142.021504
 31
0.0
  0
LINE
  5
26A
330
245
100
AcDbEntity
  8
100
  6
Continuous
 62
     7
370
    30
100
AcDbLine
 10
132.694307
 20
142.021504
 30
0.0
 11
132.633045
 21
145.26841
 31
0.0
  0
LINE
  5
26B
330
245
100
AcDbEntity
  8
100
  6
Continuous
 62
     7
370
    30
100
AcDbLine
 10
132.633045
 20
145.26841
 30
0.0
 11
133.306931
 21
146.248608
 31
0.0
  0
LINE
  5
26C
330
245
100
AcDbEntity
  8
100
  6
Continuous
 62
     7
370
    30
100
AcDbLine
 10
133.306931
 20
146.248608
 30
0.0
 11
133.55198
 21
147.718905
 31
0.0
  0
LINE
  5
26D
330
245
100
AcDbEntity
  8
100
  6
Continuous
 62
     7
370
    30
100
AcDbLine
 10
133.55198
 20
147.718905
 30
0.0
 11
133.061881
 21
149.005415
 31
0.0
  0
LINE
  5
26E
330
245
100
AcDbEntity
  8
100
  6
Continuous
 62
     7
370
    30
100
AcDbLine
 10
133.061881
 20
149.005415
 30
0.0
 11
131.836634
 21
150.291925
 31
0.0
  0
LINE
  5
26F
330
245
100
AcDbEntity
  8
100
  6
Continuous
 62
     7
370
    30
100
AcDbLine
 10
131.836634
 20
150.291925
 30
0.0
 11
129.324876
 21
151.578434
 31
0.0
  0
LINE
  5
270
330
245
100
AcDbEntity
  8
100
  6
Continuous
 62
     7
370
    30
100
AcDbLine
 10
129.324876
 20
151.578434
 30
0.0
 11
125.955446
 21
152.558632
 31
0.0
  0
LINE
  5
271
330
245
100
AcDbEntity
  8
100
  6
Continuous
 62
     7
370
    30
100
AcDbLine
 10
125.955446
 20
152.558632
 30
0.0
 11
122.831064
 21
153.722618
 31
0.0
  0
LINE
  5
272
330
245
100
AcDbEntity
  8
100
  6
Continuous
 62
     7
370
    30
100
AcDbLine
 10
122.831064
 20
153.722618
 30
0.0
 11
119.216584
 21
154.335241
 31
0.0
  0
LINE
  5
273
330
245
100
AcDbEntity
  8
100
  6
Continuous
 62
     7
370
    30
100
AcDbLine
 10
119.216584
 20
154.335241
 30
0.0
 11
114.744431
 21
155.131652
 31
0.0
  0
LINE
  5
274
330
245
100
AcDbEntity
  8
100
  6
Continuous
 62
     7
370
    30
100
AcDbLine
 10
114.744431
 20
155.131652
 30
0.0
 11
111.987624
 21
155.376702
 31
0.0
  0
LINE
  5
275
330
245
100
AcDbEntity
  8
100
  6
Continuous
 62
     7
370
    30
100
AcDbLine
 10
111.987624
 20
155.376702
 30
0.0
 11
108.618193
 21
155.805538
 31
0.0
  0
LINE
  5
276
330
245
100
AcDbEntity
  8
100
  6
Continuous
 62
     7
370
    30
100
AcDbLine
 10
108.618193
 20
155.805538
 30
0.0
 11
104.452351
 21
156.173113
 31
0.0
  0
LINE
  5
277
330
245
100
AcDbEntity
  8
100
  6
Continuous
 62
     7
370
    30
100
AcDbLine
 10
104.452351
 20
156.173113
 30
0.0
 11
100.225248
 21
156.479425
 31
0.0
  0
LINE
  5
278
330
245
100
AcDbEntity
  8
100
  6
Continuous
 62
     7
370
    30
100
AcDbLine
 10
100.225248
 20
156.479425
 30
0.0
 11
94.650371
 21
156.479425
 31
0.0
  0
LINE
  5
279
330
245
100
AcDbEntity
  8
100
  6
Continuous
 62
     7
370
    30
100
AcDbLine
 10
94.650371
 20
156.479425
 30
0.0
 11
89.320545
 21
156.785736
 31
0.0
  0
LINE
  5
27A
330
245
100
AcDbEntity
  8
100
  6
Continuous
 62
     7
370
    30
100
AcDbLine
 10
89.320545
 20
156.785736
 30
0.0
 11
84.848391
 21
156.663212
 31
0.0
  0
LINE
  5
27B
330
245
100
AcDbEntity
  8
100
  6
Continuous
 62
     7
370
    30
100
AcDbLine
 10
84.848391
 20
156.663212
 30
0.0
 11
81.662748
 21
156.479425
 31
0.0
  0
LINE
  5
27C
330
245
100
AcDbEntity
  8
100
  6
Continuous
 62
     7
370
    30
100
AcDbLine
 10
81.662748
 20
156.479425
 30
0.0
 11
81.111386
 21
155.683014
 31
0.0
  0
LINE
  5
27D
330
245
100
AcDbEntity
  8
100
  6
Continuous
 62
     7
370
    30
100
AcDbLine
 10
81.111386
 20
155.683014
 30
0.0
 11
81.47896
 21
107.101949
 31
0.0
  0
LINE
  5
27E
330
245
100
AcDbEntity
  8
100
  6
Continuous
 62
     7
370
    30
100
AcDbLine
 10
81.47896
 20
107.101949
 30
0.0
 11
89.320545
 21
107.224474
 31
0.0
  0
LINE
  5
27F
330
245
100
AcDbEntity
  8
100
  6
Continuous
 62
     7
370
    30
100
AcDbLine
 10
89.320545
 20
107.224474
 30
0.0
 11
98.142327
 21
106.979425
 31
0.0
  0
LINE
  5
280
330
245
100
AcDbEntity
  8
100
  6
Continuous
 62
     7
370
    30
100
AcDbLine
 10
98.142327
 20
106.979425
 30
0.0
 11
110.762376
 21
106.8569
 31
0.0
  0
LINE
  5
281
330
245
100
AcDbEntity
  8
100
  6
Continuous
 62
     7
370
    30
100
AcDbLine
 10
110.762376
 20
106.8569
 30
0.0
 11
117.011139
 21
106.489325
 31
0.0
  0
LINE
  5
282
330
245
100
AcDbEntity
  8
100
  6
Continuous
 62
     7
370
    30
100
AcDbLine
 10
117.011139
 20
106.489325
 30
0.0
 11
127.425743
 21
105.754177
 31
0.0
  0
LINE
  5
283
330
245
100
AcDbEntity
  8
100
  6
Continuous
 62
     7
370
    30
100
AcDbLine
 10
127.425743
 20
105.754177
 30
0.0
 11
133.368193
 21
105.264078
 31
0.0
  0
LINE
  5
284
330
245
100
AcDbEntity
  8
100
  6
Continuous
 62
     7
370
    30
100
AcDbLine
 10
133.368193
 20
105.264078
 30
0.0
 11
134.042079
 21
105.447865
 31
0.0
  0
LINE
  5
285
330
245
100
AcDbEntity
  8
100
  6
Continuous
 62
     7
370
    30
100
AcDbLine
 10
134.042079
 20
105.447865
 30
0.0
 11
134.899752
 21
106.305538
 31
0.0
  0
LINE
  5
286
330
245
100
AcDbEntity
  8
100
  6
Continuous
 62
     7
370
    30
100
AcDbLine
 10
134.899752
 20
106.305538
 30
0.0
 11
136.063738
 21
106.366801
 31
0.0
  0
LINE
  5
287
330
245
100
AcDbEntity
  8
100
  6
Continuous
 62
     7
370
    30
100
AcDbLine
 10
136.063738
 20
106.366801
 30
0.0
 11
135.389851
 21
128.298731
 31
0.0
  0
LINE
  5
288
330
245
100
AcDbEntity
  8
100
  6
Continuous
 62
     7
370
    30
100
AcDbLine
 10
135.389851
 20
128.298731
 30
0.0
 11
132.694307
 21
128.176207
 31
0.0
  0
LINE
  5
289
330
245
100
AcDbEntity
  8
100
  6
Continuous
 62
     7
370
    30
100
AcDbLine
 10
132.694307
 20
128.176207
 30
0.0
 11
132.830594
 21
105.308416
 31
0.0
  0
LINE
  5
28A
330
245
100
AcDbEntity
  8
100
  6
Continuous
 62
     7
370
    30
100
AcDbLine
 10
132.830594
 20
105.308416
 30
0.0
 11
133.368193
 21
105.264078
 31
0.0
  0
LINE
  5
28B
330
245
100
AcDbEntity
  8
100
  6
Continuous
 62
     7
370
    30
100
AcDbLine
 10
133.368193
 20
105.264078
 30
0.0
 11
136.37005
 21
104.651454
 31
0.0
  0
LINE
  5
28C
330
245
100
AcDbEntity
  8
100
  6
Continuous
 62
     7
370
    30
100
AcDbLine
 10
136.37005
 20
104.651454
 30
0.0
 11
139.371906
 21
103.732519
 31
0.0
  0
ENDBLK
  5
247
330
245
100
AcDbEntity
  8
0
100
AcDbBlockEnd
  0
BLOCK
  5
28F
330
28E
100
AcDbEntity
  8
0
100
AcDbBlockBegin
  2
G25
 70
     0
 10
0.0
 20
0.0
 30
0.0
  3
G25
  1

  0
LINE
  5
291
330
28E
100
AcDbEntity
  8
100
  6
Continuous
 62
     7
370
    30
100
AcDbLine
 10
132.816832
 20
131.239325
 30
0.0
 11
135.267327
 21
131.300588
 31
0.0
  0
LINE
  5
292
330
28E
100
AcDbEntity
  8
100
  6
Continuous
 62
     7
370
    30
100
AcDbLine
 10
135.267327
 20
131.300588
 30
0.0
 11
134.593441
 21
142.879177
 31
0.0
  0
ENDBLK
  5
290
330
28E
100
AcDbEntity
  8
0
100
AcDbBlockEnd
  0
BLOCK
  5
295
330
294
100
AcDbEntity
  8
0
100
AcDbBlockBegin
  2
G26
 70
     0
 10
0.0
 20
0.0
 30
0.0
  3
G26
  1

  0
LINE
  5
297
330
294
100
AcDbEntity
  8
100
  6
Continuous
 62
     7
370
    30
100
AcDbLine
 10
139.034963
 20
128.528465
 30
0.0
 11
139.065594
 21
143.920637
 31
0.0
  0
LINE
  5
298
330
294
100
AcDbEntity
  8
100
  6
Continuous
 62
     7
370
    30
100
AcDbLine
 10
139.065594
 20
143.920637
 30
0.0
 11
142.741337
 21
145.881033
 31
0.0
  0
LINE
  5
299
330
294
100
AcDbEntity
  8
100
  6
Continuous
 62
     7
370
    30
100
AcDbLine
 10
142.741337
 20
145.881033
 30
0.0
 11
144.089109
 21
147.963954
 31
0.0
  0
LINE
  5
29A
330
294
100
AcDbEntity
  8
100
  6
Continuous
 62
     7
370
    30
100
AcDbLine
 10
144.089109
 20
147.963954
 30
0.0
 11
144.334158
 21
150.414449
 31
0.0
  0
LINE
  5
29B
330
294
100
AcDbEntity
  8
100
  6
Continuous
 62
     7
370
    30
100
AcDbLine
 10
144.334158
 20
150.414449
 30
0.0
 11
142.863861
 21
152.49737
 31
0.0
  0
LINE
  5
29C
330
294
100
AcDbEntity
  8
100
  6
Continuous
 62
     7
370
    30
100
AcDbLine
 10
142.863861
 20
152.49737
 30
0.0
 11
140.413366
 21
154.090192
 31
0.0
  0
LINE
  5
29D
330
294
100
AcDbEntity
  8
100
  6
Continuous
 62
     7
370
    30
100
AcDbLine
 10
140.413366
 20
154.090192
 30
0.0
 11
137.105198
 21
155.683014
 31
0.0
  0
LINE
  5
29E
330
294
100
AcDbEntity
  8
100
  6
Continuous
 62
     7
370
    30
100
AcDbLine
 10
137.105198
 20
155.683014
 30
0.0
 11
132.694307
 21
156.540687
 31
0.0
  0
LINE
  5
29F
330
294
100
AcDbEntity
  8
100
  6
Continuous
 62
     7
370
    30
100
AcDbLine
 10
132.694307
 20
156.540687
 30
0.0
 11
127.180693
 21
157.64341
 31
0.0
  0
LINE
  5
2A0
330
294
100
AcDbEntity
  8
100
  6
Continuous
 62
     7
370
    30
100
AcDbLine
 10
127.180693
 20
157.64341
 30
0.0
 11
121.544554
 21
158.501083
 31
0.0
  0
LINE
  5
2A1
330
294
100
AcDbEntity
  8
100
  6
Continuous
 62
     7
370
    30
100
AcDbLine
 10
121.544554
 20
158.501083
 30
0.0
 11
115.295792
 21
159.358756
 31
0.0
  0
LINE
  5
2A2
330
294
100
AcDbEntity
  8
100
  6
Continuous
 62
     7
370
    30
100
AcDbLine
 10
115.295792
 20
159.358756
 30
0.0
 11
108.924505
 21
159.97138
 31
0.0
  0
LINE
  5
2A3
330
294
100
AcDbEntity
  8
100
  6
Continuous
 62
     7
370
    30
100
AcDbLine
 10
108.924505
 20
159.97138
 30
0.0
 11
101.57302
 21
160.584004
 31
0.0
  0
LINE
  5
2A4
330
294
100
AcDbEntity
  8
100
  6
Continuous
 62
     7
370
    30
100
AcDbLine
 10
101.57302
 20
160.584004
 30
0.0
 11
94.344059
 21
161.074103
 31
0.0
  0
LINE
  5
2A5
330
294
100
AcDbEntity
  8
100
  6
Continuous
 62
     7
370
    30
100
AcDbLine
 10
94.344059
 20
161.074103
 30
0.0
 11
87.972772
 21
161.074103
 31
0.0
  0
LINE
  5
2A6
330
294
100
AcDbEntity
  8
100
  6
Continuous
 62
     7
370
    30
100
AcDbLine
 10
87.972772
 20
161.074103
 30
0.0
 11
81.601485
 21
161.196627
 31
0.0
  0
LINE
  5
2A7
330
294
100
AcDbEntity
  8
100
  6
Continuous
 62
     7
370
    30
100
AcDbLine
 10
81.601485
 20
161.196627
 30
0.0
 11
75.475248
 21
161.074103
 31
0.0
  0
LINE
  5
2A8
330
294
100
AcDbEntity
  8
100
  6
Continuous
 62
     7
370
    30
100
AcDbLine
 10
75.475248
 20
161.074103
 30
0.0
 11
69.287748
 21
160.829053
 31
0.0
  0
LINE
  5
2A9
330
294
100
AcDbEntity
  8
100
  6
Continuous
 62
     7
370
    30
100
AcDbLine
 10
69.287748
 20
160.829053
 30
0.0
 11
61.875
 21
160.155167
 31
0.0
  0
LINE
  5
2AA
330
294
100
AcDbEntity
  8
100
  6
Continuous
 62
     7
370
    30
100
AcDbLine
 10
61.875
 20
160.155167
 30
0.0
 11
54.952351
 21
159.420019
 31
0.0
  0
LINE
  5
2AB
330
294
100
AcDbEntity
  8
100
  6
Continuous
 62
     7
370
    30
100
AcDbLine
 10
54.952351
 20
159.420019
 30
0.0
 11
50.112624
 21
158.746132
 31
0.0
  0
LINE
  5
2AC
330
294
100
AcDbEntity
  8
100
  6
Continuous
 62
     7
370
    30
100
AcDbLine
 10
50.112624
 20
158.746132
 30
0.0
 11
42.761139
 21
157.704672
 31
0.0
  0
LINE
  5
2AD
330
294
100
AcDbEntity
  8
100
  6
Continuous
 62
     7
370
    30
100
AcDbLine
 10
42.761139
 20
157.704672
 30
0.0
 11
38.41151
 21
156.601949
 31
0.0
  0
LINE
  5
2AE
330
294
100
AcDbEntity
  8
100
  6
Continuous
 62
     7
370
    30
100
AcDbLine
 10
38.41151
 20
156.601949
 30
0.0
 11
35.103342
 21
155.376702
 31
0.0
  0
LINE
  5
2AF
330
294
100
AcDbEntity
  8
100
  6
Continuous
 62
     7
370
    30
100
AcDbLine
 10
35.103342
 20
155.376702
 30
0.0
 11
32.959158
 21
154.090192
 31
0.0
  0
LINE
  5
2B0
330
294
100
AcDbEntity
  8
100
  6
Continuous
 62
     7
370
    30
100
AcDbLine
 10
32.959158
 20
154.090192
 30
0.0
 11
31.97896
 21
152.313583
 31
0.0
  0
LINE
  5
2B1
330
294
100
AcDbEntity
  8
100
  6
Continuous
 62
     7
370
    30
100
AcDbLine
 10
31.97896
 20
152.313583
 30
0.0
 11
32.407797
 21
150.414449
 31
0.0
  0
ENDBLK
  5
296
330
294
100
AcDbEntity
  8
0
100
AcDbBlockEnd
  0
BLOCK
  5
2B4
330
2B3
100
AcDbEntity
  8
0
100
AcDbBlockBegin
  2
G27
 70
     0
 10
0.0
 20
0.0
 30
0.0
  3
G27
  1

  0
LINE
  5
2B6
330
2B3
100
AcDbEntity
  8
100
  6
Continuous
 62
     7
370
    30
100
AcDbLine
 10
132.326733
 20
95.645885
 30
0.0
 11
132.326733
 21
100.975712
 31
0.0
  0
LINE
  5
2B7
330
2B3
100
AcDbEntity
  8
100
  6
Continuous
 62
     7
370
    30
100
AcDbLine
 10
132.326733
 20
100.975712
 30
0.0
 11
128.038366
 21
101.71086
 31
0.0
  0
LINE
  5
2B8
330
2B3
100
AcDbEntity
  8
100
  6
Continuous
 62
     7
370
    30
100
AcDbLine
 10
128.038366
 20
101.71086
 30
0.0
 11
123.014851
 21
102.200959
 31
0.0
  0
LINE
  5
2B9
330
2B3
100
AcDbEntity
  8
100
  6
Continuous
 62
     7
370
    30
100
AcDbLine
 10
123.014851
 20
102.200959
 30
0.0
 11
116.643564
 21
102.813583
 31
0.0
  0
LINE
  5
2BA
330
2B3
100
AcDbEntity
  8
100
  6
Continuous
 62
     7
370
    30
100
AcDbLine
 10
116.643564
 20
102.813583
 30
0.0
 11
110.762376
 21
102.936108
 31
0.0
  0
LINE
  5
2BB
330
2B3
100
AcDbEntity
  8
100
  6
Continuous
 62
     7
370
    30
100
AcDbLine
 10
110.762376
 20
102.936108
 30
0.0
 11
106.106436
 21
102.936108
 31
0.0
  0
LINE
  5
2BC
330
2B3
100
AcDbEntity
  8
100
  6
Continuous
 62
     7
370
    30
100
AcDbLine
 10
106.106436
 20
102.936108
 30
0.0
 11
97.529703
 21
103.181157
 31
0.0
  0
LINE
  5
2BD
330
2B3
100
AcDbEntity
  8
100
  6
Continuous
 62
     7
370
    30
100
AcDbLine
 10
97.529703
 20
103.181157
 30
0.0
 11
91.403465
 21
103.058632
 31
0.0
  0
LINE
  5
2BE
330
2B3
100
AcDbEntity
  8
100
  6
Continuous
 62
     7
370
    30
100
AcDbLine
 10
91.403465
 20
103.058632
 30
0.0
 11
86.134901
 21
103.426207
 31
0.0
  0
LINE
  5
2BF
330
2B3
100
AcDbEntity
  8
100
  6
Continuous
 62
     7
370
    30
100
AcDbLine
 10
86.134901
 20
103.426207
 30
0.0
 11
80.988861
 21
103.181157
 31
0.0
  0
LINE
  5
2C0
330
2B3
100
AcDbEntity
  8
100
  6
Continuous
 62
     7
370
    30
100
AcDbLine
 10
80.988861
 20
103.181157
 30
0.0
 11
80.743812
 21
104.528929
 31
0.0
  0
LINE
  5
2C1
330
2B3
100
AcDbEntity
  8
100
  6
Continuous
 62
     7
370
    30
100
AcDbLine
 10
80.743812
 20
104.528929
 30
0.0
 11
76.57797
 21
104.651454
 31
0.0
  0
LINE
  5
2C2
330
2B3
100
AcDbEntity
  8
100
  6
Continuous
 62
     7
370
    30
100
AcDbLine
 10
76.57797
 20
104.651454
 30
0.0
 11
76.608601
 21
103.349629
 31
0.0
  0
LINE
  5
2C3
330
2B3
100
AcDbEntity
  8
100
  6
Continuous
 62
     7
370
    30
100
AcDbLine
 10
76.608601
 20
103.349629
 30
0.0
 11
76.455446
 21
83.270885
 31
0.0
  0
LINE
  5
2C4
330
2B3
100
AcDbEntity
  8
100
  6
Continuous
 62
     7
370
    30
100
AcDbLine
 10
76.455446
 20
83.270885
 30
0.0
 11
76.945545
 21
68.44539
 31
0.0
  0
LINE
  5
2C5
330
2B3
100
AcDbEntity
  8
100
  6
Continuous
 62
     7
370
    30
100
AcDbLine
 10
76.945545
 20
68.44539
 30
0.0
 11
76.695037
 21
51.147007
 31
0.0
  0
ENDBLK
  5
2B5
330
2B3
100
AcDbEntity
  8
0
100
AcDbBlockEnd
  0
BLOCK
  5
2C8
330
2C7
100
AcDbEntity
  8
0
100
AcDbBlockBegin
  2
G28
 70
     0
 10
0.0
 20
0.0
 30
0.0
  3
G28
  1

  0
LINE
  5
2CA
330
2C7
100
AcDbEntity
  8
100
  6
Continuous
 62
     7
370
    30
100
AcDbLine
 10
35.470916
 20
52.578434
 30
0.0
 11
33.816832
 21
52.578434
 31
0.0
  0
LINE
  5
2CB
330
2C7
100
AcDbEntity
  8
100
  6
Continuous
 62
     7
370
    30
100
AcDbLine
 10
33.816832
 20
52.578434
 30
0.0
 11
32.040223
 21
52.517172
 31
0.0
  0
LINE
  5
2CC
330
2C7
100
AcDbEntity
  8
100
  6
Continuous
 62
     7
370
    30
100
AcDbLine
 10
32.040223
 20
52.517172
 30
0.0
 11
31.97896
 21
51.475712
 31
0.0
  0
LINE
  5
2CD
330
2C7
100
AcDbEntity
  8
100
  6
Continuous
 62
     7
370
    30
100
AcDbLine
 10
31.97896
 20
51.475712
 30
0.0
 11
32.346535
 21
50.863088
 31
0.0
  0
LINE
  5
2CE
330
2C7
100
AcDbEntity
  8
100
  6
Continuous
 62
     7
370
    30
100
AcDbLine
 10
32.346535
 20
50.863088
 30
0.0
 11
34.000619
 21
50.679301
 31
0.0
  0
LINE
  5
2CF
330
2C7
100
AcDbEntity
  8
100
  6
Continuous
 62
     7
370
    30
100
AcDbLine
 10
34.000619
 20
50.679301
 30
0.0
 11
36.328589
 21
50.556776
 31
0.0
  0
LINE
  5
2D0
330
2C7
100
AcDbEntity
  8
100
  6
Continuous
 62
     7
370
    30
100
AcDbLine
 10
36.328589
 20
50.556776
 30
0.0
 11
39.575495
 21
50.066677
 31
0.0
  0
LINE
  5
2D1
330
2C7
100
AcDbEntity
  8
100
  6
Continuous
 62
     7
370
    30
100
AcDbLine
 10
39.575495
 20
50.066677
 30
0.0
 11
42.883663
 21
49.699103
 31
0.0
  0
LINE
  5
2D2
330
2C7
100
AcDbEntity
  8
100
  6
Continuous
 62
     7
370
    30
100
AcDbLine
 10
42.883663
 20
49.699103
 30
0.0
 11
46.681931
 21
49.270266
 31
0.0
  0
LINE
  5
2D3
330
2C7
100
AcDbEntity
  8
100
  6
Continuous
 62
     7
370
    30
100
AcDbLine
 10
46.681931
 20
49.270266
 30
0.0
 11
58.505569
 21
48.657642
 31
0.0
  0
LINE
  5
2D4
330
2C7
100
AcDbEntity
  8
100
  6
Continuous
 62
     7
370
    30
100
AcDbLine
 10
58.505569
 20
48.657642
 30
0.0
 11
64.876856
 21
48.535118
 31
0.0
  0
LINE
  5
2D5
330
2C7
100
AcDbEntity
  8
100
  6
Continuous
 62
     7
370
    30
100
AcDbLine
 10
64.876856
 20
48.535118
 30
0.0
 11
72.350866
 21
48.535118
 31
0.0
  0
LINE
  5
2D6
330
2C7
100
AcDbEntity
  8
100
  6
Continuous
 62
     7
370
    30
100
AcDbLine
 10
72.350866
 20
48.535118
 30
0.0
 11
79.457302
 21
48.412593
 31
0.0
  0
LINE
  5
2D7
330
2C7
100
AcDbEntity
  8
100
  6
Continuous
 62
     7
370
    30
100
AcDbLine
 10
79.457302
 20
48.412593
 30
0.0
 11
86.686262
 21
48.290068
 31
0.0
  0
LINE
  5
2D8
330
2C7
100
AcDbEntity
  8
100
  6
Continuous
 62
     7
370
    30
100
AcDbLine
 10
86.686262
 20
48.290068
 30
0.0
 11
99.551361
 21
48.780167
 31
0.0
  0
LINE
  5
2D9
330
2C7
100
AcDbEntity
  8
100
  6
Continuous
 62
     7
370
    30
100
AcDbLine
 10
99.551361
 20
48.780167
 30
0.0
 11
107.270421
 21
48.535118
 31
0.0
  0
LINE
  5
2DA
330
2C7
100
AcDbEntity
  8
100
  6
Continuous
 62
     7
370
    30
100
AcDbLine
 10
107.270421
 20
48.535118
 30
0.0
 11
115.112005
 21
49.025217
 31
0.0
  0
LINE
  5
2DB
330
2C7
100
AcDbEntity
  8
100
  6
Continuous
 62
     7
370
    30
100
AcDbLine
 10
115.112005
 20
49.025217
 30
0.0
 11
126.139233
 21
49.63784
 31
0.0
  0
LINE
  5
2DC
330
2C7
100
AcDbEntity
  8
100
  6
Continuous
 62
     7
370
    30
100
AcDbLine
 10
126.139233
 20
49.63784
 30
0.0
 11
132.633045
 21
50.005415
 31
0.0
  0
LINE
  5
2DD
330
2C7
100
AcDbEntity
  8
100
  6
Continuous
 62
     7
370
    30
100
AcDbLine
 10
132.633045
 20
50.005415
 30
0.0
 11
136.676361
 21
50.740563
 31
0.0
  0
LINE
  5
2DE
330
2C7
100
AcDbEntity
  8
100
  6
Continuous
 62
     7
370
    30
100
AcDbLine
 10
136.676361
 20
50.740563
 30
0.0
 11
141.209777
 21
51.353187
 31
0.0
  0
LINE
  5
2DF
330
2C7
100
AcDbEntity
  8
100
  6
Continuous
 62
     7
370
    30
100
AcDbLine
 10
141.209777
 20
51.353187
 30
0.0
 11
142.06745
 21
51.414449
 31
0.0
  0
LINE
  5
2E0
330
2C7
100
AcDbEntity
  8
100
  6
Continuous
 62
     7
370
    30
100
AcDbLine
 10
142.06745
 20
51.414449
 30
0.0
 11
142.373762
 21
53.681157
 31
0.0
  0
LINE
  5
2E1
330
2C7
100
AcDbEntity
  8
100
  6
Continuous
 62
     7
370
    30
100
AcDbLine
 10
142.373762
 20
53.681157
 30
0.0
 11
141.209777
 21
54.048731
 31
0.0
  0
LINE
  5
2E2
330
2C7
100
AcDbEntity
  8
100
  6
Continuous
 62
     7
370
    30
100
AcDbLine
 10
141.209777
 20
54.048731
 30
0.0
 11
140.229579
 21
54.232519
 31
0.0
  0
LINE
  5
2E3
330
2C7
100
AcDbEntity
  8
100
  6
Continuous
 62
     7
370
    30
100
AcDbLine
 10
140.229579
 20
54.232519
 30
0.0
 11
140.229579
 21
53.49737
 31
0.0
  0
LINE
  5
2E4
330
2C7
100
AcDbEntity
  8
100
  6
Continuous
 62
     7
370
    30
100
AcDbLine
 10
140.229579
 20
53.49737
 30
0.0
 11
138.69802
 21
53.252321
 31
0.0
  0
LINE
  5
2E5
330
2C7
100
AcDbEntity
  8
100
  6
Continuous
 62
     7
370
    30
100
AcDbLine
 10
138.69802
 20
53.252321
 30
0.0
 11
136.063738
 21
53.313583
 31
0.0
  0
LINE
  5
2E6
330
2C7
100
AcDbEntity
  8
100
  6
Continuous
 62
     7
370
    30
100
AcDbLine
 10
136.063738
 20
53.313583
 30
0.0
 11
135.573639
 21
53.49737
 31
0.0
  0
LINE
  5
2E7
330
2C7
100
AcDbEntity
  8
100
  6
Continuous
 62
     7
370
    30
100
AcDbLine
 10
135.573639
 20
53.49737
 30
0.0
 11
135.389851
 21
54.845142
 31
0.0
  0
ENDBLK
  5
2C9
330
2C7
100
AcDbEntity
  8
0
100
AcDbBlockEnd
  0
BLOCK
  5
2EA
330
2E9
100
AcDbEntity
  8
0
100
AcDbBlockBegin
  2
G29
 70
     0
 10
0.0
 20
0.0
 30
0.0
  3
G29
  1

  0
LINE
  5
2EC
330
2E9
100
AcDbEntity
  8
100
  6
Continuous
 62
     7
370
    30
100
AcDbLine
 10
131.959158
 20
54.967667
 30
0.0
 11
132.020421
 21
53.681157
 31
0.0
  0
LINE
  5
2ED
330
2E9
100
AcDbEntity
  8
100
  6
Continuous
 62
     7
370
    30
100
AcDbLine
 10
132.020421
 20
53.681157
 30
0.0
 11
130.243812
 21
53.681157
 31
0.0
  0
LINE
  5
2EE
330
2E9
100
AcDbEntity
  8
100
  6
Continuous
 62
     7
370
    30
100
AcDbLine
 10
130.243812
 20
53.681157
 30
0.0
 11
123.259901
 21
52.762222
 31
0.0
  0
LINE
  5
2EF
330
2E9
100
AcDbEntity
  8
100
  6
Continuous
 62
     7
370
    30
100
AcDbLine
 10
123.259901
 20
52.762222
 30
0.0
 11
116.153465
 21
52.517172
 31
0.0
  0
LINE
  5
2F0
330
2E9
100
AcDbEntity
  8
100
  6
Continuous
 62
     7
370
    30
100
AcDbLine
 10
116.153465
 20
52.517172
 30
0.0
 11
108.189356
 21
51.659499
 31
0.0
  0
LINE
  5
2F1
330
2E9
100
AcDbEntity
  8
100
  6
Continuous
 62
     7
370
    30
100
AcDbLine
 10
108.189356
 20
51.659499
 30
0.0
 11
99.857673
 21
51.659499
 31
0.0
  0
LINE
  5
2F2
330
2E9
100
AcDbEntity
  8
100
  6
Continuous
 62
     7
370
    30
100
AcDbLine
 10
99.857673
 20
51.659499
 30
0.0
 11
91.158416
 21
51.414449
 31
0.0
  0
LINE
  5
2F3
330
2E9
100
AcDbEntity
  8
100
  6
Continuous
 62
     7
370
    30
100
AcDbLine
 10
91.158416
 20
51.414449
 30
0.0
 11
81.601485
 21
51.046875
 31
0.0
  0
LINE
  5
2F4
330
2E9
100
AcDbEntity
  8
100
  6
Continuous
 62
     7
370
    30
100
AcDbLine
 10
81.601485
 20
51.046875
 30
0.0
 11
75.597772
 21
51.1694
 31
0.0
  0
LINE
  5
2F5
330
2E9
100
AcDbEntity
  8
100
  6
Continuous
 62
     7
370
    30
100
AcDbLine
 10
75.597772
 20
51.1694
 30
0.0
 11
61.017327
 21
51.659499
 31
0.0
  0
LINE
  5
2F6
330
2E9
100
AcDbEntity
  8
100
  6
Continuous
 62
     7
370
    30
100
AcDbLine
 10
61.017327
 20
51.659499
 30
0.0
 11
51.215347
 21
51.904548
 31
0.0
  0
LINE
  5
2F7
330
2E9
100
AcDbEntity
  8
100
  6
Continuous
 62
     7
370
    30
100
AcDbLine
 10
51.215347
 20
51.904548
 30
0.0
 11
45.579208
 21
51.904548
 31
0.0
  0
LINE
  5
2F8
330
2E9
100
AcDbEntity
  8
100
  6
Continuous
 62
     7
370
    30
100
AcDbLine
 10
45.579208
 20
51.904548
 30
0.0
 11
39.575495
 21
51.904548
 31
0.0
  0
LINE
  5
2F9
330
2E9
100
AcDbEntity
  8
100
  6
Continuous
 62
     7
370
    30
100
AcDbLine
 10
39.575495
 20
51.904548
 30
0.0
 11
35.470916
 21
52.578434
 31
0.0
  0
ENDBLK
  5
2EB
330
2E9
100
AcDbEntity
  8
0
100
AcDbBlockEnd
  0
BLOCK
  5
2FC
330
2FB
100
AcDbEntity
  8
0
100
AcDbBlockBegin
  2
G30
 70
     0
 10
0.0
 20
0.0
 30
0.0
  3
G30
  1

  0
LINE
  5
2FE
330
2FB
100
AcDbEntity
  8
100
  6
Continuous
 62
     7
370
    30
100
AcDbLine
 10
40.4638
 20
98.326114
 30
0.0
 11
39.575495
 21
95.76841
 31
0.0
  0
LINE
  5
2FF
330
2FB
100
AcDbEntity
  8
100
  6
Continuous
 62
     7
370
    30
100
AcDbLine
 10
39.575495
 20
95.76841
 30
0.0
 11
39.45297
 21
86.701578
 31
0.0
  0
LINE
  5
300
330
2FB
100
AcDbEntity
  8
100
  6
Continuous
 62
     7
370
    30
100
AcDbLine
 10
39.45297
 20
86.701578
 30
0.0
 11
39.45297
 21
78.369895
 31
0.0
  0
LINE
  5
301
330
2FB
100
AcDbEntity
  8
100
  6
Continuous
 62
     7
370
    30
100
AcDbLine
 10
39.45297
 20
78.369895
 30
0.0
 11
39.330446
 21
72.366182
 31
0.0
  0
LINE
  5
302
330
2FB
100
AcDbEntity
  8
100
  6
Continuous
 62
     7
370
    30
100
AcDbLine
 10
39.330446
 20
72.366182
 30
0.0
 11
39.330446
 21
58.39836
 31
0.0
  0
LINE
  5
303
330
2FB
100
AcDbEntity
  8
100
  6
Continuous
 62
     7
370
    30
100
AcDbLine
 10
39.330446
 20
58.39836
 30
0.0
 11
39.575495
 21
51.904548
 31
0.0
  0
ENDBLK
  5
2FD
330
2FB
100
AcDbEntity
  8
0
100
AcDbBlockEnd
  0
BLOCK
  5
306
330
305
100
AcDbEntity
  8
0
100
AcDbBlockBegin
  2
G31
 70
     0
 10
0.0
 20
0.0
 30
0.0
  3
G31
  1

  0
LINE
  5
308
330
305
100
AcDbEntity
  8
100
  6
Continuous
 62
     7
370
    30
100
AcDbLine
 10
43.741337
 20
51.904548
 30
0.0
 11
43.251238
 21
72.733756
 31
0.0
  0
LINE
  5
309
330
305
100
AcDbEntity
  8
100
  6
Continuous
 62
     7
370
    30
100
AcDbLine
 10
43.251238
 20
72.733756
 30
0.0
 11
43.159344
 21
98.326114
 31
0.0
  0
ENDBLK
  5
307
330
305
100
AcDbEntity
  8
0
100
AcDbBlockEnd
  0
BLOCK
  5
30C
330
30B
100
AcDbEntity
  8
0
100
AcDbBlockBegin
  2
G32
 70
     0
 10
0.0
 20
0.0
 30
0.0
  3
G32
  1

  0
LINE
  5
30E
330
30B
100
AcDbEntity
  8
100
  6
Continuous
 62
     7
370
    30
100
AcDbLine
 10
80.988861
 20
103.181157
 30
0.0
 11
80.988861
 21
84.006033
 31
0.0
  0
LINE
  5
30F
330
30B
100
AcDbEntity
  8
100
  6
Continuous
 62
     7
370
    30
100
AcDbLine
 10
80.988861
 20
84.006033
 30
0.0
 11
80.988861
 21
72.488707
 31
0.0
  0
LINE
  5
310
330
30B
100
AcDbEntity
  8
100
  6
Continuous
 62
     7
370
    30
100
AcDbLine
 10
80.988861
 20
72.488707
 30
0.0
 11
81.601485
 21
51.046875
 31
0.0
  0
ENDBLK
  5
30D
330
30B
100
AcDbEntity
  8
0
100
AcDbBlockEnd
  0
BLOCK
  5
313
330
312
100
AcDbEntity
  8
0
100
AcDbBlockBegin
  2
G33
 70
     0
 10
0.0
 20
0.0
 30
0.0
  3
G33
  1

  0
LINE
  5
315
330
312
100
AcDbEntity
  8
100
  6
Continuous
 62
     7
370
    30
100
AcDbLine
 10
139.616955
 20
99.38289
 30
0.0
 11
139.923267
 21
85.598855
 31
0.0
  0
LINE
  5
316
330
312
100
AcDbEntity
  8
100
  6
Continuous
 62
     7
370
    30
100
AcDbLine
 10
139.923267
 20
85.598855
 30
0.0
 11
140.045792
 21
73.468905
 31
0.0
  0
LINE
  5
317
330
312
100
AcDbEntity
  8
100
  6
Continuous
 62
     7
370
    30
100
AcDbLine
 10
140.045792
 20
73.468905
 30
0.0
 11
140.229579
 21
54.232519
 31
0.0
  0
ENDBLK
  5
314
330
312
100
AcDbEntity
  8
0
100
AcDbBlockEnd
  0
BLOCK
  5
31A
330
319
100
AcDbEntity
  8
0
100
AcDbBlockBegin
  2
G34
 70
     0
 10
0.0
 20
0.0
 30
0.0
  3
G34
  1

  0
LINE
  5
31C
330
319
100
AcDbEntity
  8
100
  6
Continuous
 62
     7
370
    30
100
AcDbLine
 10
76.70237
 20
48.460092
 30
0.0
 11
76.82302
 21
41.734994
 31
0.0
  0
LINE
  5
31D
330
319
100
AcDbEntity
  8
100
  6
Continuous
 62
     7
370
    30
100
AcDbLine
 10
76.82302
 20
41.734994
 30
0.0
 11
77.068069
 21
34.628558
 31
0.0
  0
LINE
  5
31E
330
319
100
AcDbEntity
  8
100
  6
Continuous
 62
     7
370
    30
100
AcDbLine
 10
77.068069
 20
34.628558
 30
0.0
 11
77.435644
 21
28.134746
 31
0.0
  0
LINE
  5
31F
330
319
100
AcDbEntity
  8
100
  6
Continuous
 62
     7
370
    30
100
AcDbLine
 10
77.435644
 20
28.134746
 30
0.0
 11
77.925743
 21
21.150835
 31
0.0
  0
LINE
  5
320
330
319
100
AcDbEntity
  8
100
  6
Continuous
 62
     7
370
    30
100
AcDbLine
 10
77.925743
 20
21.150835
 30
0.0
 11
78.415842
 21
15.147123
 31
0.0
  0
LINE
  5
321
330
319
100
AcDbEntity
  8
100
  6
Continuous
 62
     7
370
    30
100
AcDbLine
 10
78.415842
 20
15.147123
 30
0.0
 11
79.518564
 21
9.265934
 31
0.0
  0
LINE
  5
322
330
319
100
AcDbEntity
  8
100
  6
Continuous
 62
     7
370
    30
100
AcDbLine
 10
79.518564
 20
9.265934
 30
0.0
 11
80.866337
 21
3.507271
 31
0.0
  0
LINE
  5
323
330
319
100
AcDbEntity
  8
100
  6
Continuous
 62
     7
370
    30
100
AcDbLine
 10
80.866337
 20
3.507271
 30
0.0
 11
81.969059
 21
-1.026145
 31
0.0
  0
LINE
  5
324
330
319
100
AcDbEntity
  8
100
  6
Continuous
 62
     7
370
    30
100
AcDbLine
 10
81.969059
 20
-1.026145
 30
0.0
 11
83.316832
 21
-3.844214
 31
0.0
  0
LINE
  5
325
330
319
100
AcDbEntity
  8
100
  6
Continuous
 62
     7
370
    30
100
AcDbLine
 10
83.316832
 20
-3.844214
 30
0.0
 11
84.787129
 21
-5.559561
 31
0.0
  0
LINE
  5
326
330
319
100
AcDbEntity
  8
100
  6
Continuous
 62
     7
370
    30
100
AcDbLine
 10
84.787129
 20
-5.559561
 30
0.0
 11
86.87005
 21
-6.04966
 31
0.0
  0
LINE
  5
327
330
319
100
AcDbEntity
  8
100
  6
Continuous
 62
     7
370
    30
100
AcDbLine
 10
86.87005
 20
-6.04966
 30
0.0
 11
89.075495
 21
-5.191986
 31
0.0
  0
LINE
  5
328
330
319
100
AcDbEntity
  8
100
  6
Continuous
 62
     7
370
    30
100
AcDbLine
 10
89.075495
 20
-5.191986
 30
0.0
 11
89.810644
 21
-3.23159
 31
0.0
  0
LINE
  5
329
330
319
100
AcDbEntity
  8
100
  6
Continuous
 62
     7
370
    30
100
AcDbLine
 10
89.810644
 20
-3.23159
 30
0.0
 11
89.688119
 21
-1.14867
 31
0.0
  0
LINE
  5
32A
330
319
100
AcDbEntity
  8
100
  6
Continuous
 62
     7
370
    30
100
AcDbLine
 10
89.688119
 20
-1.14867
 30
0.0
 11
90.607054
 21
0.0
 31
0.0
  0
LINE
  5
32B
330
319
100
AcDbEntity
  8
100
  6
Continuous
 62
     7
370
    30
100
AcDbLine
 10
90.607054
 20
0.0
 30
0.0
 11
91.035891
 21
1.240563
 31
0.0
  0
LINE
  5
32C
330
319
100
AcDbEntity
  8
100
  6
Continuous
 62
     7
370
    30
100
AcDbLine
 10
91.035891
 20
1.240563
 30
0.0
 11
91.832302
 21
3.507271
 31
0.0
  0
LINE
  5
32D
330
319
100
AcDbEntity
  8
100
  6
Continuous
 62
     7
370
    30
100
AcDbLine
 10
91.832302
 20
3.507271
 30
0.0
 11
92.751238
 21
7.734375
 31
0.0
  0
LINE
  5
32E
330
319
100
AcDbEntity
  8
100
  6
Continuous
 62
     7
370
    30
100
AcDbLine
 10
92.751238
 20
7.734375
 30
0.0
 11
93.302599
 21
10.246132
 31
0.0
  0
LINE
  5
32F
330
319
100
AcDbEntity
  8
100
  6
Continuous
 62
     7
370
    30
100
AcDbLine
 10
93.302599
 20
10.246132
 30
0.0
 11
91.832302
 21
10.123608
 31
0.0
  0
LINE
  5
330
330
319
100
AcDbEntity
  8
100
  6
Continuous
 62
     7
370
    30
100
AcDbLine
 10
91.832302
 20
10.123608
 30
0.0
 11
88.646658
 21
10.062345
 31
0.0
  0
LINE
  5
331
330
319
100
AcDbEntity
  8
100
  6
Continuous
 62
     7
370
    30
100
AcDbLine
 10
88.646658
 20
10.062345
 30
0.0
 11
88.646658
 21
7.795637
 31
0.0
  0
LINE
  5
332
330
319
100
AcDbEntity
  8
100
  6
Continuous
 62
     7
370
    30
100
AcDbLine
 10
88.646658
 20
7.795637
 30
0.0
 11
88.095297
 21
3.752321
 31
0.0
  0
LINE
  5
333
330
319
100
AcDbEntity
  8
100
  6
Continuous
 62
     7
370
    30
100
AcDbLine
 10
88.095297
 20
3.752321
 30
0.0
 11
87.727723
 21
1.240563
 31
0.0
  0
LINE
  5
334
330
319
100
AcDbEntity
  8
100
  6
Continuous
 62
     7
370
    30
100
AcDbLine
 10
87.727723
 20
1.240563
 30
0.0
 11
86.87005
 21
0.0
 31
0.0
  0
LINE
  5
335
330
319
100
AcDbEntity
  8
100
  6
Continuous
 62
     7
370
    30
100
AcDbLine
 10
86.87005
 20
0.0
 30
0.0
 11
86.37995
 21
0.0
 31
0.0
  0
LINE
  5
336
330
319
100
AcDbEntity
  8
100
  6
Continuous
 62
     7
370
    30
100
AcDbLine
 10
86.37995
 20
0.0
 30
0.0
 11
85.767327
 21
0.0
 31
0.0
  0
LINE
  5
337
330
319
100
AcDbEntity
  8
100
  6
Continuous
 62
     7
370
    30
100
AcDbLine
 10
85.767327
 20
0.0
 30
0.0
 11
85.093441
 21
3.017172
 31
0.0
  0
LINE
  5
338
330
319
100
AcDbEntity
  8
100
  6
Continuous
 62
     7
370
    30
100
AcDbLine
 10
85.093441
 20
3.017172
 30
0.0
 11
84.174505
 21
7.61185
 31
0.0
  0
LINE
  5
339
330
319
100
AcDbEntity
  8
100
  6
Continuous
 62
     7
370
    30
100
AcDbLine
 10
84.174505
 20
7.61185
 30
0.0
 11
83.623144
 21
12.145266
 31
0.0
  0
LINE
  5
33A
330
319
100
AcDbEntity
  8
100
  6
Continuous
 62
     7
370
    30
100
AcDbLine
 10
83.623144
 20
12.145266
 30
0.0
 11
82.887995
 21
19.864325
 31
0.0
  0
LINE
  5
33B
330
319
100
AcDbEntity
  8
100
  6
Continuous
 62
     7
370
    30
100
AcDbLine
 10
82.887995
 20
19.864325
 30
0.0
 11
82.397896
 21
29.666306
 31
0.0
  0
LINE
  5
33C
330
319
100
AcDbEntity
  8
100
  6
Continuous
 62
     7
370
    30
100
AcDbLine
 10
82.397896
 20
29.666306
 30
0.0
 11
81.907797
 21
39.345761
 31
0.0
  0
LINE
  5
33D
330
319
100
AcDbEntity
  8
100
  6
Continuous
 62
     7
370
    30
100
AcDbLine
 10
81.907797
 20
39.345761
 30
0.0
 11
81.660038
 21
48.375258
 31
0.0
  0
ENDBLK
  5
31B
330
319
100
AcDbEntity
  8
0
100
AcDbBlockEnd
  0
BLOCK
  5
340
330
33F
100
AcDbEntity
  8
0
100
AcDbBlockBegin
  2
G35
 70
     0
 10
0.0
 20
0.0
 30
0.0
  3
G35
  1

  0
LINE
  5
342
330
33F
100
AcDbEntity
  8
100
  6
Continuous
 62
     7
370
    30
100
AcDbLine
 10
86.441213
 20
-1.209932
 30
0.0
 11
88.034035
 21
0.0
 31
0.0
  0
LINE
  5
343
330
33F
100
AcDbEntity
  8
100
  6
Continuous
 62
     7
370
    30
100
AcDbLine
 10
88.034035
 20
0.0
 30
0.0
 11
88.401609
 21
-1.822556
 31
0.0
  0
LINE
  5
344
330
33F
100
AcDbEntity
  8
100
  6
Continuous
 62
     7
370
    30
100
AcDbLine
 10
88.401609
 20
-1.822556
 30
0.0
 11
89.688119
 21
-1.14867
 31
0.0
  0
ENDBLK
  5
341
330
33F
100
AcDbEntity
  8
0
100
AcDbBlockEnd
  0
BLOCK
  5
347
330
346
100
AcDbEntity
  8
0
100
AcDbBlockBegin
  2
G36
 70
     0
 10
0.0
 20
0.0
 30
0.0
  3
G36
  1

  0
LINE
  5
349
330
346
100
AcDbEntity
  8
100
  6
Continuous
 62
     7
370
    30
100
AcDbLine
 10
83.883495
 20
10.0046
 30
0.0
 11
88.646658
 21
10.062345
 31
0.0
  0
LINE
  5
34A
330
346
100
AcDbEntity
  8
100
  6
Continuous
 62
     7
370
    30
100
AcDbLine
 10
88.646658
 20
10.062345
 30
0.0
 11
93.302599
 21
10.246132
 31
0.0
  0
LINE
  5
34B
330
346
100
AcDbEntity
  8
100
  6
Continuous
 62
     7
370
    30
100
AcDbLine
 10
93.302599
 20
10.246132
 30
0.0
 11
99.061262
 21
11.287593
 31
0.0
  0
LINE
  5
34C
330
346
100
AcDbEntity
  8
100
  6
Continuous
 62
     7
370
    30
100
AcDbLine
 10
99.061262
 20
11.287593
 30
0.0
 11
103.472153
 21
12.880415
 31
0.0
  0
LINE
  5
34D
330
346
100
AcDbEntity
  8
100
  6
Continuous
 62
     7
370
    30
100
AcDbLine
 10
103.472153
 20
12.880415
 30
0.0
 11
108.618193
 21
14.963335
 31
0.0
  0
LINE
  5
34E
330
346
100
AcDbEntity
  8
100
  6
Continuous
 62
     7
370
    30
100
AcDbLine
 10
108.618193
 20
14.963335
 30
0.0
 11
113.519183
 21
18.148979
 31
0.0
  0
LINE
  5
34F
330
346
100
AcDbEntity
  8
100
  6
Continuous
 62
     7
370
    30
100
AcDbLine
 10
113.519183
 20
18.148979
 30
0.0
 11
117.685025
 21
21.824722
 31
0.0
  0
LINE
  5
350
330
346
100
AcDbEntity
  8
100
  6
Continuous
 62
     7
370
    30
100
AcDbLine
 10
117.685025
 20
21.824722
 30
0.0
 11
122.586015
 21
26.358137
 31
0.0
  0
LINE
  5
351
330
346
100
AcDbEntity
  8
100
  6
Continuous
 62
     7
370
    30
100
AcDbLine
 10
122.586015
 20
26.358137
 30
0.0
 11
125.771658
 21
30.891553
 31
0.0
  0
LINE
  5
352
330
346
100
AcDbEntity
  8
100
  6
Continuous
 62
     7
370
    30
100
AcDbLine
 10
125.771658
 20
30.891553
 30
0.0
 11
128.344678
 21
35.792543
 31
0.0
  0
LINE
  5
353
330
346
100
AcDbEntity
  8
100
  6
Continuous
 62
     7
370
    30
100
AcDbLine
 10
128.344678
 20
35.792543
 30
0.0
 11
129.814975
 21
40.693533
 31
0.0
  0
LINE
  5
354
330
346
100
AcDbEntity
  8
100
  6
Continuous
 62
     7
370
    30
100
AcDbLine
 10
129.814975
 20
40.693533
 30
0.0
 11
130.795173
 21
44.491801
 31
0.0
  0
LINE
  5
355
330
346
100
AcDbEntity
  8
100
  6
Continuous
 62
     7
370
    30
100
AcDbLine
 10
130.795173
 20
44.491801
 30
0.0
 11
131.533844
 21
49.943196
 31
0.0
  0
ENDBLK
  5
348
330
346
100
AcDbEntity
  8
0
100
AcDbBlockEnd
  0
BLOCK
  5
358
330
357
100
AcDbEntity
  8
0
100
AcDbBlockBegin
  2
G37
 70
     0
 10
0.0
 20
0.0
 30
0.0
  3
G37
  1

  0
LINE
  5
35A
330
357
100
AcDbEntity
  8
100
  6
Continuous
 62
     7
370
    30
100
AcDbLine
 10
136.676361
 20
50.740563
 30
0.0
 11
135.941213
 21
49.147741
 31
0.0
  0
LINE
  5
35B
330
357
100
AcDbEntity
  8
100
  6
Continuous
 62
     7
370
    30
100
AcDbLine
 10
135.941213
 20
49.147741
 30
0.0
 11
136.063738
 21
47.432395
 31
0.0
  0
LINE
  5
35C
330
357
100
AcDbEntity
  8
100
  6
Continuous
 62
     7
370
    30
100
AcDbLine
 10
136.063738
 20
47.432395
 30
0.0
 11
136.063738
 21
43.756652
 31
0.0
  0
LINE
  5
35D
330
357
100
AcDbEntity
  8
100
  6
Continuous
 62
     7
370
    30
100
AcDbLine
 10
136.063738
 20
43.756652
 30
0.0
 11
135.451114
 21
38.733137
 31
0.0
  0
LINE
  5
35E
330
357
100
AcDbEntity
  8
100
  6
Continuous
 62
     7
370
    30
100
AcDbLine
 10
135.451114
 20
38.733137
 30
0.0
 11
133.858292
 21
32.36185
 31
0.0
  0
LINE
  5
35F
330
357
100
AcDbEntity
  8
100
  6
Continuous
 62
     7
370
    30
100
AcDbLine
 10
133.858292
 20
32.36185
 30
0.0
 11
132.142946
 21
28.257271
 31
0.0
  0
LINE
  5
360
330
357
100
AcDbEntity
  8
100
  6
Continuous
 62
     7
370
    30
100
AcDbLine
 10
132.142946
 20
28.257271
 30
0.0
 11
130.611386
 21
24.520266
 31
0.0
  0
LINE
  5
361
330
357
100
AcDbEntity
  8
100
  6
Continuous
 62
     7
370
    30
100
AcDbLine
 10
130.611386
 20
24.520266
 30
0.0
 11
128.834777
 21
21.089573
 31
0.0
  0
LINE
  5
362
330
357
100
AcDbEntity
  8
100
  6
Continuous
 62
     7
370
    30
100
AcDbLine
 10
128.834777
 20
21.089573
 30
0.0
 11
126.813119
 21
18.210241
 31
0.0
  0
LINE
  5
363
330
357
100
AcDbEntity
  8
100
  6
Continuous
 62
     7
370
    30
100
AcDbLine
 10
126.813119
 20
18.210241
 30
0.0
 11
124.301361
 21
15.208385
 31
0.0
  0
LINE
  5
364
330
357
100
AcDbEntity
  8
100
  6
Continuous
 62
     7
370
    30
100
AcDbLine
 10
124.301361
 20
15.208385
 30
0.0
 11
121.973391
 21
12.51284
 31
0.0
  0
LINE
  5
365
330
357
100
AcDbEntity
  8
100
  6
Continuous
 62
     7
370
    30
100
AcDbLine
 10
121.973391
 20
12.51284
 30
0.0
 11
119.461634
 21
9.756033
 31
0.0
  0
LINE
  5
366
330
357
100
AcDbEntity
  8
100
  6
Continuous
 62
     7
370
    30
100
AcDbLine
 10
119.461634
 20
9.756033
 30
0.0
 11
117.133663
 21
7.918162
 31
0.0
  0
LINE
  5
367
330
357
100
AcDbEntity
  8
100
  6
Continuous
 62
     7
370
    30
100
AcDbLine
 10
117.133663
 20
7.918162
 30
0.0
 11
114.744431
 21
6.019028
 31
0.0
  0
LINE
  5
368
330
357
100
AcDbEntity
  8
100
  6
Continuous
 62
     7
370
    30
100
AcDbLine
 10
114.744431
 20
6.019028
 30
0.0
 11
112.048886
 21
4.303682
 31
0.0
  0
LINE
  5
369
330
357
100
AcDbEntity
  8
100
  6
Continuous
 62
     7
370
    30
100
AcDbLine
 10
112.048886
 20
4.303682
 30
0.0
 11
109.720916
 21
3.017172
 31
0.0
  0
LINE
  5
36A
330
357
100
AcDbEntity
  8
100
  6
Continuous
 62
     7
370
    30
100
AcDbLine
 10
109.720916
 20
3.017172
 30
0.0
 11
107.025371
 21
1.546875
 31
0.0
  0
LINE
  5
36B
330
357
100
AcDbEntity
  8
100
  6
Continuous
 62
     7
370
    30
100
AcDbLine
 10
107.025371
 20
1.546875
 30
0.0
 11
103.227104
 21
0.0
 31
0.0
  0
LINE
  5
36C
330
357
100
AcDbEntity
  8
100
  6
Continuous
 62
     7
370
    30
100
AcDbLine
 10
103.227104
 20
0.0
 30
0.0
 11
99.796411
 21
-0.90362
 31
0.0
  0
LINE
  5
36D
330
357
100
AcDbEntity
  8
100
  6
Continuous
 62
     7
370
    30
100
AcDbLine
 10
99.796411
 20
-0.90362
 30
0.0
 11
97.100866
 21
-1.761293
 31
0.0
  0
LINE
  5
36E
330
357
100
AcDbEntity
  8
100
  6
Continuous
 62
     7
370
    30
100
AcDbLine
 10
97.100866
 20
-1.761293
 30
0.0
 11
94.527847
 21
-2.312655
 31
0.0
  0
LINE
  5
36F
330
357
100
AcDbEntity
  8
100
  6
Continuous
 62
     7
370
    30
100
AcDbLine
 10
94.527847
 20
-2.312655
 30
0.0
 11
91.709777
 21
-2.496442
 31
0.0
  0
LINE
  5
370
330
357
100
AcDbEntity
  8
100
  6
Continuous
 62
     7
370
    30
100
AcDbLine
 10
91.709777
 20
-2.496442
 30
0.0
 11
89.771562
 21
-2.56721
 31
0.0
  0
ENDBLK
  5
359
330
357
100
AcDbEntity
  8
0
100
AcDbBlockEnd
  0
BLOCK
  5
373
330
372
100
AcDbEntity
  8
0
100
AcDbBlockBegin
  2
G38
 70
     0
 10
0.0
 20
0.0
 30
0.0
  3
G38
  1

  0
LINE
  5
375
330
372
100
AcDbEntity
  8
100
  6
Continuous
 62
     7
370
    30
100
AcDbLine
 10
44.039827
 20
49.568568
 30
0.0
 11
44.782797
 21
45.226949
 31
0.0
  0
LINE
  5
376
330
372
100
AcDbEntity
  8
100
  6
Continuous
 62
     7
370
    30
100
AcDbLine
 10
44.782797
 20
45.226949
 30
0.0
 11
46.008045
 21
40.203434
 31
0.0
  0
LINE
  5
377
330
372
100
AcDbEntity
  8
100
  6
Continuous
 62
     7
370
    30
100
AcDbLine
 10
46.008045
 20
40.203434
 30
0.0
 11
47.968441
 21
36.037593
 31
0.0
  0
LINE
  5
378
330
372
100
AcDbEntity
  8
100
  6
Continuous
 62
     7
370
    30
100
AcDbLine
 10
47.968441
 20
36.037593
 30
0.0
 11
49.928837
 21
31.994276
 31
0.0
  0
LINE
  5
379
330
372
100
AcDbEntity
  8
100
  6
Continuous
 62
     7
370
    30
100
AcDbLine
 10
49.928837
 20
31.994276
 30
0.0
 11
52.134282
 21
28.441058
 31
0.0
  0
LINE
  5
37A
330
372
100
AcDbEntity
  8
100
  6
Continuous
 62
     7
370
    30
100
AcDbLine
 10
52.134282
 20
28.441058
 30
0.0
 11
55.074876
 21
24.275217
 31
0.0
  0
LINE
  5
37B
330
372
100
AcDbEntity
  8
100
  6
Continuous
 62
     7
370
    30
100
AcDbLine
 10
55.074876
 20
24.275217
 30
0.0
 11
59.853342
 21
20.2319
 31
0.0
  0
LINE
  5
37C
330
372
100
AcDbEntity
  8
100
  6
Continuous
 62
     7
370
    30
100
AcDbLine
 10
59.853342
 20
20.2319
 30
0.0
 11
64.876856
 21
16.801207
 31
0.0
  0
LINE
  5
37D
330
372
100
AcDbEntity
  8
100
  6
Continuous
 62
     7
370
    30
100
AcDbLine
 10
64.876856
 20
16.801207
 30
0.0
 11
68.613861
 21
14.718286
 31
0.0
  0
LINE
  5
37E
330
372
100
AcDbEntity
  8
100
  6
Continuous
 62
     7
370
    30
100
AcDbLine
 10
68.613861
 20
14.718286
 30
0.0
 11
71.370668
 21
13.431776
 31
0.0
  0
LINE
  5
37F
330
372
100
AcDbEntity
  8
100
  6
Continuous
 62
     7
370
    30
100
AcDbLine
 10
71.370668
 20
13.431776
 30
0.0
 11
74.556312
 21
12.329053
 31
0.0
  0
LINE
  5
380
330
372
100
AcDbEntity
  8
100
  6
Continuous
 62
     7
370
    30
100
AcDbLine
 10
74.556312
 20
12.329053
 30
0.0
 11
76.700495
 21
11.838954
 31
0.0
  0
LINE
  5
381
330
372
100
AcDbEntity
  8
100
  6
Continuous
 62
     7
370
    30
100
AcDbLine
 10
76.700495
 20
11.838954
 30
0.0
 11
79.113539
 21
11.426069
 31
0.0
  0
ENDBLK
  5
374
330
372
100
AcDbEntity
  8
0
100
AcDbBlockEnd
  0
BLOCK
  5
384
330
383
100
AcDbEntity
  8
0
100
AcDbBlockBegin
  2
G39
 70
     0
 10
0.0
 20
0.0
 30
0.0
  3
G39
  1

  0
LINE
  5
386
330
383
100
AcDbEntity
  8
100
  6
Continuous
 62
     7
370
    30
100
AcDbLine
 10
82.501948
 20
-2.140366
 30
0.0
 11
81.050124
 21
-2.312655
 31
0.0
  0
LINE
  5
387
330
383
100
AcDbEntity
  8
100
  6
Continuous
 62
     7
370
    30
100
AcDbLine
 10
81.050124
 20
-2.312655
 30
0.0
 11
76.210396
 21
-0.964882
 31
0.0
  0
LINE
  5
388
330
383
100
AcDbEntity
  8
100
  6
Continuous
 62
     7
370
    30
100
AcDbLine
 10
76.210396
 20
-0.964882
 30
0.0
 11
71.431931
 21
0.934251
 31
0.0
  0
LINE
  5
389
330
383
100
AcDbEntity
  8
100
  6
Continuous
 62
     7
370
    30
100
AcDbLine
 10
71.431931
 20
0.934251
 30
0.0
 11
67.878713
 21
2.71086
 31
0.0
  0
LINE
  5
38A
330
383
100
AcDbEntity
  8
100
  6
Continuous
 62
     7
370
    30
100
AcDbLine
 10
67.878713
 20
2.71086
 30
0.0
 11
63.284035
 21
5.467667
 31
0.0
  0
LINE
  5
38B
330
383
100
AcDbEntity
  8
100
  6
Continuous
 62
     7
370
    30
100
AcDbLine
 10
63.284035
 20
5.467667
 30
0.0
 11
58.628094
 21
8.89836
 31
0.0
  0
LINE
  5
38C
330
383
100
AcDbEntity
  8
100
  6
Continuous
 62
     7
370
    30
100
AcDbLine
 10
58.628094
 20
8.89836
 30
0.0
 11
54.523515
 21
12.819152
 31
0.0
  0
LINE
  5
38D
330
383
100
AcDbEntity
  8
100
  6
Continuous
 62
     7
370
    30
100
AcDbLine
 10
54.523515
 20
12.819152
 30
0.0
 11
51.460396
 21
16.127321
 31
0.0
  0
LINE
  5
38E
330
383
100
AcDbEntity
  8
100
  6
Continuous
 62
     7
370
    30
100
AcDbLine
 10
51.460396
 20
16.127321
 30
0.0
 11
49.132426
 21
19.190439
 31
0.0
  0
LINE
  5
38F
330
383
100
AcDbEntity
  8
100
  6
Continuous
 62
     7
370
    30
100
AcDbLine
 10
49.132426
 20
19.190439
 30
0.0
 11
46.92698
 21
22.866182
 31
0.0
  0
LINE
  5
390
330
383
100
AcDbEntity
  8
100
  6
Continuous
 62
     7
370
    30
100
AcDbLine
 10
46.92698
 20
22.866182
 30
0.0
 11
45.150371
 21
26.17435
 31
0.0
  0
LINE
  5
391
330
383
100
AcDbEntity
  8
100
  6
Continuous
 62
     7
370
    30
100
AcDbLine
 10
45.150371
 20
26.17435
 30
0.0
 11
43.435025
 21
30.03388
 31
0.0
  0
LINE
  5
392
330
383
100
AcDbEntity
  8
100
  6
Continuous
 62
     7
370
    30
100
AcDbLine
 10
43.435025
 20
30.03388
 30
0.0
 11
41.903465
 21
34.996132
 31
0.0
  0
LINE
  5
393
330
383
100
AcDbEntity
  8
100
  6
Continuous
 62
     7
370
    30
100
AcDbLine
 10
41.903465
 20
34.996132
 30
0.0
 11
41.107054
 21
39.161974
 31
0.0
  0
LINE
  5
394
330
383
100
AcDbEntity
  8
100
  6
Continuous
 62
     7
370
    30
100
AcDbLine
 10
41.107054
 20
39.161974
 30
0.0
 11
40.371906
 21
43.266553
 31
0.0
  0
LINE
  5
395
330
383
100
AcDbEntity
  8
100
  6
Continuous
 62
     7
370
    30
100
AcDbLine
 10
40.371906
 20
43.266553
 30
0.0
 11
40.065594
 21
46.329672
 31
0.0
  0
LINE
  5
396
330
383
100
AcDbEntity
  8
100
  6
Continuous
 62
     7
370
    30
100
AcDbLine
 10
40.065594
 20
46.329672
 30
0.0
 11
39.575495
 21
50.066677
 31
0.0
  0
ENDBLK
  5
385
330
383
100
AcDbEntity
  8
0
100
AcDbBlockEnd
  0
BLOCK
  5
399
330
398
100
AcDbEntity
  8
0
100
AcDbBlockBegin
  2
G40
 70
     0
 10
0.0
 20
0.0
 30
0.0
  3
G40
  1

  0
LINE
  5
39B
330
398
100
AcDbEntity
  8
100
  6
Continuous
 62
     7
370
    30
100
AcDbLine
 10
35.714442
 20
50.5891
 30
0.0
 11
35.777228
 21
47.922494
 31
0.0
  0
LINE
  5
39C
330
398
100
AcDbEntity
  8
100
  6
Continuous
 62
     7
370
    30
100
AcDbLine
 10
35.777228
 20
47.922494
 30
0.0
 11
36.389851
 21
42.837717
 31
0.0
  0
LINE
  5
39D
330
398
100
AcDbEntity
  8
100
  6
Continuous
 62
     7
370
    30
100
AcDbLine
 10
36.389851
 20
42.837717
 30
0.0
 11
37.247525
 21
38.54935
 31
0.0
  0
LINE
  5
39E
330
398
100
AcDbEntity
  8
100
  6
Continuous
 62
     7
370
    30
100
AcDbLine
 10
37.247525
 20
38.54935
 30
0.0
 11
38.901609
 21
32.913212
 31
0.0
  0
LINE
  5
39F
330
398
100
AcDbEntity
  8
100
  6
Continuous
 62
     7
370
    30
100
AcDbLine
 10
38.901609
 20
32.913212
 30
0.0
 11
40.371906
 21
28.441058
 31
0.0
  0
LINE
  5
3A0
330
398
100
AcDbEntity
  8
100
  6
Continuous
 62
     7
370
    30
100
AcDbLine
 10
40.371906
 20
28.441058
 30
0.0
 11
41.780941
 21
25.13289
 31
0.0
  0
LINE
  5
3A1
330
398
100
AcDbEntity
  8
100
  6
Continuous
 62
     7
370
    30
100
AcDbLine
 10
41.780941
 20
25.13289
 30
0.0
 11
43.435025
 21
22.192296
 31
0.0
  0
LINE
  5
3A2
330
398
100
AcDbEntity
  8
100
  6
Continuous
 62
     7
370
    30
100
AcDbLine
 10
43.435025
 20
22.192296
 30
0.0
 11
45.395421
 21
18.822865
 31
0.0
  0
LINE
  5
3A3
330
398
100
AcDbEntity
  8
100
  6
Continuous
 62
     7
370
    30
100
AcDbLine
 10
45.395421
 20
18.822865
 30
0.0
 11
47.723391
 21
15.147123
 31
0.0
  0
LINE
  5
3A4
330
398
100
AcDbEntity
  8
100
  6
Continuous
 62
     7
370
    30
100
AcDbLine
 10
47.723391
 20
15.147123
 30
0.0
 11
49.867574
 21
12.51284
 31
0.0
  0
LINE
  5
3A5
330
398
100
AcDbEntity
  8
100
  6
Continuous
 62
     7
370
    30
100
AcDbLine
 10
49.867574
 20
12.51284
 30
0.0
 11
51.950495
 21
10.246132
 31
0.0
  0
LINE
  5
3A6
330
398
100
AcDbEntity
  8
100
  6
Continuous
 62
     7
370
    30
100
AcDbLine
 10
51.950495
 20
10.246132
 30
0.0
 11
55.748762
 21
6.937964
 31
0.0
  0
LINE
  5
3A7
330
398
100
AcDbEntity
  8
100
  6
Continuous
 62
     7
370
    30
100
AcDbLine
 10
55.748762
 20
6.937964
 30
0.0
 11
58.321782
 21
4.548731
 31
0.0
  0
LINE
  5
3A8
330
398
100
AcDbEntity
  8
100
  6
Continuous
 62
     7
370
    30
100
AcDbLine
 10
58.321782
 20
4.548731
 30
0.0
 11
60.894802
 21
2.649598
 31
0.0
  0
LINE
  5
3A9
330
398
100
AcDbEntity
  8
100
  6
Continuous
 62
     7
370
    30
100
AcDbLine
 10
60.894802
 20
2.649598
 30
0.0
 11
64.264233
 21
0.689202
 31
0.0
  0
LINE
  5
3AA
330
398
100
AcDbEntity
  8
100
  6
Continuous
 62
     7
370
    30
100
AcDbLine
 10
64.264233
 20
0.689202
 30
0.0
 11
68.430074
 21
-2.006343
 31
0.0
  0
LINE
  5
3AB
330
398
100
AcDbEntity
  8
100
  6
Continuous
 62
     7
370
    30
100
AcDbLine
 10
68.430074
 20
-2.006343
 30
0.0
 11
71.125619
 21
-3.109066
 31
0.0
  0
LINE
  5
3AC
330
398
100
AcDbEntity
  8
100
  6
Continuous
 62
     7
370
    30
100
AcDbLine
 10
71.125619
 20
-3.109066
 30
0.0
 11
74.556312
 21
-4.640625
 31
0.0
  0
LINE
  5
3AD
330
398
100
AcDbEntity
  8
100
  6
Continuous
 62
     7
370
    30
100
AcDbLine
 10
74.556312
 20
-4.640625
 30
0.0
 11
77.558168
 21
-5.498298
 31
0.0
  0
LINE
  5
3AE
330
398
100
AcDbEntity
  8
100
  6
Continuous
 62
     7
370
    30
100
AcDbLine
 10
77.558168
 20
-5.498298
 30
0.0
 11
81.601485
 21
-6.233447
 31
0.0
  0
LINE
  5
3AF
330
398
100
AcDbEntity
  8
100
  6
Continuous
 62
     7
370
    30
100
AcDbLine
 10
81.601485
 20
-6.233447
 30
0.0
 11
85.461015
 21
-6.478496
 31
0.0
  0
LINE
  5
3B0
330
398
100
AcDbEntity
  8
100
  6
Continuous
 62
     7
370
    30
100
AcDbLine
 10
85.461015
 20
-6.478496
 30
0.0
 11
89.933168
 21
-6.601021
 31
0.0
  0
LINE
  5
3B1
330
398
100
AcDbEntity
  8
100
  6
Continuous
 62
     7
370
    30
100
AcDbLine
 10
89.933168
 20
-6.601021
 30
0.0
 11
94.160272
 21
-6.417234
 31
0.0
  0
LINE
  5
3B2
330
398
100
AcDbEntity
  8
100
  6
Continuous
 62
     7
370
    30
100
AcDbLine
 10
94.160272
 20
-6.417234
 30
0.0
 11
97.162129
 21
-5.927135
 31
0.0
  0
LINE
  5
3B3
330
398
100
AcDbEntity
  8
100
  6
Continuous
 62
     7
370
    30
100
AcDbLine
 10
97.162129
 20
-5.927135
 30
0.0
 11
101.389233
 21
-4.946937
 31
0.0
  0
LINE
  5
3B4
330
398
100
AcDbEntity
  8
100
  6
Continuous
 62
     7
370
    30
100
AcDbLine
 10
101.389233
 20
-4.946937
 30
0.0
 11
105.43255
 21
-3.292853
 31
0.0
  0
LINE
  5
3B5
330
398
100
AcDbEntity
  8
100
  6
Continuous
 62
     7
370
    30
100
AcDbLine
 10
105.43255
 20
-3.292853
 30
0.0
 11
109.169554
 21
-1.638769
 31
0.0
  0
LINE
  5
3B6
330
398
100
AcDbEntity
  8
100
  6
Continuous
 62
     7
370
    30
100
AcDbLine
 10
109.169554
 20
-1.638769
 30
0.0
 11
113.94802
 21
0.872989
 31
0.0
  0
LINE
  5
3B7
330
398
100
AcDbEntity
  8
100
  6
Continuous
 62
     7
370
    30
100
AcDbLine
 10
113.94802
 20
0.872989
 30
0.0
 11
117.133663
 21
3.323484
 31
0.0
  0
LINE
  5
3B8
330
398
100
AcDbEntity
  8
100
  6
Continuous
 62
     7
370
    30
100
AcDbLine
 10
117.133663
 20
3.323484
 30
0.0
 11
120.196782
 21
5.957766
 31
0.0
  0
LINE
  5
3B9
330
398
100
AcDbEntity
  8
100
  6
Continuous
 62
     7
370
    30
100
AcDbLine
 10
120.196782
 20
5.957766
 30
0.0
 11
123.50495
 21
8.837098
 31
0.0
  0
LINE
  5
3BA
330
398
100
AcDbEntity
  8
100
  6
Continuous
 62
     7
370
    30
100
AcDbLine
 10
123.50495
 20
8.837098
 30
0.0
 11
127.241955
 21
13.064202
 31
0.0
  0
LINE
  5
3BB
330
398
100
AcDbEntity
  8
100
  6
Continuous
 62
     7
370
    30
100
AcDbLine
 10
127.241955
 20
13.064202
 30
0.0
 11
130.427599
 21
17.046256
 31
0.0
  0
LINE
  5
3BC
330
398
100
AcDbEntity
  8
100
  6
Continuous
 62
     7
370
    30
100
AcDbLine
 10
130.427599
 20
17.046256
 30
0.0
 11
132.816832
 21
20.844524
 31
0.0
  0
LINE
  5
3BD
330
398
100
AcDbEntity
  8
100
  6
Continuous
 62
     7
370
    30
100
AcDbLine
 10
132.816832
 20
20.844524
 30
0.0
 11
134.593441
 21
24.826578
 31
0.0
  0
LINE
  5
3BE
330
398
100
AcDbEntity
  8
100
  6
Continuous
 62
     7
370
    30
100
AcDbLine
 10
134.593441
 20
24.826578
 30
0.0
 11
136.798886
 21
30.401454
 31
0.0
  0
LINE
  5
3BF
330
398
100
AcDbEntity
  8
100
  6
Continuous
 62
     7
370
    30
100
AcDbLine
 10
136.798886
 20
30.401454
 30
0.0
 11
138.45297
 21
35.97633
 31
0.0
  0
LINE
  5
3C0
330
398
100
AcDbEntity
  8
100
  6
Continuous
 62
     7
370
    30
100
AcDbLine
 10
138.45297
 20
35.97633
 30
0.0
 11
139.310644
 21
40.387222
 31
0.0
  0
LINE
  5
3C1
330
398
100
AcDbEntity
  8
100
  6
Continuous
 62
     7
370
    30
100
AcDbLine
 10
139.310644
 20
40.387222
 30
0.0
 11
139.98453
 21
44.859375
 31
0.0
  0
LINE
  5
3C2
330
398
100
AcDbEntity
  8
100
  6
Continuous
 62
     7
370
    30
100
AcDbLine
 10
139.98453
 20
44.859375
 30
0.0
 11
140.045792
 21
48.902692
 31
0.0
  0
LINE
  5
3C3
330
398
100
AcDbEntity
  8
100
  6
Continuous
 62
     7
370
    30
100
AcDbLine
 10
140.045792
 20
48.902692
 30
0.0
 11
139.973982
 21
51.186188
 31
0.0
  0
ENDBLK
  5
39A
330
398
100
AcDbEntity
  8
0
100
AcDbBlockEnd
  0
ENDSEC
  0
SECTION
  2
ENTITIES
  0
INSERT
  5
3C5
330
1F
100
AcDbEntity
  8
0
100
AcDbBlockReference
  2
G1
 10
0.0
 20
0.0
 30
0.0
  0
LINE
  5
3C6
330
1F
100
AcDbEntity
  8
101
  6
Continuous
 62
     7
370
    30
100
AcDbLine
 10
140.045792
 20
48.902692
 30
0.0
 11
139.973982
 21
51.186188
 31
0.0
  0
LINE
  5
3C7
330
1F
100
AcDbEntity
  8
101
  6
Continuous
 62
     7
370
    30
100
AcDbLine
 10
139.98453
 20
44.859375
 30
0.0
 11
140.045792
 21
48.902692
 31
0.0
  0
LINE
  5
3C8
330
1F
100
AcDbEntity
  8
101
  6
Continuous
 62
     7
370
    30
100
AcDbLine
 10
139.310644
 20
40.387222
 30
0.0
 11
139.98453
 21
44.859375
 31
0.0
  0
LINE
  5
3C9
330
1F
100
AcDbEntity
  8
101
  6
Continuous
 62
     7
370
    30
100
AcDbLine
 10
138.45297
 20
35.97633
 30
0.0
 11
139.310644
 21
40.387222
 31
0.0
  0
LINE
  5
3CA
330
1F
100
AcDbEntity
  8
101
  6
Continuous
 62
     7
370
    30
100
AcDbLine
 10
136.798886
 20
30.401454
 30
0.0
 11
138.45297
 21
35.97633
 31
0.0
  0
LINE
  5
3CB
330
1F
100
AcDbEntity
  8
101
  6
Continuous
 62
     7
370
    30
100
AcDbLine
 10
134.593441
 20
24.826578
 30
0.0
 11
136.798886
 21
30.401454
 31
0.0
  0
LINE
  5
3CC
330
1F
100
AcDbEntity
  8
101
  6
Continuous
 62
     7
370
    30
100
AcDbLine
 10
132.816832
 20
20.844524
 30
0.0
 11
134.593441
 21
24.826578
 31
0.0
  0
LINE
  5
3CD
330
1F
100
AcDbEntity
  8
101
  6
Continuous
 62
     7
370
    30
100
AcDbLine
 10
130.427599
 20
17.046256
 30
0.0
 11
132.816832
 21
20.844524
 31
0.0
  0
LINE
  5
3CE
330
1F
100
AcDbEntity
  8
101
  6
Continuous
 62
     7
370
    30
100
AcDbLine
 10
127.241955
 20
13.064202
 30
0.0
 11
130.427599
 21
17.046256
 31
0.0
  0
LINE
  5
3CF
330
1F
100
AcDbEntity
  8
101
  6
Continuous
 62
     7
370
    30
100
AcDbLine
 10
123.50495
 20
8.837098
 30
0.0
 11
127.241955
 21
13.064202
 31
0.0
  0
LINE
  5
3D0
330
1F
100
AcDbEntity
  8
101
  6
Continuous
 62
     7
370
    30
100
AcDbLine
 10
120.196782
 20
5.957766
 30
0.0
 11
123.50495
 21
8.837098
 31
0.0
  0
LINE
  5
3D1
330
1F
100
AcDbEntity
  8
101
  6
Continuous
 62
     7
370
    30
100
AcDbLine
 10
117.133663
 20
3.323484
 30
0.0
 11
120.196782
 21
5.957766
 31
0.0
  0
LINE
  5
3D2
330
1F
100
AcDbEntity
  8
101
  6
Continuous
 62
     7
370
    30
100
AcDbLine
 10
113.94802
 20
0.872989
 30
0.0
 11
117.133663
 21
3.323484
 31
0.0
  0
LINE
  5
3D3
330
1F
100
AcDbEntity
  8
101
  6
Continuous
 62
     7
370
    30
100
AcDbLine
 10
109.169554
 20
-1.638769
 30
0.0
 11
113.94802
 21
0.872989
 31
0.0
  0
LINE
  5
3D4
330
1F
100
AcDbEntity
  8
101
  6
Continuous
 62
     7
370
    30
100
AcDbLine
 10
105.43255
 20
-3.292853
 30
0.0
 11
109.169554
 21
-1.638769
 31
0.0
  0
LINE
  5
3D5
330
1F
100
AcDbEntity
  8
101
  6
Continuous
 62
     7
370
    30
100
AcDbLine
 10
101.389233
 20
-4.946937
 30
0.0
 11
105.43255
 21
-3.292853
 31
0.0
  0
LINE
  5
3D6
330
1F
100
AcDbEntity
  8
101
  6
Continuous
 62
     7
370
    30
100
AcDbLine
 10
97.162129
 20
-5.927135
 30
0.0
 11
101.389233
 21
-4.946937
 31
0.0
  0
LINE
  5
3D7
330
1F
100
AcDbEntity
  8
101
  6
Continuous
 62
     7
370
    30
100
AcDbLine
 10
94.160272
 20
-6.417234
 30
0.0
 11
97.162129
 21
-5.927135
 31
0.0
  0
LINE
  5
3D8
330
1F
100
AcDbEntity
  8
101
  6
Continuous
 62
     7
370
    30
100
AcDbLine
 10
89.933168
 20
-6.601021
 30
0.0
 11
94.160272
 21
-6.417234
 31
0.0
  0
LINE
  5
3D9
330
1F
100
AcDbEntity
  8
101
  6
Continuous
 62
     7
370
    30
100
AcDbLine
 10
85.461015
 20
-6.478496
 30
0.0
 11
89.933168
 21
-6.601021
 31
0.0
  0
LINE
  5
3DA
330
1F
100
AcDbEntity
  8
101
  6
Continuous
 62
     7
370
    30
100
AcDbLine
 10
81.601485
 20
-6.233447
 30
0.0
 11
85.461015
 21
-6.478496
 31
0.0
  0
LINE
  5
3DB
330
1F
100
AcDbEntity
  8
101
  6
Continuous
 62
     7
370
    30
100
AcDbLine
 10
77.558168
 20
-5.498298
 30
0.0
 11
81.601485
 21
-6.233447
 31
0.0
  0
LINE
  5
3DC
330
1F
100
AcDbEntity
  8
101
  6
Continuous
 62
     7
370
    30
100
AcDbLine
 10
74.556312
 20
-4.640625
 30
0.0
 11
77.558168
 21
-5.498298
 31
0.0
  0
LINE
  5
3DD
330
1F
100
AcDbEntity
  8
101
  6
Continuous
 62
     7
370
    30
100
AcDbLine
 10
71.125619
 20
-3.109066
 30
0.0
 11
74.556312
 21
-4.640625
 31
0.0
  0
LINE
  5
3DE
330
1F
100
AcDbEntity
  8
101
  6
Continuous
 62
     7
370
    30
100
AcDbLine
 10
68.430074
 20
-2.006343
 30
0.0
 11
71.125619
 21
-3.109066
 31
0.0
  0
LINE
  5
3DF
330
1F
100
AcDbEntity
  8
101
  6
Continuous
 62
     7
370
    30
100
AcDbLine
 10
64.264233
 20
0.689202
 30
0.0
 11
68.430074
 21
-2.006343
 31
0.0
  0
LINE
  5
3E0
330
1F
100
AcDbEntity
  8
101
  6
Continuous
 62
     7
370
    30
100
AcDbLine
 10
60.894802
 20
2.649598
 30
0.0
 11
64.264233
 21
0.689202
 31
0.0
  0
LINE
  5
3E1
330
1F
100
AcDbEntity
  8
101
  6
Continuous
 62
     7
370
    30
100
AcDbLine
 10
58.321782
 20
4.548731
 30
0.0
 11
60.894802
 21
2.649598
 31
0.0
  0
LINE
  5
3E2
330
1F
100
AcDbEntity
  8
101
  6
Continuous
 62
     7
370
    30
100
AcDbLine
 10
55.748762
 20
6.937964
 30
0.0
 11
58.321782
 21
4.548731
 31
0.0
  0
LINE
  5
3E3
330
1F
100
AcDbEntity
  8
101
  6
Continuous
 62
     7
370
    30
100
AcDbLine
 10
51.950495
 20
10.246132
 30
0.0
 11
55.748762
 21
6.937964
 31
0.0
  0
LINE
  5
3E4
330
1F
100
AcDbEntity
  8
101
  6
Continuous
 62
     7
370
    30
100
AcDbLine
 10
49.867574
 20
12.51284
 30
0.0
 11
51.950495
 21
10.246132
 31
0.0
  0
LINE
  5
3E5
330
1F
100
AcDbEntity
  8
101
  6
Continuous
 62
     7
370
    30
100
AcDbLine
 10
47.723391
 20
15.147123
 30
0.0
 11
49.867574
 21
12.51284
 31
0.0
  0
LINE
  5
3E6
330
1F
100
AcDbEntity
  8
101
  6
Continuous
 62
     7
370
    30
100
AcDbLine
 10
45.395421
 20
18.822865
 30
0.0
 11
47.723391
 21
15.147123
 31
0.0
  0
LINE
  5
3E7
330
1F
100
AcDbEntity
  8
101
  6
Continuous
 62
     7
370
    30
100
AcDbLine
 10
43.435025
 20
22.192296
 30
0.0
 11
45.395421
 21
18.822865
 31
0.0
  0
LINE
  5
3E8
330
1F
100
AcDbEntity
  8
101
  6
Continuous
 62
     7
370
    30
100
AcDbLine
 10
41.780941
 20
25.13289
 30
0.0
 11
43.435025
 21
22.192296
 31
0.0
  0
LINE
  5
3E9
330
1F
100
AcDbEntity
  8
101
  6
Continuous
 62
     7
370
    30
100
AcDbLine
 10
40.371906
 20
28.441058
 30
0.0
 11
41.780941
 21
25.13289
 31
0.0
  0
LINE
  5
3EA
330
1F
100
AcDbEntity
  8
101
  6
Continuous
 62
     7
370
    30
100
AcDbLine
 10
38.901609
 20
32.913212
 30
0.0
 11
40.371906
 21
28.441058
 31
0.0
  0
LINE
  5
3EB
330
1F
100
AcDbEntity
  8
101
  6
Continuous
 62
     7
370
    30
100
AcDbLine
 10
37.247525
 20
38.54935
 30
0.0
 11
38.901609
 21
32.913212
 31
0.0
  0
LINE
  5
3EC
330
1F
100
AcDbEntity
  8
101
  6
Continuous
 62
     7
370
    30
100
AcDbLine
 10
36.389851
 20
42.837717
 30
0.0
 11
37.247525
 21
38.54935
 31
0.0
  0
LINE
  5
3ED
330
1F
100
AcDbEntity
  8
101
  6
Continuous
 62
     7
370
    30
100
AcDbLine
 10
35.777228
 20
47.922494
 30
0.0
 11
36.389851
 21
42.837717
 31
0.0
  0
LINE
  5
3EE
330
1F
100
AcDbEntity
  8
101
  6
Continuous
 62
     7
370
    30
100
AcDbLine
 10
35.714442
 20
50.5891
 30
0.0
 11
35.777228
 21
47.922494
 31
0.0
  0
LINE
  5
3EF
330
1F
100
AcDbEntity
  8
101
  6
Continuous
 62
     7
370
    30
100
AcDbLine
 10
40.065594
 20
46.329672
 30
0.0
 11
39.575495
 21
50.066677
 31
0.0
  0
LINE
  5
3F0
330
1F
100
AcDbEntity
  8
101
  6
Continuous
 62
     7
370
    30
100
AcDbLine
 10
40.371906
 20
43.266553
 30
0.0
 11
40.065594
 21
46.329672
 31
0.0
  0
LINE
  5
3F1
330
1F
100
AcDbEntity
  8
101
  6
Continuous
 62
     7
370
    30
100
AcDbLine
 10
41.107054
 20
39.161974
 30
0.0
 11
40.371906
 21
43.266553
 31
0.0
  0
LINE
  5
3F2
330
1F
100
AcDbEntity
  8
101
  6
Continuous
 62
     7
370
    30
100
AcDbLine
 10
41.903465
 20
34.996132
 30
0.0
 11
41.107054
 21
39.161974
 31
0.0
  0
LINE
  5
3F3
330
1F
100
AcDbEntity
  8
101
  6
Continuous
 62
     7
370
    30
100
AcDbLine
 10
43.435025
 20
30.03388
 30
0.0
 11
41.903465
 21
34.996132
 31
0.0
  0
LINE
  5
3F4
330
1F
100
AcDbEntity
  8
101
  6
Continuous
 62
     7
370
    30
100
AcDbLine
 10
45.150371
 20
26.17435
 30
0.0
 11
43.435025
 21
30.03388
 31
0.0
  0
LINE
  5
3F5
330
1F
100
AcDbEntity
  8
101
  6
Continuous
 62
     7
370
    30
100
AcDbLine
 10
46.92698
 20
22.866182
 30
0.0
 11
45.150371
 21
26.17435
 31
0.0
  0
LINE
  5
3F6
330
1F
100
AcDbEntity
  8
101
  6
Continuous
 62
     7
370
    30
100
AcDbLine
 10
49.132426
 20
19.190439
 30
0.0
 11
46.92698
 21
22.866182
 31
0.0
  0
LINE
  5
3F7
330
1F
100
AcDbEntity
  8
101
  6
Continuous
 62
     7
370
    30
100
AcDbLine
 10
51.460396
 20
16.127321
 30
0.0
 11
49.132426
 21
19.190439
 31
0.0
  0
LINE
  5
3F8
330
1F
100
AcDbEntity
  8
101
  6
Continuous
 62
     7
370
    30
100
AcDbLine
 10
54.523515
 20
12.819152
 30
0.0
 11
51.460396
 21
16.127321
 31
0.0
  0
LINE
  5
3F9
330
1F
100
AcDbEntity
  8
101
  6
Continuous
 62
     7
370
    30
100
AcDbLine
 10
58.628094
 20
8.89836
 30
0.0
 11
54.523515
 21
12.819152
 31
0.0
  0
LINE
  5
3FA
330
1F
100
AcDbEntity
  8
101
  6
Continuous
 62
     7
370
    30
100
AcDbLine
 10
63.284035
 20
5.467667
 30
0.0
 11
58.628094
 21
8.89836
 31
0.0
  0
LINE
  5
3FB
330
1F
100
AcDbEntity
  8
101
  6
Continuous
 62
     7
370
    30
100
AcDbLine
 10
67.878713
 20
2.71086
 30
0.0
 11
63.284035
 21
5.467667
 31
0.0
  0
LINE
  5
3FC
330
1F
100
AcDbEntity
  8
101
  6
Continuous
 62
     7
370
    30
100
AcDbLine
 10
71.431931
 20
0.934251
 30
0.0
 11
67.878713
 21
2.71086
 31
0.0
  0
LINE
  5
3FD
330
1F
100
AcDbEntity
  8
101
  6
Continuous
 62
     7
370
    30
100
AcDbLine
 10
76.210396
 20
-0.964882
 30
0.0
 11
71.431931
 21
0.934251
 31
0.0
  0
LINE
  5
3FE
330
1F
100
AcDbEntity
  8
101
  6
Continuous
 62
     7
370
    30
100
AcDbLine
 10
81.050124
 20
-2.312655
 30
0.0
 11
76.210396
 21
-0.964882
 31
0.0
  0
LINE
  5
3FF
330
1F
100
AcDbEntity
  8
101
  6
Continuous
 62
     7
370
    30
100
AcDbLine
 10
82.501948
 20
-2.140366
 30
0.0
 11
81.050124
 21
-2.312655
 31
0.0
  0
LINE
  5
400
330
1F
100
AcDbEntity
  8
101
  6
Continuous
 62
     7
370
    30
100
AcDbLine
 10
76.700495
 20
11.838954
 30
0.0
 11
79.113539
 21
11.426069
 31
0.0
  0
LINE
  5
401
330
1F
100
AcDbEntity
  8
101
  6
Continuous
 62
     7
370
    30
100
AcDbLine
 10
74.556312
 20
12.329053
 30
0.0
 11
76.700495
 21
11.838954
 31
0.0
  0
LINE
  5
402
330
1F
100
AcDbEntity
  8
101
  6
Continuous
 62
     7
370
    30
100
AcDbLine
 10
71.370668
 20
13.431776
 30
0.0
 11
74.556312
 21
12.329053
 31
0.0
  0
LINE
  5
403
330
1F
100
AcDbEntity
  8
101
  6
Continuous
 62
     7
370
    30
100
AcDbLine
 10
68.613861
 20
14.718286
 30
0.0
 11
71.370668
 21
13.431776
 31
0.0
  0
LINE
  5
404
330
1F
100
AcDbEntity
  8
101
  6
Continuous
 62
     7
370
    30
100
AcDbLine
 10
64.876856
 20
16.801207
 30
0.0
 11
68.613861
 21
14.718286
 31
0.0
  0
LINE
  5
405
330
1F
100
AcDbEntity
  8
101
  6
Continuous
 62
     7
370
    30
100
AcDbLine
 10
59.853342
 20
20.2319
 30
0.0
 11
64.876856
 21
16.801207
 31
0.0
  0
LINE
  5
406
330
1F
100
AcDbEntity
  8
101
  6
Continuous
 62
     7
370
    30
100
AcDbLine
 10
55.074876
 20
24.275217
 30
0.0
 11
59.853342
 21
20.2319
 31
0.0
  0
LINE
  5
407
330
1F
100
AcDbEntity
  8
101
  6
Continuous
 62
     7
370
    30
100
AcDbLine
 10
52.134282
 20
28.441058
 30
0.0
 11
55.074876
 21
24.275217
 31
0.0
  0
LINE
  5
408
330
1F
100
AcDbEntity
  8
101
  6
Continuous
 62
     7
370
    30
100
AcDbLine
 10
49.928837
 20
31.994276
 30
0.0
 11
52.134282
 21
28.441058
 31
0.0
  0
LINE
  5
409
330
1F
100
AcDbEntity
  8
101
  6
Continuous
 62
     7
370
    30
100
AcDbLine
 10
47.968441
 20
36.037593
 30
0.0
 11
49.928837
 21
31.994276
 31
0.0
  0
LINE
  5
40A
330
1F
100
AcDbEntity
  8
101
  6
Continuous
 62
     7
370
    30
100
AcDbLine
 10
46.008045
 20
40.203434
 30
0.0
 11
47.968441
 21
36.037593
 31
0.0
  0
LINE
  5
40B
330
1F
100
AcDbEntity
  8
101
  6
Continuous
 62
     7
370
    30
100
AcDbLine
 10
44.782797
 20
45.226949
 30
0.0
 11
46.008045
 21
40.203434
 31
0.0
  0
LINE
  5
40C
330
1F
100
AcDbEntity
  8
101
  6
Continuous
 62
     7
370
    30
100
AcDbLine
 10
44.039827
 20
49.568568
 30
0.0
 11
44.782797
 21
45.226949
 31
0.0
  0
LINE
  5
40D
330
1F
100
AcDbEntity
  8
101
  6
Continuous
 62
     7
370
    30
100
AcDbLine
 10
91.709777
 20
-2.496442
 30
0.0
 11
89.771562
 21
-2.56721
 31
0.0
  0
LINE
  5
40E
330
1F
100
AcDbEntity
  8
101
  6
Continuous
 62
     7
370
    30
100
AcDbLine
 10
94.527847
 20
-2.312655
 30
0.0
 11
91.709777
 21
-2.496442
 31
0.0
  0
LINE
  5
40F
330
1F
100
AcDbEntity
  8
101
  6
Continuous
 62
     7
370
    30
100
AcDbLine
 10
97.100866
 20
-1.761293
 30
0.0
 11
94.527847
 21
-2.312655
 31
0.0
  0
LINE
  5
410
330
1F
100
AcDbEntity
  8
101
  6
Continuous
 62
     7
370
    30
100
AcDbLine
 10
99.796411
 20
-0.90362
 30
0.0
 11
97.100866
 21
-1.761293
 31
0.0
  0
LINE
  5
411
330
1F
100
AcDbEntity
  8
101
  6
Continuous
 62
     7
370
    30
100
AcDbLine
 10
103.227104
 20
0.0
 30
0.0
 11
99.796411
 21
-0.90362
 31
0.0
  0
LINE
  5
412
330
1F
100
AcDbEntity
  8
101
  6
Continuous
 62
     7
370
    30
100
AcDbLine
 10
107.025371
 20
1.546875
 30
0.0
 11
103.227104
 21
0.0
 31
0.0
  0
LINE
  5
413
330
1F
100
AcDbEntity
  8
101
  6
Continuous
 62
     7
370
    30
100
AcDbLine
 10
109.720916
 20
3.017172
 30
0.0
 11
107.025371
 21
1.546875
 31
0.0
  0
LINE
  5
414
330
1F
100
AcDbEntity
  8
101
  6
Continuous
 62
     7
370
    30
100
AcDbLine
 10
112.048886
 20
4.303682
 30
0.0
 11
109.720916
 21
3.017172
 31
0.0
  0
LINE
  5
415
330
1F
100
AcDbEntity
  8
101
  6
Continuous
 62
     7
370
    30
100
AcDbLine
 10
114.744431
 20
6.019028
 30
0.0
 11
112.048886
 21
4.303682
 31
0.0
  0
LINE
  5
416
330
1F
100
AcDbEntity
  8
101
  6
Continuous
 62
     7
370
    30
100
AcDbLine
 10
117.133663
 20
7.918162
 30
0.0
 11
114.744431
 21
6.019028
 31
0.0
  0
LINE
  5
417
330
1F
100
AcDbEntity
  8
101
  6
Continuous
 62
     7
370
    30
100
AcDbLine
 10
119.461634
 20
9.756033
 30
0.0
 11
117.133663
 21
7.918162
 31
0.0
  0
LINE
  5
418
330
1F
100
AcDbEntity
  8
101
  6
Continuous
 62
     7
370
    30
100
AcDbLine
 10
121.973391
 20
12.51284
 30
0.0
 11
119.461634
 21
9.756033
 31
0.0
  0
LINE
  5
419
330
1F
100
AcDbEntity
  8
101
  6
Continuous
 62
     7
370
    30
100
AcDbLine
 10
124.301361
 20
15.208385
 30
0.0
 11
121.973391
 21
12.51284
 31
0.0
  0
LINE
  5
41A
330
1F
100
AcDbEntity
  8
101
  6
Continuous
 62
     7
370
    30
100
AcDbLine
 10
126.813119
 20
18.210241
 30
0.0
 11
124.301361
 21
15.208385
 31
0.0
  0
LINE
  5
41B
330
1F
100
AcDbEntity
  8
101
  6
Continuous
 62
     7
370
    30
100
AcDbLine
 10
128.834777
 20
21.089573
 30
0.0
 11
126.813119
 21
18.210241
 31
0.0
  0
LINE
  5
41C
330
1F
100
AcDbEntity
  8
101
  6
Continuous
 62
     7
370
    30
100
AcDbLine
 10
130.611386
 20
24.520266
 30
0.0
 11
128.834777
 21
21.089573
 31
0.0
  0
LINE
  5
41D
330
1F
100
AcDbEntity
  8
101
  6
Continuous
 62
     7
370
    30
100
AcDbLine
 10
132.142946
 20
28.257271
 30
0.0
 11
130.611386
 21
24.520266
 31
0.0
  0
LINE
  5
41E
330
1F
100
AcDbEntity
  8
101
  6
Continuous
 62
     7
370
    30
100
AcDbLine
 10
133.858292
 20
32.36185
 30
0.0
 11
132.142946
 21
28.257271
 31
0.0
  0
LINE
  5
41F
330
1F
100
AcDbEntity
  8
101
  6
Continuous
 62
     7
370
    30
100
AcDbLine
 10
135.451114
 20
38.733137
 30
0.0
 11
133.858292
 21
32.36185
 31
0.0
  0
LINE
  5
420
330
1F
100
AcDbEntity
  8
101
  6
Continuous
 62
     7
370
    30
100
AcDbLine
 10
136.063738
 20
43.756652
 30
0.0
 11
135.451114
 21
38.733137
 31
0.0
  0
LINE
  5
421
330
1F
100
AcDbEntity
  8
101
  6
Continuous
 62
     7
370
    30
100
AcDbLine
 10
136.063738
 20
47.432395
 30
0.0
 11
136.063738
 21
43.756652
 31
0.0
  0
LINE
  5
422
330
1F
100
AcDbEntity
  8
101
  6
Continuous
 62
     7
370
    30
100
AcDbLine
 10
135.941213
 20
49.147741
 30
0.0
 11
136.063738
 21
47.432395
 31
0.0
  0
LINE
  5
423
330
1F
100
AcDbEntity
  8
101
  6
Continuous
 62
     7
370
    30
100
AcDbLine
 10
136.676361
 20
50.740563
 30
0.0
 11
135.941213
 21
49.147741
 31
0.0
  0
LINE
  5
424
330
1F
100
AcDbEntity
  8
101
  6
Continuous
 62
     7
370
    30
100
AcDbLine
 10
130.795173
 20
44.491801
 30
0.0
 11
131.533844
 21
49.943196
 31
0.0
  0
LINE
  5
425
330
1F
100
AcDbEntity
  8
101
  6
Continuous
 62
     7
370
    30
100
AcDbLine
 10
129.814975
 20
40.693533
 30
0.0
 11
130.795173
 21
44.491801
 31
0.0
  0
LINE
  5
426
330
1F
100
AcDbEntity
  8
101
  6
Continuous
 62
     7
370
    30
100
AcDbLine
 10
128.344678
 20
35.792543
 30
0.0
 11
129.814975
 21
40.693533
 31
0.0
  0
LINE
  5
427
330
1F
100
AcDbEntity
  8
101
  6
Continuous
 62
     7
370
    30
100
AcDbLine
 10
125.771658
 20
30.891553
 30
0.0
 11
128.344678
 21
35.792543
 31
0.0
  0
LINE
  5
428
330
1F
100
AcDbEntity
  8
101
  6
Continuous
 62
     7
370
    30
100
AcDbLine
 10
122.586015
 20
26.358137
 30
0.0
 11
125.771658
 21
30.891553
 31
0.0
  0
LINE
  5
429
330
1F
100
AcDbEntity
  8
101
  6
Continuous
 62
     7
370
    30
100
AcDbLine
 10
117.685025
 20
21.824722
 30
0.0
 11
122.586015
 21
26.358137
 31
0.0
  0
LINE
  5
42A
330
1F
100
AcDbEntity
  8
101
  6
Continuous
 62
     7
370
    30
100
AcDbLine
 10
113.519183
 20
18.148979
 30
0.0
 11
117.685025
 21
21.824722
 31
0.0
  0
LINE
  5
42B
330
1F
100
AcDbEntity
  8
101
  6
Continuous
 62
     7
370
    30
100
AcDbLine
 10
108.618193
 20
14.963335
 30
0.0
 11
113.519183
 21
18.148979
 31
0.0
  0
LINE
  5
42C
330
1F
100
AcDbEntity
  8
101
  6
Continuous
 62
     7
370
    30
100
AcDbLine
 10
103.472153
 20
12.880415
 30
0.0
 11
108.618193
 21
14.963335
 31
0.0
  0
LINE
  5
42D
330
1F
100
AcDbEntity
  8
101
  6
Continuous
 62
     7
370
    30
100
AcDbLine
 10
99.061262
 20
11.287593
 30
0.0
 11
103.472153
 21
12.880415
 31
0.0
  0
LINE
  5
42E
330
1F
100
AcDbEntity
  8
101
  6
Continuous
 62
     7
370
    30
100
AcDbLine
 10
93.302599
 20
10.246132
 30
0.0
 11
99.061262
 21
11.287593
 31
0.0
  0
LINE
  5
42F
330
1F
100
AcDbEntity
  8
101
  6
Continuous
 62
     7
370
    30
100
AcDbLine
 10
88.646658
 20
10.062345
 30
0.0
 11
93.302599
 21
10.246132
 31
0.0
  0
LINE
  5
430
330
1F
100
AcDbEntity
  8
101
  6
Continuous
 62
     7
370
    30
100
AcDbLine
 10
83.883495
 20
10.0046
 30
0.0
 11
88.646658
 21
10.062345
 31
0.0
  0
LINE
  5
431
330
1F
100
AcDbEntity
  8
101
  6
Continuous
 62
     7
370
    30
100
AcDbLine
 10
88.401609
 20
-1.822556
 30
0.0
 11
89.688119
 21
-1.14867
 31
0.0
  0
LINE
  5
432
330
1F
100
AcDbEntity
  8
101
  6
Continuous
 62
     7
370
    30
100
AcDbLine
 10
88.034035
 20
0.0
 30
0.0
 11
88.401609
 21
-1.822556
 31
0.0
  0
LINE
  5
433
330
1F
100
AcDbEntity
  8
101
  6
Continuous
 62
     7
370
    30
100
AcDbLine
 10
86.441213
 20
-1.209932
 30
0.0
 11
88.034035
 21
0.0
 31
0.0
  0
LINE
  5
434
330
1F
100
AcDbEntity
  8
101
  6
Continuous
 62
     7
370
    30
100
AcDbLine
 10
81.907797
 20
39.345761
 30
0.0
 11
81.660038
 21
48.375258
 31
0.0
  0
LINE
  5
435
330
1F
100
AcDbEntity
  8
101
  6
Continuous
 62
     7
370
    30
100
AcDbLine
 10
82.397896
 20
29.666306
 30
0.0
 11
81.907797
 21
39.345761
 31
0.0
  0
LINE
  5
436
330
1F
100
AcDbEntity
  8
101
  6
Continuous
 62
     7
370
    30
100
AcDbLine
 10
82.887995
 20
19.864325
 30
0.0
 11
82.397896
 21
29.666306
 31
0.0
  0
LINE
  5
437
330
1F
100
AcDbEntity
  8
101
  6
Continuous
 62
     7
370
    30
100
AcDbLine
 10
83.623144
 20
12.145266
 30
0.0
 11
82.887995
 21
19.864325
 31
0.0
  0
LINE
  5
438
330
1F
100
AcDbEntity
  8
101
  6
Continuous
 62
     7
370
    30
100
AcDbLine
 10
84.174505
 20
7.61185
 30
0.0
 11
83.623144
 21
12.145266
 31
0.0
  0
LINE
  5
439
330
1F
100
AcDbEntity
  8
101
  6
Continuous
 62
     7
370
    30
100
AcDbLine
 10
85.093441
 20
3.017172
 30
0.0
 11
84.174505
 21
7.61185
 31
0.0
  0
LINE
  5
43A
330
1F
100
AcDbEntity
  8
101
  6
Continuous
 62
     7
370
    30
100
AcDbLine
 10
85.767327
 20
0.0
 30
0.0
 11
85.093441
 21
3.017172
 31
0.0
  0
LINE
  5
43B
330
1F
100
AcDbEntity
  8
101
  6
Continuous
 62
     7
370
    30
100
AcDbLine
 10
86.37995
 20
0.0
 30
0.0
 11
85.767327
 21
0.0
 31
0.0
  0
LINE
  5
43C
330
1F
100
AcDbEntity
  8
101
  6
Continuous
 62
     7
370
    30
100
AcDbLine
 10
86.87005
 20
0.0
 30
0.0
 11
86.37995
 21
0.0
 31
0.0
  0
LINE
  5
43D
330
1F
100
AcDbEntity
  8
101
  6
Continuous
 62
     7
370
    30
100
AcDbLine
 10
87.727723
 20
1.240563
 30
0.0
 11
86.87005
 21
0.0
 31
0.0
  0
LINE
  5
43E
330
1F
100
AcDbEntity
  8
101
  6
Continuous
 62
     7
370
    30
100
AcDbLine
 10
88.095297
 20
3.752321
 30
0.0
 11
87.727723
 21
1.240563
 31
0.0
  0
LINE
  5
43F
330
1F
100
AcDbEntity
  8
101
  6
Continuous
 62
     7
370
    30
100
AcDbLine
 10
88.646658
 20
7.795637
 30
0.0
 11
88.095297
 21
3.752321
 31
0.0
  0
LINE
  5
440
330
1F
100
AcDbEntity
  8
101
  6
Continuous
 62
     7
370
    30
100
AcDbLine
 10
88.646658
 20
10.062345
 30
0.0
 11
88.646658
 21
7.795637
 31
0.0
  0
LINE
  5
441
330
1F
100
AcDbEntity
  8
101
  6
Continuous
 62
     7
370
    30
100
AcDbLine
 10
91.832302
 20
10.123608
 30
0.0
 11
88.646658
 21
10.062345
 31
0.0
  0
LINE
  5
442
330
1F
100
AcDbEntity
  8
101
  6
Continuous
 62
     7
370
    30
100
AcDbLine
 10
93.302599
 20
10.246132
 30
0.0
 11
91.832302
 21
10.123608
 31
0.0
  0
LINE
  5
443
330
1F
100
AcDbEntity
  8
101
  6
Continuous
 62
     7
370
    30
100
AcDbLine
 10
92.751238
 20
7.734375
 30
0.0
 11
93.302599
 21
10.246132
 31
0.0
  0
LINE
  5
444
330
1F
100
AcDbEntity
  8
101
  6
Continuous
 62
     7
370
    30
100
AcDbLine
 10
91.832302
 20
3.507271
 30
0.0
 11
92.751238
 21
7.734375
 31
0.0
  0
LINE
  5
445
330
1F
100
AcDbEntity
  8
101
  6
Continuous
 62
     7
370
    30
100
AcDbLine
 10
91.035891
 20
1.240563
 30
0.0
 11
91.832302
 21
3.507271
 31
0.0
  0
LINE
  5
446
330
1F
100
AcDbEntity
  8
101
  6
Continuous
 62
     7
370
    30
100
AcDbLine
 10
90.607054
 20
0.0
 30
0.0
 11
91.035891
 21
1.240563
 31
0.0
  0
LINE
  5
447
330
1F
100
AcDbEntity
  8
101
  6
Continuous
 62
     7
370
    30
100
AcDbLine
 10
89.688119
 20
-1.14867
 30
0.0
 11
90.607054
 21
0.0
 31
0.0
  0
LINE
  5
448
330
1F
100
AcDbEntity
  8
101
  6
Continuous
 62
     7
370
    30
100
AcDbLine
 10
89.810644
 20
-3.23159
 30
0.0
 11
89.688119
 21
-1.14867
 31
0.0
  0
LINE
  5
449
330
1F
100
AcDbEntity
  8
101
  6
Continuous
 62
     7
370
    30
100
AcDbLine
 10
89.075495
 20
-5.191986
 30
0.0
 11
89.810644
 21
-3.23159
 31
0.0
  0
LINE
  5
44A
330
1F
100
AcDbEntity
  8
101
  6
Continuous
 62
     7
370
    30
100
AcDbLine
 10
86.87005
 20
-6.04966
 30
0.0
 11
89.075495
 21
-5.191986
 31
0.0
  0
LINE
  5
44B
330
1F
100
AcDbEntity
  8
101
  6
Continuous
 62
     7
370
    30
100
AcDbLine
 10
84.787129
 20
-5.559561
 30
0.0
 11
86.87005
 21
-6.04966
 31
0.0
  0
LINE
  5
44C
330
1F
100
AcDbEntity
  8
101
  6
Continuous
 62
     7
370
    30
100
AcDbLine
 10
83.316832
 20
-3.844214
 30
0.0
 11
84.787129
 21
-5.559561
 31
0.0
  0
LINE
  5
44D
330
1F
100
AcDbEntity
  8
101
  6
Continuous
 62
     7
370
    30
100
AcDbLine
 10
81.969059
 20
-1.026145
 30
0.0
 11
83.316832
 21
-3.844214
 31
0.0
  0
LINE
  5
44E
330
1F
100
AcDbEntity
  8
101
  6
Continuous
 62
     7
370
    30
100
AcDbLine
 10
80.866337
 20
3.507271
 30
0.0
 11
81.969059
 21
-1.026145
 31
0.0
  0
LINE
  5
44F
330
1F
100
AcDbEntity
  8
101
  6
Continuous
 62
     7
370
    30
100
AcDbLine
 10
79.518564
 20
9.265934
 30
0.0
 11
80.866337
 21
3.507271
 31
0.0
  0
LINE
  5
450
330
1F
100
AcDbEntity
  8
101
  6
Continuous
 62
     7
370
    30
100
AcDbLine
 10
78.415842
 20
15.147123
 30
0.0
 11
79.518564
 21
9.265934
 31
0.0
  0
LINE
  5
451
330
1F
100
AcDbEntity
  8
101
  6
Continuous
 62
     7
370
    30
100
AcDbLine
 10
77.925743
 20
21.150835
 30
0.0
 11
78.415842
 21
15.147123
 31
0.0
  0
LINE
  5
452
330
1F
100
AcDbEntity
  8
101
  6
Continuous
 62
     7
370
    30
100
AcDbLine
 10
77.435644
 20
28.134746
 30
0.0
 11
77.925743
 21
21.150835
 31
0.0
  0
LINE
  5
453
330
1F
100
AcDbEntity
  8
101
  6
Continuous
 62
     7
370
    30
100
AcDbLine
 10
77.068069
 20
34.628558
 30
0.0
 11
77.435644
 21
28.134746
 31
0.0
  0
LINE
  5
454
330
1F
100
AcDbEntity
  8
101
  6
Continuous
 62
     7
370
    30
100
AcDbLine
 10
76.82302
 20
41.734994
 30
0.0
 11
77.068069
 21
34.628558
 31
0.0
  0
LINE
  5
455
330
1F
100
AcDbEntity
  8
101
  6
Continuous
 62
     7
370
    30
100
AcDbLine
 10
76.70237
 20
48.460092
 30
0.0
 11
76.82302
 21
41.734994
 31
0.0
  0
LINE
  5
456
330
1F
100
AcDbEntity
  8
101
  6
Continuous
 62
     7
370
    30
100
AcDbLine
 10
140.045792
 20
73.468905
 30
0.0
 11
140.229579
 21
54.232519
 31
0.0
  0
LINE
  5
457
330
1F
100
AcDbEntity
  8
101
  6
Continuous
 62
     7
370
    30
100
AcDbLine
 10
139.923267
 20
85.598855
 30
0.0
 11
140.045792
 21
73.468905
 31
0.0
  0
LINE
  5
458
330
1F
100
AcDbEntity
  8
101
  6
Continuous
 62
     7
370
    30
100
AcDbLine
 10
139.616955
 20
99.38289
 30
0.0
 11
139.923267
 21
85.598855
 31
0.0
  0
LINE
  5
459
330
1F
100
AcDbEntity
  8
101
  6
Continuous
 62
     7
370
    30
100
AcDbLine
 10
80.988861
 20
72.488707
 30
0.0
 11
81.601485
 21
51.046875
 31
0.0
  0
LINE
  5
45A
330
1F
100
AcDbEntity
  8
101
  6
Continuous
 62
     7
370
    30
100
AcDbLine
 10
80.988861
 20
84.006033
 30
0.0
 11
80.988861
 21
72.488707
 31
0.0
  0
LINE
  5
45B
330
1F
100
AcDbEntity
  8
101
  6
Continuous
 62
     7
370
    30
100
AcDbLine
 10
80.988861
 20
103.181157
 30
0.0
 11
80.988861
 21
84.006033
 31
0.0
  0
LINE
  5
45C
330
1F
100
AcDbEntity
  8
101
  6
Continuous
 62
     7
370
    30
100
AcDbLine
 10
76.455446
 20
83.270885
 30
0.0
 11
76.608601
 21
103.349629
 31
0.0
  0
LINE
  5
45D
330
1F
100
AcDbEntity
  8
101
  6
Continuous
 62
     7
370
    30
100
AcDbLine
 10
76.945545
 20
68.44539
 30
0.0
 11
76.455446
 21
83.270885
 31
0.0
  0
LINE
  5
45E
330
1F
100
AcDbEntity
  8
101
  6
Continuous
 62
     7
370
    30
100
AcDbLine
 10
76.695037
 20
51.147007
 30
0.0
 11
76.945545
 21
68.44539
 31
0.0
  0
LINE
  5
45F
330
1F
100
AcDbEntity
  8
101
  6
Continuous
 62
     7
370
    30
100
AcDbLine
 10
43.251238
 20
72.733756
 30
0.0
 11
43.159344
 21
98.326114
 31
0.0
  0
LINE
  5
460
330
1F
100
AcDbEntity
  8
101
  6
Continuous
 62
     7
370
    30
100
AcDbLine
 10
43.741337
 20
51.904548
 30
0.0
 11
43.251238
 21
72.733756
 31
0.0
  0
LINE
  5
461
330
1F
100
AcDbEntity
  8
101
  6
Continuous
 62
     7
370
    30
100
AcDbLine
 10
39.330446
 20
58.39836
 30
0.0
 11
39.575495
 21
51.904548
 31
0.0
  0
LINE
  5
462
330
1F
100
AcDbEntity
  8
101
  6
Continuous
 62
     7
370
    30
100
AcDbLine
 10
39.330446
 20
72.366182
 30
0.0
 11
39.330446
 21
58.39836
 31
0.0
  0
LINE
  5
463
330
1F
100
AcDbEntity
  8
101
  6
Continuous
 62
     7
370
    30
100
AcDbLine
 10
39.45297
 20
78.369895
 30
0.0
 11
39.330446
 21
72.366182
 31
0.0
  0
LINE
  5
464
330
1F
100
AcDbEntity
  8
101
  6
Continuous
 62
     7
370
    30
100
AcDbLine
 10
39.45297
 20
86.701578
 30
0.0
 11
39.45297
 21
78.369895
 31
0.0
  0
LINE
  5
465
330
1F
100
AcDbEntity
  8
101
  6
Continuous
 62
     7
370
    30
100
AcDbLine
 10
39.575495
 20
95.76841
 30
0.0
 11
39.45297
 21
86.701578
 31
0.0
  0
LINE
  5
466
330
1F
100
AcDbEntity
  8
101
  6
Continuous
 62
     7
370
    30
100
AcDbLine
 10
40.4638
 20
98.326114
 30
0.0
 11
39.575495
 21
95.76841
 31
0.0
  0
LINE
  5
467
330
1F
100
AcDbEntity
  8
101
  6
Continuous
 62
     7
370
    30
100
AcDbLine
 10
39.575495
 20
51.904548
 30
0.0
 11
35.470916
 21
52.578434
 31
0.0
  0
LINE
  5
468
330
1F
100
AcDbEntity
  8
101
  6
Continuous
 62
     7
370
    30
100
AcDbLine
 10
45.579208
 20
51.904548
 30
0.0
 11
39.575495
 21
51.904548
 31
0.0
  0
LINE
  5
469
330
1F
100
AcDbEntity
  8
101
  6
Continuous
 62
     7
370
    30
100
AcDbLine
 10
51.215347
 20
51.904548
 30
0.0
 11
45.579208
 21
51.904548
 31
0.0
  0
LINE
  5
46A
330
1F
100
AcDbEntity
  8
101
  6
Continuous
 62
     7
370
    30
100
AcDbLine
 10
61.017327
 20
51.659499
 30
0.0
 11
51.215347
 21
51.904548
 31
0.0
  0
LINE
  5
46B
330
1F
100
AcDbEntity
  8
101
  6
Continuous
 62
     7
370
    30
100
AcDbLine
 10
75.597772
 20
51.1694
 30
0.0
 11
61.017327
 21
51.659499
 31
0.0
  0
LINE
  5
46C
330
1F
100
AcDbEntity
  8
101
  6
Continuous
 62
     7
370
    30
100
AcDbLine
 10
81.601485
 20
51.046875
 30
0.0
 11
75.597772
 21
51.1694
 31
0.0
  0
LINE
  5
46D
330
1F
100
AcDbEntity
  8
101
  6
Continuous
 62
     7
370
    30
100
AcDbLine
 10
91.158416
 20
51.414449
 30
0.0
 11
81.601485
 21
51.046875
 31
0.0
  0
LINE
  5
46E
330
1F
100
AcDbEntity
  8
101
  6
Continuous
 62
     7
370
    30
100
AcDbLine
 10
99.857673
 20
51.659499
 30
0.0
 11
91.158416
 21
51.414449
 31
0.0
  0
LINE
  5
46F
330
1F
100
AcDbEntity
  8
101
  6
Continuous
 62
     7
370
    30
100
AcDbLine
 10
108.189356
 20
51.659499
 30
0.0
 11
99.857673
 21
51.659499
 31
0.0
  0
LINE
  5
470
330
1F
100
AcDbEntity
  8
101
  6
Continuous
 62
     7
370
    30
100
AcDbLine
 10
116.153465
 20
52.517172
 30
0.0
 11
108.189356
 21
51.659499
 31
0.0
  0
LINE
  5
471
330
1F
100
AcDbEntity
  8
101
  6
Continuous
 62
     7
370
    30
100
AcDbLine
 10
123.259901
 20
52.762222
 30
0.0
 11
116.153465
 21
52.517172
 31
0.0
  0
LINE
  5
472
330
1F
100
AcDbEntity
  8
101
  6
Continuous
 62
     7
370
    30
100
AcDbLine
 10
130.243812
 20
53.681157
 30
0.0
 11
123.259901
 21
52.762222
 31
0.0
  0
LINE
  5
473
330
1F
100
AcDbEntity
  8
101
  6
Continuous
 62
     7
370
    30
100
AcDbLine
 10
132.020421
 20
53.681157
 30
0.0
 11
130.243812
 21
53.681157
 31
0.0
  0
LINE
  5
474
330
1F
100
AcDbEntity
  8
101
  6
Continuous
 62
     7
370
    30
100
AcDbLine
 10
131.959158
 20
54.967667
 30
0.0
 11
132.020421
 21
53.681157
 31
0.0
  0
LINE
  5
475
330
1F
100
AcDbEntity
  8
101
  6
Continuous
 62
     7
370
    30
100
AcDbLine
 10
135.573639
 20
53.49737
 30
0.0
 11
135.389851
 21
54.845142
 31
0.0
  0
LINE
  5
476
330
1F
100
AcDbEntity
  8
101
  6
Continuous
 62
     7
370
    30
100
AcDbLine
 10
136.063738
 20
53.313583
 30
0.0
 11
135.573639
 21
53.49737
 31
0.0
  0
LINE
  5
477
330
1F
100
AcDbEntity
  8
101
  6
Continuous
 62
     7
370
    30
100
AcDbLine
 10
138.69802
 20
53.252321
 30
0.0
 11
136.063738
 21
53.313583
 31
0.0
  0
LINE
  5
478
330
1F
100
AcDbEntity
  8
101
  6
Continuous
 62
     7
370
    30
100
AcDbLine
 10
140.229579
 20
53.49737
 30
0.0
 11
138.69802
 21
53.252321
 31
0.0
  0
LINE
  5
479
330
1F
100
AcDbEntity
  8
101
  6
Continuous
 62
     7
370
    30
100
AcDbLine
 10
140.229579
 20
54.232519
 30
0.0
 11
140.229579
 21
53.49737
 31
0.0
  0
LINE
  5
47A
330
1F
100
AcDbEntity
  8
101
  6
Continuous
 62
     7
370
    30
100
AcDbLine
 10
141.209777
 20
54.048731
 30
0.0
 11
140.229579
 21
54.232519
 31
0.0
  0
LINE
  5
47B
330
1F
100
AcDbEntity
  8
101
  6
Continuous
 62
     7
370
    30
100
AcDbLine
 10
142.373762
 20
53.681157
 30
0.0
 11
141.209777
 21
54.048731
 31
0.0
  0
LINE
  5
47C
330
1F
100
AcDbEntity
  8
101
  6
Continuous
 62
     7
370
    30
100
AcDbLine
 10
142.06745
 20
51.414449
 30
0.0
 11
142.373762
 21
53.681157
 31
0.0
  0
LINE
  5
47D
330
1F
100
AcDbEntity
  8
101
  6
Continuous
 62
     7
370
    30
100
AcDbLine
 10
141.209777
 20
51.353187
 30
0.0
 11
142.06745
 21
51.414449
 31
0.0
  0
LINE
  5
47E
330
1F
100
AcDbEntity
  8
101
  6
Continuous
 62
     7
370
    30
100
AcDbLine
 10
136.676361
 20
50.740563
 30
0.0
 11
141.209777
 21
51.353187
 31
0.0
  0
LINE
  5
47F
330
1F
100
AcDbEntity
  8
101
  6
Continuous
 62
     7
370
    30
100
AcDbLine
 10
132.633045
 20
50.005415
 30
0.0
 11
136.676361
 21
50.740563
 31
0.0
  0
LINE
  5
480
330
1F
100
AcDbEntity
  8
101
  6
Continuous
 62
     7
370
    30
100
AcDbLine
 10
126.139233
 20
49.63784
 30
0.0
 11
132.633045
 21
50.005415
 31
0.0
  0
LINE
  5
481
330
1F
100
AcDbEntity
  8
101
  6
Continuous
 62
     7
370
    30
100
AcDbLine
 10
115.112005
 20
49.025217
 30
0.0
 11
126.139233
 21
49.63784
 31
0.0
  0
LINE
  5
482
330
1F
100
AcDbEntity
  8
101
  6
Continuous
 62
     7
370
    30
100
AcDbLine
 10
107.270421
 20
48.535118
 30
0.0
 11
115.112005
 21
49.025217
 31
0.0
  0
LINE
  5
483
330
1F
100
AcDbEntity
  8
101
  6
Continuous
 62
     7
370
    30
100
AcDbLine
 10
99.551361
 20
48.780167
 30
0.0
 11
107.270421
 21
48.535118
 31
0.0
  0
LINE
  5
484
330
1F
100
AcDbEntity
  8
101
  6
Continuous
 62
     7
370
    30
100
AcDbLine
 10
86.686262
 20
48.290068
 30
0.0
 11
99.551361
 21
48.780167
 31
0.0
  0
LINE
  5
485
330
1F
100
AcDbEntity
  8
101
  6
Continuous
 62
     7
370
    30
100
AcDbLine
 10
79.457302
 20
48.412593
 30
0.0
 11
86.686262
 21
48.290068
 31
0.0
  0
LINE
  5
486
330
1F
100
AcDbEntity
  8
101
  6
Continuous
 62
     7
370
    30
100
AcDbLine
 10
72.350866
 20
48.535118
 30
0.0
 11
79.457302
 21
48.412593
 31
0.0
  0
LINE
  5
487
330
1F
100
AcDbEntity
  8
101
  6
Continuous
 62
     7
370
    30
100
AcDbLine
 10
64.876856
 20
48.535118
 30
0.0
 11
72.350866
 21
48.535118
 31
0.0
  0
LINE
  5
488
330
1F
100
AcDbEntity
  8
101
  6
Continuous
 62
     7
370
    30
100
AcDbLine
 10
58.505569
 20
48.657642
 30
0.0
 11
64.876856
 21
48.535118
 31
0.0
  0
LINE
  5
489
330
1F
100
AcDbEntity
  8
101
  6
Continuous
 62
     7
370
    30
100
AcDbLine
 10
46.681931
 20
49.270266
 30
0.0
 11
58.505569
 21
48.657642
 31
0.0
  0
LINE
  5
48A
330
1F
100
AcDbEntity
  8
101
  6
Continuous
 62
     7
370
    30
100
AcDbLine
 10
42.883663
 20
49.699103
 30
0.0
 11
46.681931
 21
49.270266
 31
0.0
  0
LINE
  5
48B
330
1F
100
AcDbEntity
  8
101
  6
Continuous
 62
     7
370
    30
100
AcDbLine
 10
39.575495
 20
50.066677
 30
0.0
 11
42.883663
 21
49.699103
 31
0.0
  0
LINE
  5
48C
330
1F
100
AcDbEntity
  8
101
  6
Continuous
 62
     7
370
    30
100
AcDbLine
 10
36.328589
 20
50.556776
 30
0.0
 11
39.575495
 21
50.066677
 31
0.0
  0
LINE
  5
48D
330
1F
100
AcDbEntity
  8
101
  6
Continuous
 62
     7
370
    30
100
AcDbLine
 10
34.000619
 20
50.679301
 30
0.0
 11
36.328589
 21
50.556776
 31
0.0
  0
LINE
  5
48E
330
1F
100
AcDbEntity
  8
101
  6
Continuous
 62
     7
370
    30
100
AcDbLine
 10
32.346535
 20
50.863088
 30
0.0
 11
34.000619
 21
50.679301
 31
0.0
  0
LINE
  5
48F
330
1F
100
AcDbEntity
  8
101
  6
Continuous
 62
     7
370
    30
100
AcDbLine
 10
31.97896
 20
51.475712
 30
0.0
 11
32.346535
 21
50.863088
 31
0.0
  0
LINE
  5
490
330
1F
100
AcDbEntity
  8
101
  6
Continuous
 62
     7
370
    30
100
AcDbLine
 10
32.040223
 20
52.517172
 30
0.0
 11
31.97896
 21
51.475712
 31
0.0
  0
LINE
  5
491
330
1F
100
AcDbEntity
  8
101
  6
Continuous
 62
     7
370
    30
100
AcDbLine
 10
33.816832
 20
52.578434
 30
0.0
 11
32.040223
 21
52.517172
 31
0.0
  0
LINE
  5
492
330
1F
100
AcDbEntity
  8
101
  6
Continuous
 62
     7
370
    30
100
AcDbLine
 10
35.470916
 20
52.578434
 30
0.0
 11
33.816832
 21
52.578434
 31
0.0
  0
LINE
  5
493
330
1F
100
AcDbEntity
  8
101
  6
Continuous
 62
     7
370
    30
100
AcDbLine
 10
35.777228
 20
98.816213
 30
0.0
 11
35.470916
 21
52.578434
 31
0.0
  0
LINE
  5
494
330
1F
100
AcDbEntity
  8
101
  6
Continuous
 62
     7
370
    30
100
AcDbLine
 10
80.743812
 20
104.528929
 30
0.0
 11
80.988861
 21
103.181157
 31
0.0
  0
LINE
  5
495
330
1F
100
AcDbEntity
  8
101
  6
Continuous
 62
     7
370
    30
100
AcDbLine
 10
76.57797
 20
104.651454
 30
0.0
 11
80.743812
 21
104.528929
 31
0.0
  0
LINE
  5
496
330
1F
100
AcDbEntity
  8
101
  6
Continuous
 62
     7
370
    30
100
AcDbLine
 10
76.608601
 20
103.349629
 30
0.0
 11
76.57797
 21
104.651454
 31
0.0
  0
LINE
  5
497
330
1F
100
AcDbEntity
  8
101
  6
Continuous
 62
     7
370
    30
100
AcDbLine
 10
76.241027
 20
106.780322
 30
0.0
 11
81.47896
 21
107.101949
 31
0.0
  0
LINE
  5
498
330
1F
100
AcDbEntity
  8
101
  6
Continuous
 62
     7
370
    30
100
AcDbLine
 10
86.134901
 20
103.426207
 30
0.0
 11
80.988861
 21
103.181157
 31
0.0
  0
LINE
  5
499
330
1F
100
AcDbEntity
  8
101
  6
Continuous
 62
     7
370
    30
100
AcDbLine
 10
91.403465
 20
103.058632
 30
0.0
 11
86.134901
 21
103.426207
 31
0.0
  0
LINE
  5
49A
330
1F
100
AcDbEntity
  8
101
  6
Continuous
 62
     7
370
    30
100
AcDbLine
 10
97.529703
 20
103.181157
 30
0.0
 11
91.403465
 21
103.058632
 31
0.0
  0
LINE
  5
49B
330
1F
100
AcDbEntity
  8
101
  6
Continuous
 62
     7
370
    30
100
AcDbLine
 10
106.106436
 20
102.936108
 30
0.0
 11
97.529703
 21
103.181157
 31
0.0
  0
LINE
  5
49C
330
1F
100
AcDbEntity
  8
101
  6
Continuous
 62
     7
370
    30
100
AcDbLine
 10
110.762376
 20
102.936108
 30
0.0
 11
106.106436
 21
102.936108
 31
0.0
  0
LINE
  5
49D
330
1F
100
AcDbEntity
  8
101
  6
Continuous
 62
     7
370
    30
100
AcDbLine
 10
116.643564
 20
102.813583
 30
0.0
 11
110.762376
 21
102.936108
 31
0.0
  0
LINE
  5
49E
330
1F
100
AcDbEntity
  8
101
  6
Continuous
 62
     7
370
    30
100
AcDbLine
 10
123.014851
 20
102.200959
 30
0.0
 11
116.643564
 21
102.813583
 31
0.0
  0
LINE
  5
49F
330
1F
100
AcDbEntity
  8
101
  6
Continuous
 62
     7
370
    30
100
AcDbLine
 10
128.038366
 20
101.71086
 30
0.0
 11
123.014851
 21
102.200959
 31
0.0
  0
LINE
  5
4A0
330
1F
100
AcDbEntity
  8
101
  6
Continuous
 62
     7
370
    30
100
AcDbLine
 10
132.326733
 20
100.975712
 30
0.0
 11
128.038366
 21
101.71086
 31
0.0
  0
LINE
  5
4A1
330
1F
100
AcDbEntity
  8
101
  6
Continuous
 62
     7
370
    30
100
AcDbLine
 10
132.326733
 20
95.645885
 30
0.0
 11
132.326733
 21
100.975712
 31
0.0
  0
LINE
  5
4A2
330
1F
100
AcDbEntity
  8
101
  6
Continuous
 62
     7
370
    30
100
AcDbLine
 10
136.37005
 20
104.651454
 30
0.0
 11
139.371906
 21
103.732519
 31
0.0
  0
LINE
  5
4A3
330
1F
100
AcDbEntity
  8
101
  6
Continuous
 62
     7
370
    30
100
AcDbLine
 10
133.368193
 20
105.264078
 30
0.0
 11
136.37005
 21
104.651454
 31
0.0
  0
LINE
  5
4A4
330
1F
100
AcDbEntity
  8
101
  6
Continuous
 62
     7
370
    30
100
AcDbLine
 10
31.97896
 20
152.313583
 30
0.0
 11
32.407797
 21
150.414449
 31
0.0
  0
LINE
  5
4A5
330
1F
100
AcDbEntity
  8
101
  6
Continuous
 62
     7
370
    30
100
AcDbLine
 10
32.959158
 20
154.090192
 30
0.0
 11
31.97896
 21
152.313583
 31
0.0
  0
LINE
  5
4A6
330
1F
100
AcDbEntity
  8
101
  6
Continuous
 62
     7
370
    30
100
AcDbLine
 10
35.103342
 20
155.376702
 30
0.0
 11
32.959158
 21
154.090192
 31
0.0
  0
LINE
  5
4A7
330
1F
100
AcDbEntity
  8
101
  6
Continuous
 62
     7
370
    30
100
AcDbLine
 10
38.41151
 20
156.601949
 30
0.0
 11
35.103342
 21
155.376702
 31
0.0
  0
LINE
  5
4A8
330
1F
100
AcDbEntity
  8
101
  6
Continuous
 62
     7
370
    30
100
AcDbLine
 10
42.761139
 20
157.704672
 30
0.0
 11
38.41151
 21
156.601949
 31
0.0
  0
LINE
  5
4A9
330
1F
100
AcDbEntity
  8
101
  6
Continuous
 62
     7
370
    30
100
AcDbLine
 10
50.112624
 20
158.746132
 30
0.0
 11
42.761139
 21
157.704672
 31
0.0
  0
LINE
  5
4AA
330
1F
100
AcDbEntity
  8
101
  6
Continuous
 62
     7
370
    30
100
AcDbLine
 10
54.952351
 20
159.420019
 30
0.0
 11
50.112624
 21
158.746132
 31
0.0
  0
LINE
  5
4AB
330
1F
100
AcDbEntity
  8
101
  6
Continuous
 62
     7
370
    30
100
AcDbLine
 10
61.875
 20
160.155167
 30
0.0
 11
54.952351
 21
159.420019
 31
0.0
  0
LINE
  5
4AC
330
1F
100
AcDbEntity
  8
101
  6
Continuous
 62
     7
370
    30
100
AcDbLine
 10
69.287748
 20
160.829053
 30
0.0
 11
61.875
 21
160.155167
 31
0.0
  0
LINE
  5
4AD
330
1F
100
AcDbEntity
  8
101
  6
Continuous
 62
     7
370
    30
100
AcDbLine
 10
75.475248
 20
161.074103
 30
0.0
 11
69.287748
 21
160.829053
 31
0.0
  0
LINE
  5
4AE
330
1F
100
AcDbEntity
  8
101
  6
Continuous
 62
     7
370
    30
100
AcDbLine
 10
81.601485
 20
161.196627
 30
0.0
 11
75.475248
 21
161.074103
 31
0.0
  0
LINE
  5
4AF
330
1F
100
AcDbEntity
  8
101
  6
Continuous
 62
     7
370
    30
100
AcDbLine
 10
87.972772
 20
161.074103
 30
0.0
 11
81.601485
 21
161.196627
 31
0.0
  0
LINE
  5
4B0
330
1F
100
AcDbEntity
  8
101
  6
Continuous
 62
     7
370
    30
100
AcDbLine
 10
94.344059
 20
161.074103
 30
0.0
 11
87.972772
 21
161.074103
 31
0.0
  0
LINE
  5
4B1
330
1F
100
AcDbEntity
  8
101
  6
Continuous
 62
     7
370
    30
100
AcDbLine
 10
101.57302
 20
160.584004
 30
0.0
 11
94.344059
 21
161.074103
 31
0.0
  0
LINE
  5
4B2
330
1F
100
AcDbEntity
  8
101
  6
Continuous
 62
     7
370
    30
100
AcDbLine
 10
108.924505
 20
159.97138
 30
0.0
 11
101.57302
 21
160.584004
 31
0.0
  0
LINE
  5
4B3
330
1F
100
AcDbEntity
  8
101
  6
Continuous
 62
     7
370
    30
100
AcDbLine
 10
115.295792
 20
159.358756
 30
0.0
 11
108.924505
 21
159.97138
 31
0.0
  0
LINE
  5
4B4
330
1F
100
AcDbEntity
  8
101
  6
Continuous
 62
     7
370
    30
100
AcDbLine
 10
121.544554
 20
158.501083
 30
0.0
 11
115.295792
 21
159.358756
 31
0.0
  0
LINE
  5
4B5
330
1F
100
AcDbEntity
  8
101
  6
Continuous
 62
     7
370
    30
100
AcDbLine
 10
127.180693
 20
157.64341
 30
0.0
 11
121.544554
 21
158.501083
 31
0.0
  0
LINE
  5
4B6
330
1F
100
AcDbEntity
  8
101
  6
Continuous
 62
     7
370
    30
100
AcDbLine
 10
132.694307
 20
156.540687
 30
0.0
 11
127.180693
 21
157.64341
 31
0.0
  0
LINE
  5
4B7
330
1F
100
AcDbEntity
  8
101
  6
Continuous
 62
     7
370
    30
100
AcDbLine
 10
137.105198
 20
155.683014
 30
0.0
 11
132.694307
 21
156.540687
 31
0.0
  0
LINE
  5
4B8
330
1F
100
AcDbEntity
  8
101
  6
Continuous
 62
     7
370
    30
100
AcDbLine
 10
140.413366
 20
154.090192
 30
0.0
 11
137.105198
 21
155.683014
 31
0.0
  0
LINE
  5
4B9
330
1F
100
AcDbEntity
  8
101
  6
Continuous
 62
     7
370
    30
100
AcDbLine
 10
142.863861
 20
152.49737
 30
0.0
 11
140.413366
 21
154.090192
 31
0.0
  0
LINE
  5
4BA
330
1F
100
AcDbEntity
  8
101
  6
Continuous
 62
     7
370
    30
100
AcDbLine
 10
144.334158
 20
150.414449
 30
0.0
 11
142.863861
 21
152.49737
 31
0.0
  0
LINE
  5
4BB
330
1F
100
AcDbEntity
  8
101
  6
Continuous
 62
     7
370
    30
100
AcDbLine
 10
144.089109
 20
147.963954
 30
0.0
 11
144.334158
 21
150.414449
 31
0.0
  0
LINE
  5
4BC
330
1F
100
AcDbEntity
  8
101
  6
Continuous
 62
     7
370
    30
100
AcDbLine
 10
142.741337
 20
145.881033
 30
0.0
 11
144.089109
 21
147.963954
 31
0.0
  0
LINE
  5
4BD
330
1F
100
AcDbEntity
  8
101
  6
Continuous
 62
     7
370
    30
100
AcDbLine
 10
139.065594
 20
143.920637
 30
0.0
 11
142.741337
 21
145.881033
 31
0.0
  0
LINE
  5
4BE
330
1F
100
AcDbEntity
  8
101
  6
Continuous
 62
     7
370
    30
100
AcDbLine
 10
139.034963
 20
128.528465
 30
0.0
 11
139.065594
 21
143.920637
 31
0.0
  0
LINE
  5
4BF
330
1F
100
AcDbEntity
  8
101
  6
Continuous
 62
     7
370
    30
100
AcDbLine
 10
135.389851
 20
128.298731
 30
0.0
 11
135.267327
 21
131.300588
 31
0.0
  0
LINE
  5
4C0
330
1F
100
AcDbEntity
  8
101
  6
Continuous
 62
     7
370
    30
100
AcDbLine
 10
132.326733
 20
95.645885
 30
0.0
 11
134.348391
 21
97.116182
 31
0.0
  0
LINE
  5
4C1
330
1F
100
AcDbEntity
  8
101
  6
Continuous
 62
     7
370
    30
100
AcDbLine
 10
131.959158
 20
54.967667
 30
0.0
 11
132.326733
 21
95.645885
 31
0.0
  0
LINE
  5
4C2
330
1F
100
AcDbEntity
  8
101
  6
Continuous
 62
     7
370
    30
100
AcDbLine
 10
135.389851
 20
54.845142
 30
0.0
 11
131.959158
 21
54.967667
 31
0.0
  0
LINE
  5
4C3
330
1F
100
AcDbEntity
  8
101
  6
Continuous
 62
     7
370
    30
100
AcDbLine
 10
135.389851
 20
56.683014
 30
0.0
 11
135.389851
 21
54.845142
 31
0.0
  0
LINE
  5
4C4
330
1F
100
AcDbEntity
  8
101
  6
Continuous
 62
     7
370
    30
100
AcDbLine
 10
136.247525
 20
58.64341
 30
0.0
 11
135.389851
 21
56.683014
 31
0.0
  0
LINE
  5
4C5
330
1F
100
AcDbEntity
  8
101
  6
Continuous
 62
     7
370
    30
100
AcDbLine
 10
136.247525
 20
64.157024
 30
0.0
 11
136.247525
 21
58.64341
 31
0.0
  0
LINE
  5
4C6
330
1F
100
AcDbEntity
  8
101
  6
Continuous
 62
     7
370
    30
100
AcDbLine
 10
135.634901
 20
95.890934
 30
0.0
 11
136.247525
 21
64.157024
 31
0.0
  0
LINE
  5
4C7
330
1F
100
AcDbEntity
  8
101
  6
Continuous
 62
     7
370
    30
100
AcDbLine
 10
134.348391
 20
97.116182
 30
0.0
 11
135.634901
 21
95.890934
 31
0.0
  0
LINE
  5
4C8
330
1F
100
AcDbEntity
  8
101
  6
Continuous
 62
     7
370
    30
100
AcDbLine
 10
134.225866
 20
98.709004
 30
0.0
 11
134.348391
 21
97.116182
 31
0.0
  0
LINE
  5
4C9
330
1F
100
AcDbEntity
  8
101
  6
Continuous
 62
     7
370
    30
100
AcDbLine
 10
134.83849
 20
99.566677
 30
0.0
 11
134.225866
 21
98.709004
 31
0.0
  0
LINE
  5
4CA
330
1F
100
AcDbEntity
  8
101
  6
Continuous
 62
     7
370
    30
100
AcDbLine
 10
134.83849
 20
100.975712
 30
0.0
 11
134.83849
 21
99.566677
 31
0.0
  0
LINE
  5
4CB
330
1F
100
AcDbEntity
  8
101
  6
Continuous
 62
     7
370
    30
100
AcDbLine
 10
136.615099
 20
101.159499
 30
0.0
 11
134.83849
 21
100.975712
 31
0.0
  0
LINE
  5
4CC
330
1F
100
AcDbEntity
  8
101
  6
Continuous
 62
     7
370
    30
100
AcDbLine
 10
137.227723
 20
101.772123
 30
0.0
 11
136.615099
 21
101.159499
 31
0.0
  0
LINE
  5
4CD
330
1F
100
AcDbEntity
  8
101
  6
Continuous
 62
     7
370
    30
100
AcDbLine
 10
138.759282
 20
101.772123
 30
0.0
 11
137.227723
 21
101.772123
 31
0.0
  0
LINE
  5
4CE
330
1F
100
AcDbEntity
  8
101
  6
Continuous
 62
     7
370
    30
100
AcDbLine
 10
139.678218
 20
101.343286
 30
0.0
 11
138.759282
 21
101.772123
 31
0.0
  0
LINE
  5
4CF
330
1F
100
AcDbEntity
  8
101
  6
Continuous
 62
     7
370
    30
100
AcDbLine
 10
139.616955
 20
99.38289
 30
0.0
 11
139.678218
 21
101.343286
 31
0.0
  0
LINE
  5
4D0
330
1F
100
AcDbEntity
  8
101
  6
Continuous
 62
     7
370
    30
100
AcDbLine
 10
140.168317
 20
99.444152
 30
0.0
 11
139.616955
 21
99.38289
 31
0.0
  0
LINE
  5
4D1
330
1F
100
AcDbEntity
  8
101
  6
Continuous
 62
     7
370
    30
100
AcDbLine
 10
141.454827
 20
99.995514
 30
0.0
 11
140.168317
 21
99.444152
 31
0.0
  0
LINE
  5
4D2
330
1F
100
AcDbEntity
  8
101
  6
Continuous
 62
     7
370
    30
100
AcDbLine
 10
141.883663
 20
101.220761
 30
0.0
 11
141.454827
 21
99.995514
 31
0.0
  0
LINE
  5
4D3
330
1F
100
AcDbEntity
  8
101
  6
Continuous
 62
     7
370
    30
100
AcDbLine
 10
141.332302
 20
102.568533
 30
0.0
 11
141.883663
 21
101.220761
 31
0.0
  0
LINE
  5
4D4
330
1F
100
AcDbEntity
  8
101
  6
Continuous
 62
     7
370
    30
100
AcDbLine
 10
139.371906
 20
103.732519
 30
0.0
 11
141.332302
 21
102.568533
 31
0.0
  0
LINE
  5
4D5
330
1F
100
AcDbEntity
  8
101
  6
Continuous
 62
     7
370
    30
100
AcDbLine
 10
139.034963
 20
128.528465
 30
0.0
 11
139.371906
 21
103.732519
 31
0.0
  0
LINE
  5
4D6
330
1F
100
AcDbEntity
  8
101
  6
Continuous
 62
     7
370
    30
100
AcDbLine
 10
132.816832
 20
131.239325
 30
0.0
 11
132.694307
 21
142.021504
 31
0.0
  0
LINE
  5
4D7
330
1F
100
AcDbEntity
  8
101
  6
Continuous
 62
     7
370
    30
100
AcDbLine
 10
135.267327
 20
131.300588
 30
0.0
 11
134.593441
 21
142.879177
 31
0.0
  0
LINE
  5
4D8
330
1F
100
AcDbEntity
  8
101
  6
Continuous
 62
     7
370
    30
100
AcDbLine
 10
132.816832
 20
131.239325
 30
0.0
 11
135.267327
 21
131.300588
 31
0.0
  0
LINE
  5
4D9
330
1F
100
AcDbEntity
  8
101
  6
Continuous
 62
     7
370
    30
100
AcDbLine
 10
132.830594
 20
105.308416
 30
0.0
 11
133.368193
 21
105.264078
 31
0.0
  0
LINE
  5
4DA
330
1F
100
AcDbEntity
  8
101
  6
Continuous
 62
     7
370
    30
100
AcDbLine
 10
132.694307
 20
128.176207
 30
0.0
 11
132.830594
 21
105.308416
 31
0.0
  0
LINE
  5
4DB
330
1F
100
AcDbEntity
  8
101
  6
Continuous
 62
     7
370
    30
100
AcDbLine
 10
135.389851
 20
128.298731
 30
0.0
 11
132.694307
 21
128.176207
 31
0.0
  0
LINE
  5
4DC
330
1F
100
AcDbEntity
  8
101
  6
Continuous
 62
     7
370
    30
100
AcDbLine
 10
136.063738
 20
106.366801
 30
0.0
 11
135.389851
 21
128.298731
 31
0.0
  0
LINE
  5
4DD
330
1F
100
AcDbEntity
  8
101
  6
Continuous
 62
     7
370
    30
100
AcDbLine
 10
134.899752
 20
106.305538
 30
0.0
 11
136.063738
 21
106.366801
 31
0.0
  0
LINE
  5
4DE
330
1F
100
AcDbEntity
  8
101
  6
Continuous
 62
     7
370
    30
100
AcDbLine
 10
134.042079
 20
105.447865
 30
0.0
 11
134.899752
 21
106.305538
 31
0.0
  0
LINE
  5
4DF
330
1F
100
AcDbEntity
  8
101
  6
Continuous
 62
     7
370
    30
100
AcDbLine
 10
133.368193
 20
105.264078
 30
0.0
 11
134.042079
 21
105.447865
 31
0.0
  0
LINE
  5
4E0
330
1F
100
AcDbEntity
  8
101
  6
Continuous
 62
     7
370
    30
100
AcDbLine
 10
127.425743
 20
105.754177
 30
0.0
 11
133.368193
 21
105.264078
 31
0.0
  0
LINE
  5
4E1
330
1F
100
AcDbEntity
  8
101
  6
Continuous
 62
     7
370
    30
100
AcDbLine
 10
117.011139
 20
106.489325
 30
0.0
 11
127.425743
 21
105.754177
 31
0.0
  0
LINE
  5
4E2
330
1F
100
AcDbEntity
  8
101
  6
Continuous
 62
     7
370
    30
100
AcDbLine
 10
110.762376
 20
106.8569
 30
0.0
 11
117.011139
 21
106.489325
 31
0.0
  0
LINE
  5
4E3
330
1F
100
AcDbEntity
  8
101
  6
Continuous
 62
     7
370
    30
100
AcDbLine
 10
98.142327
 20
106.979425
 30
0.0
 11
110.762376
 21
106.8569
 31
0.0
  0
LINE
  5
4E4
330
1F
100
AcDbEntity
  8
101
  6
Continuous
 62
     7
370
    30
100
AcDbLine
 10
89.320545
 20
107.224474
 30
0.0
 11
98.142327
 21
106.979425
 31
0.0
  0
LINE
  5
4E5
330
1F
100
AcDbEntity
  8
101
  6
Continuous
 62
     7
370
    30
100
AcDbLine
 10
81.47896
 20
107.101949
 30
0.0
 11
89.320545
 21
107.224474
 31
0.0
  0
LINE
  5
4E6
330
1F
100
AcDbEntity
  8
101
  6
Continuous
 62
     7
370
    30
100
AcDbLine
 10
81.111386
 20
155.683014
 30
0.0
 11
81.47896
 21
107.101949
 31
0.0
  0
LINE
  5
4E7
330
1F
100
AcDbEntity
  8
101
  6
Continuous
 62
     7
370
    30
100
AcDbLine
 10
81.662748
 20
156.479425
 30
0.0
 11
81.111386
 21
155.683014
 31
0.0
  0
LINE
  5
4E8
330
1F
100
AcDbEntity
  8
101
  6
Continuous
 62
     7
370
    30
100
AcDbLine
 10
84.848391
 20
156.663212
 30
0.0
 11
81.662748
 21
156.479425
 31
0.0
  0
LINE
  5
4E9
330
1F
100
AcDbEntity
  8
101
  6
Continuous
 62
     7
370
    30
100
AcDbLine
 10
89.320545
 20
156.785736
 30
0.0
 11
84.848391
 21
156.663212
 31
0.0
  0
LINE
  5
4EA
330
1F
100
AcDbEntity
  8
101
  6
Continuous
 62
     7
370
    30
100
AcDbLine
 10
94.650371
 20
156.479425
 30
0.0
 11
89.320545
 21
156.785736
 31
0.0
  0
LINE
  5
4EB
330
1F
100
AcDbEntity
  8
101
  6
Continuous
 62
     7
370
    30
100
AcDbLine
 10
100.225248
 20
156.479425
 30
0.0
 11
94.650371
 21
156.479425
 31
0.0
  0
LINE
  5
4EC
330
1F
100
AcDbEntity
  8
101
  6
Continuous
 62
     7
370
    30
100
AcDbLine
 10
104.452351
 20
156.173113
 30
0.0
 11
100.225248
 21
156.479425
 31
0.0
  0
LINE
  5
4ED
330
1F
100
AcDbEntity
  8
101
  6
Continuous
 62
     7
370
    30
100
AcDbLine
 10
108.618193
 20
155.805538
 30
0.0
 11
104.452351
 21
156.173113
 31
0.0
  0
LINE
  5
4EE
330
1F
100
AcDbEntity
  8
101
  6
Continuous
 62
     7
370
    30
100
AcDbLine
 10
111.987624
 20
155.376702
 30
0.0
 11
108.618193
 21
155.805538
 31
0.0
  0
LINE
  5
4EF
330
1F
100
AcDbEntity
  8
101
  6
Continuous
 62
     7
370
    30
100
AcDbLine
 10
114.744431
 20
155.131652
 30
0.0
 11
111.987624
 21
155.376702
 31
0.0
  0
LINE
  5
4F0
330
1F
100
AcDbEntity
  8
101
  6
Continuous
 62
     7
370
    30
100
AcDbLine
 10
119.216584
 20
154.335241
 30
0.0
 11
114.744431
 21
155.131652
 31
0.0
  0
LINE
  5
4F1
330
1F
100
AcDbEntity
  8
101
  6
Continuous
 62
     7
370
    30
100
AcDbLine
 10
122.831064
 20
153.722618
 30
0.0
 11
119.216584
 21
154.335241
 31
0.0
  0
LINE
  5
4F2
330
1F
100
AcDbEntity
  8
101
  6
Continuous
 62
     7
370
    30
100
AcDbLine
 10
125.955446
 20
152.558632
 30
0.0
 11
122.831064
 21
153.722618
 31
0.0
  0
LINE
  5
4F3
330
1F
100
AcDbEntity
  8
101
  6
Continuous
 62
     7
370
    30
100
AcDbLine
 10
129.324876
 20
151.578434
 30
0.0
 11
125.955446
 21
152.558632
 31
0.0
  0
LINE
  5
4F4
330
1F
100
AcDbEntity
  8
101
  6
Continuous
 62
     7
370
    30
100
AcDbLine
 10
131.836634
 20
150.291925
 30
0.0
 11
129.324876
 21
151.578434
 31
0.0
  0
LINE
  5
4F5
330
1F
100
AcDbEntity
  8
101
  6
Continuous
 62
     7
370
    30
100
AcDbLine
 10
133.061881
 20
149.005415
 30
0.0
 11
131.836634
 21
150.291925
 31
0.0
  0
LINE
  5
4F6
330
1F
100
AcDbEntity
  8
101
  6
Continuous
 62
     7
370
    30
100
AcDbLine
 10
133.55198
 20
147.718905
 30
0.0
 11
133.061881
 21
149.005415
 31
0.0
  0
LINE
  5
4F7
330
1F
100
AcDbEntity
  8
101
  6
Continuous
 62
     7
370
    30
100
AcDbLine
 10
133.306931
 20
146.248608
 30
0.0
 11
133.55198
 21
147.718905
 31
0.0
  0
LINE
  5
4F8
330
1F
100
AcDbEntity
  8
101
  6
Continuous
 62
     7
370
    30
100
AcDbLine
 10
132.633045
 20
145.26841
 30
0.0
 11
133.306931
 21
146.248608
 31
0.0
  0
LINE
  5
4F9
330
1F
100
AcDbEntity
  8
101
  6
Continuous
 62
     7
370
    30
100
AcDbLine
 10
132.694307
 20
142.021504
 30
0.0
 11
132.633045
 21
145.26841
 31
0.0
  0
LINE
  5
4FA
330
1F
100
AcDbEntity
  8
101
  6
Continuous
 62
     7
370
    30
100
AcDbLine
 10
134.593441
 20
142.879177
 30
0.0
 11
132.694307
 21
142.021504
 31
0.0
  0
LINE
  5
4FB
330
1F
100
AcDbEntity
  8
101
  6
Continuous
 62
     7
370
    30
100
AcDbLine
 10
134.777228
 20
147.59638
 30
0.0
 11
134.593441
 21
142.879177
 31
0.0
  0
LINE
  5
4FC
330
1F
100
AcDbEntity
  8
101
  6
Continuous
 62
     7
370
    30
100
AcDbLine
 10
135.87995
 20
148.025217
 30
0.0
 11
134.777228
 21
147.59638
 31
0.0
  0
LINE
  5
4FD
330
1F
100
AcDbEntity
  8
101
  6
Continuous
 62
     7
370
    30
100
AcDbLine
 10
137.656559
 20
147.902692
 30
0.0
 11
135.87995
 21
148.025217
 31
0.0
  0
LINE
  5
4FE
330
1F
100
AcDbEntity
  8
101
  6
Continuous
 62
     7
370
    30
100
AcDbLine
 10
138.759282
 20
147.657642
 30
0.0
 11
137.656559
 21
147.902692
 31
0.0
  0
LINE
  5
4FF
330
1F
100
AcDbEntity
  8
101
  6
Continuous
 62
     7
370
    30
100
AcDbLine
 10
138.820545
 20
145.513459
 30
0.0
 11
138.759282
 21
147.657642
 31
0.0
  0
LINE
  5
500
330
1F
100
AcDbEntity
  8
101
  6
Continuous
 62
     7
370
    30
100
AcDbLine
 10
140.045792
 20
146.003558
 30
0.0
 11
138.820545
 21
145.513459
 31
0.0
  0
LINE
  5
501
330
1F
100
AcDbEntity
  8
101
  6
Continuous
 62
     7
370
    30
100
AcDbLine
 10
141.087252
 20
147.290068
 30
0.0
 11
140.045792
 21
146.003558
 31
0.0
  0
LINE
  5
502
330
1F
100
AcDbEntity
  8
101
  6
Continuous
 62
     7
370
    30
100
AcDbLine
 10
141.638614
 20
148.515316
 30
0.0
 11
141.087252
 21
147.290068
 31
0.0
  0
LINE
  5
503
330
1F
100
AcDbEntity
  8
101
  6
Continuous
 62
     7
370
    30
100
AcDbLine
 10
141.516089
 20
149.801825
 30
0.0
 11
141.638614
 21
148.515316
 31
0.0
  0
LINE
  5
504
330
1F
100
AcDbEntity
  8
101
  6
Continuous
 62
     7
370
    30
100
AcDbLine
 10
140.413366
 20
151.21086
 30
0.0
 11
141.516089
 21
149.801825
 31
0.0
  0
LINE
  5
505
330
1F
100
AcDbEntity
  8
101
  6
Continuous
 62
     7
370
    30
100
AcDbLine
 10
138.514233
 20
152.803682
 30
0.0
 11
140.413366
 21
151.21086
 31
0.0
  0
LINE
  5
506
330
1F
100
AcDbEntity
  8
101
  6
Continuous
 62
     7
370
    30
100
AcDbLine
 10
134.715965
 20
154.273979
 30
0.0
 11
138.514233
 21
152.803682
 31
0.0
  0
LINE
  5
507
330
1F
100
AcDbEntity
  8
101
  6
Continuous
 62
     7
370
    30
100
AcDbLine
 10
127.854579
 20
156.234375
 30
0.0
 11
134.715965
 21
154.273979
 31
0.0
  0
LINE
  5
508
330
1F
100
AcDbEntity
  8
101
  6
Continuous
 62
     7
370
    30
100
AcDbLine
 10
122.095916
 20
157.214573
 30
0.0
 11
127.854579
 21
156.234375
 31
0.0
  0
LINE
  5
509
330
1F
100
AcDbEntity
  8
101
  6
Continuous
 62
     7
370
    30
100
AcDbLine
 10
113.274134
 20
158.317296
 30
0.0
 11
122.095916
 21
157.214573
 31
0.0
  0
LINE
  5
50A
330
1F
100
AcDbEntity
  8
101
  6
Continuous
 62
     7
370
    30
100
AcDbLine
 10
107.209158
 20
158.68487
 30
0.0
 11
113.274134
 21
158.317296
 31
0.0
  0
LINE
  5
50B
330
1F
100
AcDbEntity
  8
101
  6
Continuous
 62
     7
370
    30
100
AcDbLine
 10
99.551361
 20
159.052444
 30
0.0
 11
107.209158
 21
158.68487
 31
0.0
  0
LINE
  5
50C
330
1F
100
AcDbEntity
  8
101
  6
Continuous
 62
     7
370
    30
100
AcDbLine
 10
93.302599
 20
159.236231
 30
0.0
 11
99.551361
 21
159.052444
 31
0.0
  0
LINE
  5
50D
330
1F
100
AcDbEntity
  8
101
  6
Continuous
 62
     7
370
    30
100
AcDbLine
 10
87.360149
 20
159.358756
 30
0.0
 11
93.302599
 21
159.236231
 31
0.0
  0
LINE
  5
50E
330
1F
100
AcDbEntity
  8
101
  6
Continuous
 62
     7
370
    30
100
AcDbLine
 10
78.415842
 20
159.358756
 30
0.0
 11
87.360149
 21
159.358756
 31
0.0
  0
LINE
  5
50F
330
1F
100
AcDbEntity
  8
101
  6
Continuous
 62
     7
370
    30
100
AcDbLine
 10
71.370668
 20
158.92992
 30
0.0
 11
78.415842
 21
159.358756
 31
0.0
  0
LINE
  5
510
330
1F
100
AcDbEntity
  8
101
  6
Continuous
 62
     7
370
    30
100
AcDbLine
 10
64.570545
 20
158.501083
 30
0.0
 11
71.370668
 21
158.92992
 31
0.0
  0
LINE
  5
511
330
1F
100
AcDbEntity
  8
101
  6
Continuous
 62
     7
370
    30
100
AcDbLine
 10
58.444307
 20
157.765934
 30
0.0
 11
64.570545
 21
158.501083
 31
0.0
  0
LINE
  5
512
330
1F
100
AcDbEntity
  8
101
  6
Continuous
 62
     7
370
    30
100
AcDbLine
 10
52.501856
 20
156.846999
 30
0.0
 11
58.444307
 21
157.765934
 31
0.0
  0
LINE
  5
513
330
1F
100
AcDbEntity
  8
101
  6
Continuous
 62
     7
370
    30
100
AcDbLine
 10
46.988243
 20
156.050588
 30
0.0
 11
52.501856
 21
156.846999
 31
0.0
  0
LINE
  5
514
330
1F
100
AcDbEntity
  8
101
  6
Continuous
 62
     7
370
    30
100
AcDbLine
 10
43.618812
 20
155.376702
 30
0.0
 11
46.988243
 21
156.050588
 31
0.0
  0
LINE
  5
515
330
1F
100
AcDbEntity
  8
101
  6
Continuous
 62
     7
370
    30
100
AcDbLine
 10
40.555693
 20
154.82534
 30
0.0
 11
43.618812
 21
155.376702
 31
0.0
  0
LINE
  5
516
330
1F
100
AcDbEntity
  8
101
  6
Continuous
 62
     7
370
    30
100
AcDbLine
 10
37.615099
 20
153.78388
 30
0.0
 11
40.555693
 21
154.82534
 31
0.0
  0
LINE
  5
517
330
1F
100
AcDbEntity
  8
101
  6
Continuous
 62
     7
370
    30
100
AcDbLine
 10
34.429455
 20
152.313583
 30
0.0
 11
37.615099
 21
153.78388
 31
0.0
  0
LINE
  5
518
330
1F
100
AcDbEntity
  8
101
  6
Continuous
 62
     7
370
    30
100
AcDbLine
 10
32.407797
 20
150.414449
 30
0.0
 11
34.429455
 21
152.313583
 31
0.0
  0
LINE
  5
519
330
1F
100
AcDbEntity
  8
101
  6
Continuous
 62
     7
370
    30
100
AcDbLine
 10
32.22401
 20
148.270266
 30
0.0
 11
32.407797
 21
150.414449
 31
0.0
  0
LINE
  5
51A
330
1F
100
AcDbEntity
  8
101
  6
Continuous
 62
     7
370
    30
100
AcDbLine
 10
33.51052
 20
146.432395
 30
0.0
 11
32.22401
 21
148.270266
 31
0.0
  0
LINE
  5
51B
330
1F
100
AcDbEntity
  8
101
  6
Continuous
 62
     7
370
    30
100
AcDbLine
 10
35.348391
 20
145.02336
 30
0.0
 11
33.51052
 21
146.432395
 31
0.0
  0
LINE
  5
51C
330
1F
100
AcDbEntity
  8
101
  6
Continuous
 62
     7
370
    30
100
AcDbLine
 10
36.810788
 20
143.948704
 30
0.0
 11
35.348391
 21
145.02336
 31
0.0
  0
LINE
  5
51D
330
1F
100
AcDbEntity
  8
101
  6
Continuous
 62
     7
370
    30
100
AcDbLine
 10
42.79177
 20
141.699876
 30
0.0
 11
40.499243
 21
142.592535
 31
0.0
  0
LINE
  5
51E
330
1F
100
AcDbEntity
  8
101
  6
Continuous
 62
     7
370
    30
100
AcDbLine
 10
34.827661
 20
103.104579
 30
0.0
 11
36.114171
 21
103.90099
 31
0.0
  0
LINE
  5
51F
330
1F
100
AcDbEntity
  8
101
  6
Continuous
 62
     7
370
    30
100
AcDbLine
 10
32.499691
 20
101.756807
 30
0.0
 11
34.827661
 21
103.104579
 31
0.0
  0
LINE
  5
520
330
1F
100
AcDbEntity
  8
101
  6
Continuous
 62
     7
370
    30
100
AcDbLine
 10
32.377166
 20
100.409035
 30
0.0
 11
32.499691
 21
101.756807
 31
0.0
  0
LINE
  5
521
330
1F
100
AcDbEntity
  8
101
  6
Continuous
 62
     7
370
    30
100
AcDbLine
 10
33.602413
 20
99.428837
 30
0.0
 11
32.377166
 21
100.409035
 31
0.0
  0
LINE
  5
522
330
1F
100
AcDbEntity
  8
101
  6
Continuous
 62
     7
370
    30
100
AcDbLine
 10
35.195235
 20
98.816213
 30
0.0
 11
33.602413
 21
99.428837
 31
0.0
  0
LINE
  5
523
330
1F
100
AcDbEntity
  8
101
  6
Continuous
 62
     7
370
    30
100
AcDbLine
 10
36.543007
 20
98.816213
 30
0.0
 11
35.195235
 21
98.816213
 31
0.0
  0
LINE
  5
524
330
1F
100
AcDbEntity
  8
101
  6
Continuous
 62
     7
370
    30
100
AcDbLine
 10
36.910582
 20
99.796411
 30
0.0
 11
36.543007
 21
98.816213
 31
0.0
  0
LINE
  5
525
330
1F
100
AcDbEntity
  8
101
  6
Continuous
 62
     7
370
    30
100
AcDbLine
 10
38.380879
 20
99.918936
 30
0.0
 11
36.910582
 21
99.796411
 31
0.0
  0
LINE
  5
526
330
1F
100
AcDbEntity
  8
101
  6
Continuous
 62
     7
370
    30
100
AcDbLine
 10
39.728651
 20
99.551361
 30
0.0
 11
38.380879
 21
99.918936
 31
0.0
  0
LINE
  5
527
330
1F
100
AcDbEntity
  8
101
  6
Continuous
 62
     7
370
    30
100
AcDbLine
 10
40.4638
 20
98.326114
 30
0.0
 11
39.728651
 21
99.551361
 31
0.0
  0
LINE
  5
528
330
1F
100
AcDbEntity
  8
101
  6
Continuous
 62
     7
370
    30
100
AcDbLine
 10
43.159344
 20
98.326114
 30
0.0
 11
40.4638
 21
98.326114
 31
0.0
  0
LINE
  5
529
330
1F
100
AcDbEntity
  8
101
  6
Continuous
 62
     7
370
    30
100
AcDbLine
 10
42.914295
 20
100.899134
 30
0.0
 11
43.159344
 21
98.326114
 31
0.0
  0
LINE
  5
52A
330
1F
100
AcDbEntity
  8
101
  6
Continuous
 62
     7
370
    30
100
AcDbLine
 10
44.997215
 20
101.879332
 30
0.0
 11
42.914295
 21
100.899134
 31
0.0
  0
LINE
  5
52B
330
1F
100
AcDbEntity
  8
101
  6
Continuous
 62
     7
370
    30
100
AcDbLine
 10
52.961324
 20
102.61448
 30
0.0
 11
44.997215
 21
101.879332
 31
0.0
  0
LINE
  5
52C
330
1F
100
AcDbEntity
  8
101
  6
Continuous
 62
     7
370
    30
100
AcDbLine
 10
61.415532
 20
103.227104
 30
0.0
 11
52.961324
 21
102.61448
 31
0.0
  0
LINE
  5
52D
330
1F
100
AcDbEntity
  8
101
  6
Continuous
 62
     7
370
    30
100
AcDbLine
 10
70.237314
 20
103.349629
 30
0.0
 11
61.415532
 21
103.227104
 31
0.0
  0
LINE
  5
52E
330
1F
100
AcDbEntity
  8
101
  6
Continuous
 62
     7
370
    30
100
AcDbLine
 10
76.608601
 20
103.349629
 30
0.0
 11
70.237314
 21
103.349629
 31
0.0
  0
LINE
  5
52F
330
1F
100
AcDbEntity
  8
101
  6
Continuous
 62
     7
370
    30
100
AcDbLine
 10
48.550433
 20
105.555074
 30
0.0
 11
42.79177
 21
105.310025
 31
0.0
  0
LINE
  5
530
330
1F
100
AcDbEntity
  8
101
  6
Continuous
 62
     7
370
    30
100
AcDbLine
 10
57.49474
 20
106.045173
 30
0.0
 11
48.550433
 21
105.555074
 31
0.0
  0
LINE
  5
531
330
1F
100
AcDbEntity
  8
101
  6
Continuous
 62
     7
370
    30
100
AcDbLine
 10
68.399443
 20
106.780322
 30
0.0
 11
57.49474
 21
106.045173
 31
0.0
  0
LINE
  5
532
330
1F
100
AcDbEntity
  8
101
  6
Continuous
 62
     7
370
    30
100
AcDbLine
 10
76.241027
 20
106.780322
 30
0.0
 11
68.399443
 21
106.780322
 31
0.0
  0
LINE
  5
533
330
1F
100
AcDbEntity
  8
101
  6
Continuous
 62
     7
370
    30
100
AcDbLine
 10
75.995978
 20
155.912748
 30
0.0
 11
76.241027
 21
106.780322
 31
0.0
  0
LINE
  5
534
330
1F
100
AcDbEntity
  8
101
  6
Continuous
 62
     7
370
    30
100
AcDbLine
 10
73.055384
 20
155.667698
 30
0.0
 11
75.995978
 21
155.912748
 31
0.0
  0
LINE
  5
535
330
1F
100
AcDbEntity
  8
101
  6
Continuous
 62
     7
370
    30
100
AcDbLine
 10
67.786819
 20
155.545173
 30
0.0
 11
73.055384
 21
155.667698
 31
0.0
  0
LINE
  5
536
330
1F
100
AcDbEntity
  8
101
  6
Continuous
 62
     7
370
    30
100
AcDbLine
 10
59.210087
 20
154.810025
 30
0.0
 11
67.786819
 21
155.545173
 31
0.0
  0
LINE
  5
537
330
1F
100
AcDbEntity
  8
101
  6
Continuous
 62
     7
370
    30
100
AcDbLine
 10
53.63521
 20
154.013614
 30
0.0
 11
59.210087
 21
154.810025
 31
0.0
  0
LINE
  5
538
330
1F
100
AcDbEntity
  8
101
  6
Continuous
 62
     7
370
    30
100
AcDbLine
 10
49.224319
 20
152.910891
 30
0.0
 11
53.63521
 21
154.013614
 31
0.0
  0
LINE
  5
539
330
1F
100
AcDbEntity
  8
101
  6
Continuous
 62
     7
370
    30
100
AcDbLine
 10
46.038676
 20
152.053218
 30
0.0
 11
49.224319
 21
152.910891
 31
0.0
  0
LINE
  5
53A
330
1F
100
AcDbEntity
  8
101
  6
Continuous
 62
     7
370
    30
100
AcDbLine
 10
43.526918
 20
151.195545
 30
0.0
 11
46.038676
 21
152.053218
 31
0.0
  0
LINE
  5
53B
330
1F
100
AcDbEntity
  8
101
  6
Continuous
 62
     7
370
    30
100
AcDbLine
 10
41.842203
 20
150.215347
 30
0.0
 11
43.526918
 21
151.195545
 31
0.0
  0
LINE
  5
53C
330
1F
100
AcDbEntity
  8
101
  6
Continuous
 62
     7
370
    30
100
AcDbLine
 10
41.045792
 20
149.54146
 30
0.0
 11
41.842203
 21
150.215347
 31
0.0
  0
LINE
  5
53D
330
1F
100
AcDbEntity
  8
101
  6
Continuous
 62
     7
370
    30
100
AcDbLine
 10
40.586324
 20
148.591894
 30
0.0
 11
41.045792
 21
149.54146
 31
0.0
  0
LINE
  5
53E
330
1F
100
AcDbEntity
  8
101
  6
Continuous
 62
     7
370
    30
100
AcDbLine
 10
40.586324
 20
147.672958
 30
0.0
 11
40.586324
 21
148.591894
 31
0.0
  0
LINE
  5
53F
330
1F
100
AcDbEntity
  8
101
  6
Continuous
 62
     7
370
    30
100
AcDbLine
 10
40.73948
 20
146.784653
 30
0.0
 11
40.586324
 21
147.672958
 31
0.0
  0
LINE
  5
540
330
1F
100
AcDbEntity
  8
101
  6
Continuous
 62
     7
370
    30
100
AcDbLine
 10
41.290842
 20
145.865718
 30
0.0
 11
40.73948
 21
146.784653
 31
0.0
  0
LINE
  5
541
330
1F
100
AcDbEntity
  8
101
  6
Continuous
 62
     7
370
    30
100
AcDbLine
 10
42.79177
 20
144.88552
 30
0.0
 11
41.290842
 21
145.865718
 31
0.0
  0
LINE
  5
542
330
1F
100
AcDbEntity
  8
101
  6
Continuous
 62
     7
370
    30
100
AcDbLine
 10
42.79177
 20
105.310025
 30
0.0
 11
39.544864
 21
104.881188
 31
0.0
  0
LINE
  5
543
330
1F
100
AcDbEntity
  8
101
  6
Continuous
 62
     7
370
    30
100
AcDbLine
 10
42.79177
 20
150.766708
 30
0.0
 11
42.79177
 21
105.310025
 31
0.0
  0
LINE
  5
544
330
1F
100
AcDbEntity
  8
101
  6
Continuous
 62
     7
370
    30
100
AcDbLine
 10
37.216894
 20
144.395421
 30
0.0
 11
36.60427
 21
143.721535
 31
0.0
  0
LINE
  5
545
330
1F
100
AcDbEntity
  8
101
  6
Continuous
 62
     7
370
    30
100
AcDbLine
 10
38.442141
 20
144.762995
 30
0.0
 11
37.216894
 21
144.395421
 31
0.0
  0
LINE
  5
546
330
1F
100
AcDbEntity
  8
101
  6
Continuous
 62
     7
370
    30
100
AcDbLine
 10
39.422339
 20
144.579208
 30
0.0
 11
38.442141
 21
144.762995
 31
0.0
  0
LINE
  5
547
330
1F
100
AcDbEntity
  8
101
  6
Continuous
 62
     7
370
    30
100
AcDbLine
 10
40.280012
 20
144.027847
 30
0.0
 11
39.422339
 21
144.579208
 31
0.0
  0
LINE
  5
548
330
1F
100
AcDbEntity
  8
101
  6
Continuous
 62
     7
370
    30
100
AcDbLine
 10
40.525062
 20
143.108911
 30
0.0
 11
40.280012
 21
144.027847
 31
0.0
  0
LINE
  5
549
330
1F
100
AcDbEntity
  8
101
  6
Continuous
 62
     7
370
    30
100
AcDbLine
 10
40.034963
 20
133.306931
 30
0.0
 11
40.525062
 21
143.108911
 31
0.0
  0
LINE
  5
54A
330
1F
100
AcDbEntity
  8
101
  6
Continuous
 62
     7
370
    30
100
AcDbLine
 10
39.912438
 20
121.299505
 30
0.0
 11
40.034963
 21
133.306931
 31
0.0
  0
LINE
  5
54B
330
1F
100
AcDbEntity
  8
101
  6
Continuous
 62
     7
370
    30
100
AcDbLine
 10
39.422339
 20
106.22896
 30
0.0
 11
39.912438
 21
121.299505
 31
0.0
  0
LINE
  5
54C
330
1F
100
AcDbEntity
  8
101
  6
Continuous
 62
     7
370
    30
100
AcDbLine
 10
39.544864
 20
104.881188
 30
0.0
 11
39.422339
 21
106.22896
 31
0.0
  0
LINE
  5
54D
330
1F
100
AcDbEntity
  8
101
  6
Continuous
 62
     7
370
    30
100
AcDbLine
 10
36.114171
 20
103.90099
 30
0.0
 11
39.544864
 21
104.881188
 31
0.0
  0
LINE
  5
54E
330
1F
100
AcDbEntity
  8
101
  6
Continuous
 62
     7
370
    30
100
AcDbLine
 10
36.481745
 20
120.931931
 30
0.0
 11
36.114171
 21
103.90099
 31
0.0
  0
LINE
  5
54F
330
1F
100
AcDbEntity
  8
101
  6
Continuous
 62
     7
370
    30
100
AcDbLine
 10
36.60427
 20
143.721535
 30
0.0
 11
36.481745
 21
120.931931
 31
0.0
  0
LINE
  5
550
330
1F
100
AcDbEntity
  8
101
  6
Continuous
 62
     7
370
    30
100
AcDbLine
 10
157.291151
 20
131.591584
 30
0.0
 11
166.235458
 21
131.714109
 31
0.0
  0
LINE
  5
551
330
1F
100
AcDbEntity
  8
101
  6
Continuous
 62
     7
370
    30
100
AcDbLine
 10
147.611696
 20
131.591584
 30
0.0
 11
157.291151
 21
131.591584
 31
0.0
  0
LINE
  5
552
330
1F
100
AcDbEntity
  8
101
  6
Continuous
 62
     7
370
    30
100
AcDbLine
 10
139.647587
 20
131.346535
 30
0.0
 11
147.611696
 21
131.591584
 31
0.0
  0
LINE
  5
553
330
1F
100
AcDbEntity
  8
101
  6
Continuous
 62
     7
370
    30
100
AcDbLine
 10
164.397587
 20
133.55198
 30
0.0
 11
155.943379
 21
132.694307
 31
0.0
  0
LINE
  5
554
330
1F
100
AcDbEntity
  8
101
  6
Continuous
 62
     7
370
    30
100
AcDbLine
 10
173.096844
 20
134.777228
 30
0.0
 11
164.397587
 21
133.55198
 31
0.0
  0
LINE
  5
555
330
1F
100
AcDbEntity
  8
101
  6
Continuous
 62
     7
370
    30
100
AcDbLine
 10
180.815903
 20
135.757426
 30
0.0
 11
173.096844
 21
134.777228
 31
0.0
  0
LINE
  5
556
330
1F
100
AcDbEntity
  8
101
  6
Continuous
 62
     7
370
    30
100
AcDbLine
 10
192.088181
 20
138.69802
 30
0.0
 11
180.815903
 21
135.757426
 31
0.0
  0
LINE
  5
557
330
1F
100
AcDbEntity
  8
101
  6
Continuous
 62
     7
370
    30
100
AcDbLine
 10
200.419864
 20
141.148515
 30
0.0
 11
192.088181
 21
138.69802
 31
0.0
  0
LINE
  5
558
330
1F
100
AcDbEntity
  8
101
  6
Continuous
 62
     7
370
    30
100
AcDbLine
 10
206.791151
 20
144.334158
 30
0.0
 11
200.419864
 21
141.148515
 31
0.0
  0
LINE
  5
559
330
1F
100
AcDbEntity
  8
101
  6
Continuous
 62
     7
370
    30
100
AcDbLine
 10
213.652537
 20
145.191832
 30
0.0
 11
210.466894
 21
142.496287
 31
0.0
  0
LINE
  5
55A
330
1F
100
AcDbEntity
  8
101
  6
Continuous
 62
     7
370
    30
100
AcDbLine
 10
215.000309
 20
147.642327
 30
0.0
 11
213.652537
 21
145.191832
 31
0.0
  0
LINE
  5
55B
330
1F
100
AcDbEntity
  8
101
  6
Continuous
 62
     7
370
    30
100
AcDbLine
 10
214.51021
 20
150.215347
 30
0.0
 11
215.000309
 21
147.642327
 31
0.0
  0
LINE
  5
55C
330
1F
100
AcDbEntity
  8
101
  6
Continuous
 62
     7
370
    30
100
AcDbLine
 10
212.917389
 20
152.788366
 30
0.0
 11
214.51021
 21
150.215347
 31
0.0
  0
LINE
  5
55D
330
1F
100
AcDbEntity
  8
101
  6
Continuous
 62
     7
370
    30
100
AcDbLine
 10
208.874072
 20
155.851485
 30
0.0
 11
212.917389
 21
152.788366
 31
0.0
  0
LINE
  5
55E
330
1F
100
AcDbEntity
  8
101
  6
Continuous
 62
     7
370
    30
100
AcDbLine
 10
204.70823
 20
158.669554
 30
0.0
 11
208.874072
 21
155.851485
 31
0.0
  0
LINE
  5
55F
330
1F
100
AcDbEntity
  8
101
  6
Continuous
 62
     7
370
    30
100
AcDbLine
 10
198.581993
 20
160.752475
 30
0.0
 11
204.70823
 21
158.669554
 31
0.0
  0
LINE
  5
560
330
1F
100
AcDbEntity
  8
101
  6
Continuous
 62
     7
370
    30
100
AcDbLine
 10
185.226795
 20
163.44802
 30
0.0
 11
198.581993
 21
160.752475
 31
0.0
  0
LINE
  5
561
330
1F
100
AcDbEntity
  8
101
  6
Continuous
 62
     7
370
    30
100
AcDbLine
 10
172.606745
 20
165.408416
 30
0.0
 11
185.226795
 21
163.44802
 31
0.0
  0
LINE
  5
562
330
1F
100
AcDbEntity
  8
101
  6
Continuous
 62
     7
370
    30
100
AcDbLine
 10
156.065903
 20
167.001238
 30
0.0
 11
172.606745
 21
165.408416
 31
0.0
  0
LINE
  5
563
330
1F
100
AcDbEntity
  8
101
  6
Continuous
 62
     7
370
    30
100
AcDbLine
 10
139.402537
 20
167.858911
 30
0.0
 11
156.065903
 21
167.001238
 31
0.0
  0
LINE
  5
564
330
1F
100
AcDbEntity
  8
101
  6
Continuous
 62
     7
370
    30
100
AcDbLine
 10
112.079517
 20
168.716584
 30
0.0
 11
139.402537
 21
167.858911
 31
0.0
  0
LINE
  5
565
330
1F
100
AcDbEntity
  8
101
  6
Continuous
 62
     7
370
    30
100
AcDbLine
 10
91.495359
 20
167.981436
 30
0.0
 11
112.079517
 21
168.716584
 31
0.0
  0
LINE
  5
566
330
1F
100
AcDbEntity
  8
101
  6
Continuous
 62
     7
370
    30
100
AcDbLine
 10
79.732983
 20
167.613861
 30
0.0
 11
91.495359
 21
167.981436
 31
0.0
  0
LINE
  5
567
330
1F
100
AcDbEntity
  8
101
  6
Continuous
 62
     7
370
    30
100
AcDbLine
 10
67.603032
 20
166.756188
 30
0.0
 11
79.732983
 21
167.613861
 31
0.0
  0
LINE
  5
568
330
1F
100
AcDbEntity
  8
101
  6
Continuous
 62
     7
370
    30
100
AcDbLine
 10
53.390161
 20
165.285891
 30
0.0
 11
67.603032
 21
166.756188
 31
0.0
  0
LINE
  5
569
330
1F
100
AcDbEntity
  8
101
  6
Continuous
 62
     7
370
    30
100
AcDbLine
 10
44.323329
 20
163.570545
 30
0.0
 11
53.390161
 21
165.285891
 31
0.0
  0
LINE
  5
56A
330
1F
100
AcDbEntity
  8
101
  6
Continuous
 62
     7
370
    30
100
AcDbLine
 10
33.296101
 20
161.12005
 30
0.0
 11
44.323329
 21
163.570545
 31
0.0
  0
LINE
  5
56B
330
1F
100
AcDbEntity
  8
101
  6
Continuous
 62
     7
370
    30
100
AcDbLine
 10
23.310334
 20
158.792079
 30
0.0
 11
33.296101
 21
161.12005
 31
0.0
  0
LINE
  5
56C
330
1F
100
AcDbEntity
  8
101
  6
Continuous
 62
     7
370
    30
100
AcDbLine
 10
18.470606
 20
157.505569
 30
0.0
 11
23.310334
 21
158.792079
 31
0.0
  0
LINE
  5
56D
330
1F
100
AcDbEntity
  8
101
  6
Continuous
 62
     7
370
    30
100
AcDbLine
 10
13.998453
 20
155.790223
 30
0.0
 11
18.470606
 21
157.505569
 31
0.0
  0
LINE
  5
56E
330
1F
100
AcDbEntity
  8
101
  6
Continuous
 62
     7
370
    30
100
AcDbLine
 10
10.016399
 20
154.074876
 30
0.0
 11
13.998453
 21
155.790223
 31
0.0
  0
LINE
  5
56F
330
1F
100
AcDbEntity
  8
101
  6
Continuous
 62
     7
370
    30
100
AcDbLine
 10
7.688428
 20
152.849629
 30
0.0
 11
10.016399
 21
154.074876
 31
0.0
  0
LINE
  5
570
330
1F
100
AcDbEntity
  8
101
  6
Continuous
 62
     7
370
    30
100
AcDbLine
 10
6.156869
 20
150.82797
 30
0.0
 11
7.688428
 21
152.849629
 31
0.0
  0
LINE
  5
571
330
1F
100
AcDbEntity
  8
101
  6
Continuous
 62
     7
370
    30
100
AcDbLine
 10
5.973082
 20
149.357673
 30
0.0
 11
6.156869
 21
150.82797
 31
0.0
  0
LINE
  5
572
330
1F
100
AcDbEntity
  8
101
  6
Continuous
 62
     7
370
    30
100
AcDbLine
 10
7.443379
 20
147.274752
 30
0.0
 11
5.973082
 21
149.357673
 31
0.0
  0
LINE
  5
573
330
1F
100
AcDbEntity
  8
101
  6
Continuous
 62
     7
370
    30
100
AcDbLine
 10
10.383973
 20
145.314356
 30
0.0
 11
7.443379
 21
147.274752
 31
0.0
  0
LINE
  5
574
330
1F
100
AcDbEntity
  8
101
  6
Continuous
 62
     7
370
    30
100
AcDbLine
 10
14.42729
 20
142.251238
 30
0.0
 11
10.383973
 21
145.314356
 31
0.0
  0
LINE
  5
575
330
1F
100
AcDbEntity
  8
101
  6
Continuous
 62
     7
370
    30
100
AcDbLine
 10
20.308478
 20
140.045792
 30
0.0
 11
14.42729
 21
142.251238
 31
0.0
  0
LINE
  5
576
330
1F
100
AcDbEntity
  8
101
  6
Continuous
 62
     7
370
    30
100
AcDbLine
 10
113.304765
 20
176.068069
 30
0.0
 11
120.905071
 21
174.42546
 31
0.0
  0
LINE
  5
577
330
1F
100
AcDbEntity
  8
101
  6
Continuous
 62
     7
370
    30
100
AcDbLine
 10
104.115408
 20
177.538366
 30
0.0
 11
113.304765
 21
176.068069
 31
0.0
  0
LINE
  5
578
330
1F
100
AcDbEntity
  8
101
  6
Continuous
 62
     7
370
    30
100
AcDbLine
 10
94.803527
 20
177.783416
 30
0.0
 11
104.115408
 21
177.538366
 31
0.0
  0
LINE
  5
579
330
1F
100
AcDbEntity
  8
101
  6
Continuous
 62
     7
370
    30
100
AcDbLine
 10
81.570854
 20
178.028465
 30
0.0
 11
94.803527
 21
177.783416
 31
0.0
  0
LINE
  5
57A
330
1F
100
AcDbEntity
  8
101
  6
Continuous
 62
     7
370
    30
100
AcDbLine
 10
70.298577
 20
177.415842
 30
0.0
 11
81.570854
 21
178.028465
 31
0.0
  0
LINE
  5
57B
330
1F
100
AcDbEntity
  8
101
  6
Continuous
 62
     7
370
    30
100
AcDbLine
 10
61.231745
 20
176.803218
 30
0.0
 11
70.298577
 21
177.415842
 31
0.0
  0
LINE
  5
57C
330
1F
100
AcDbEntity
  8
101
  6
Continuous
 62
     7
370
    30
100
AcDbLine
 10
50.939666
 20
175.639233
 30
0.0
 11
61.231745
 21
176.803218
 31
0.0
  0
LINE
  5
57D
330
1F
100
AcDbEntity
  8
101
  6
Continuous
 62
     7
370
    30
100
AcDbLine
 10
45.303527
 20
173.985149
 30
0.0
 11
50.939666
 21
175.639233
 31
0.0
  0
LINE
  5
57E
330
1F
100
AcDbEntity
  8
101
  6
Continuous
 62
     7
370
    30
100
AcDbLine
 10
37.829517
 20
171.595916
 30
0.0
 11
45.303527
 21
173.985149
 31
0.0
  0
LINE
  5
57F
330
1F
100
AcDbEntity
  8
101
  6
Continuous
 62
     7
370
    30
100
AcDbLine
 10
36.114171
 20
170.799505
 30
0.0
 11
37.829517
 21
171.595916
 31
0.0
  0
LINE
  5
580
330
1F
100
AcDbEntity
  8
101
  6
Continuous
 62
     7
370
    30
100
AcDbLine
 10
29.715496
 20
166.034474
 30
0.0
 11
36.114171
 21
170.799505
 31
0.0
  0
LINE
  5
581
330
1F
100
AcDbEntity
  8
101
  6
Continuous
 62
     7
370
    30
100
AcDbLine
 10
149.204517
 20
129.141089
 30
0.0
 11
139.034963
 21
128.528465
 31
0.0
  0
LINE
  5
582
330
1F
100
AcDbEntity
  8
101
  6
Continuous
 62
     7
370
    30
100
AcDbLine
 10
158.271349
 20
129.631188
 30
0.0
 11
149.204517
 21
129.141089
 31
0.0
  0
LINE
  5
583
330
1F
100
AcDbEntity
  8
101
  6
Continuous
 62
     7
370
    30
100
AcDbLine
 10
171.871597
 20
130.733911
 30
0.0
 11
158.271349
 21
129.631188
 31
0.0
  0
LINE
  5
584
330
1F
100
AcDbEntity
  8
101
  6
Continuous
 62
     7
370
    30
100
AcDbLine
 10
180.938428
 20
131.469059
 30
0.0
 11
171.871597
 21
130.733911
 31
0.0
  0
LINE
  5
585
330
1F
100
AcDbEntity
  8
101
  6
Continuous
 62
     7
370
    30
100
AcDbLine
 10
190.740408
 20
133.429455
 30
0.0
 11
180.938428
 21
131.469059
 31
0.0
  0
LINE
  5
586
330
1F
100
AcDbEntity
  8
101
  6
Continuous
 62
     7
370
    30
100
AcDbLine
 10
200.297339
 20
135.757426
 30
0.0
 11
190.740408
 21
133.429455
 31
0.0
  0
LINE
  5
587
330
1F
100
AcDbEntity
  8
101
  6
Continuous
 62
     7
370
    30
100
AcDbLine
 10
208.016399
 20
138.514233
 30
0.0
 11
200.297339
 21
135.757426
 31
0.0
  0
LINE
  5
588
330
1F
100
AcDbEntity
  8
101
  6
Continuous
 62
     7
370
    30
100
AcDbLine
 10
211.875928
 20
139.862005
 30
0.0
 11
208.016399
 21
138.514233
 31
0.0
  0
LINE
  5
589
330
1F
100
AcDbEntity
  8
101
  6
Continuous
 62
     7
370
    30
100
AcDbLine
 10
216.164295
 20
142.251238
 30
0.0
 11
211.875928
 21
139.862005
 31
0.0
  0
LINE
  5
58A
330
1F
100
AcDbEntity
  8
101
  6
Continuous
 62
     7
370
    30
100
AcDbLine
 10
218.185953
 20
144.334158
 30
0.0
 11
216.164295
 21
142.251238
 31
0.0
  0
LINE
  5
58B
330
1F
100
AcDbEntity
  8
101
  6
Continuous
 62
     7
370
    30
100
AcDbLine
 10
219.778775
 20
146.417079
 30
0.0
 11
218.185953
 21
144.334158
 31
0.0
  0
LINE
  5
58C
330
1F
100
AcDbEntity
  8
101
  6
Continuous
 62
     7
370
    30
100
AcDbLine
 10
220.391399
 20
148.009901
 30
0.0
 11
219.778775
 21
146.417079
 31
0.0
  0
LINE
  5
58D
330
1F
100
AcDbEntity
  8
101
  6
Continuous
 62
     7
370
    30
100
AcDbLine
 10
220.207611
 20
149.847772
 30
0.0
 11
220.391399
 21
148.009901
 31
0.0
  0
LINE
  5
58E
330
1F
100
AcDbEntity
  8
101
  6
Continuous
 62
     7
370
    30
100
AcDbLine
 10
219.533725
 20
151.501856
 30
0.0
 11
220.207611
 21
149.847772
 31
0.0
  0
LINE
  5
58F
330
1F
100
AcDbEntity
  8
101
  6
Continuous
 62
     7
370
    30
100
AcDbLine
 10
218.676052
 20
152.910891
 30
0.0
 11
219.533725
 21
151.501856
 31
0.0
  0
LINE
  5
590
330
1F
100
AcDbEntity
  8
101
  6
Continuous
 62
     7
370
    30
100
AcDbLine
 10
216.103032
 20
156.709158
 30
0.0
 11
218.676052
 21
152.910891
 31
0.0
  0
LINE
  5
591
330
1F
100
AcDbEntity
  8
101
  6
Continuous
 62
     7
370
    30
100
AcDbLine
 10
211.324567
 20
160.017327
 30
0.0
 11
216.103032
 21
156.709158
 31
0.0
  0
LINE
  5
592
330
1F
100
AcDbEntity
  8
101
  6
Continuous
 62
     7
370
    30
100
AcDbLine
 10
205.443379
 20
162.957921
 30
0.0
 11
211.324567
 21
160.017327
 31
0.0
  0
LINE
  5
593
330
1F
100
AcDbEntity
  8
101
  6
Continuous
 62
     7
370
    30
100
AcDbLine
 10
189.882735
 20
167.491337
 30
0.0
 11
205.443379
 21
162.957921
 31
0.0
  0
LINE
  5
594
330
1F
100
AcDbEntity
  8
101
  6
Continuous
 62
     7
370
    30
100
AcDbLine
 10
173.954517
 20
170.67698
 30
0.0
 11
189.882735
 21
167.491337
 31
0.0
  0
LINE
  5
595
330
1F
100
AcDbEntity
  8
101
  6
Continuous
 62
     7
370
    30
100
AcDbLine
 10
154.718131
 20
173.00495
 30
0.0
 11
173.954517
 21
170.67698
 31
0.0
  0
LINE
  5
596
330
1F
100
AcDbEntity
  8
101
  6
Continuous
 62
     7
370
    30
100
AcDbLine
 10
139.280012
 20
174.352723
 30
0.0
 11
154.718131
 21
173.00495
 31
0.0
  0
LINE
  5
597
330
1F
100
AcDbEntity
  8
101
  6
Continuous
 62
     7
370
    30
100
AcDbLine
 10
126.414913
 20
174.475248
 30
0.0
 11
139.280012
 21
174.352723
 31
0.0
  0
LINE
  5
598
330
1F
100
AcDbEntity
  8
101
  6
Continuous
 62
     7
370
    30
100
AcDbLine
 10
106.075804
 20
174.29146
 30
0.0
 11
126.414913
 21
174.475248
 31
0.0
  0
LINE
  5
599
330
1F
100
AcDbEntity
  8
101
  6
Continuous
 62
     7
370
    30
100
AcDbLine
 10
97.682859
 20
173.801361
 30
0.0
 11
106.075804
 21
174.29146
 31
0.0
  0
LINE
  5
59A
330
1F
100
AcDbEntity
  8
101
  6
Continuous
 62
     7
370
    30
100
AcDbLine
 10
82.428527
 20
173.00495
 30
0.0
 11
97.682859
 21
173.801361
 31
0.0
  0
LINE
  5
59B
330
1F
100
AcDbEntity
  8
101
  6
Continuous
 62
     7
370
    30
100
AcDbLine
 10
76.424814
 20
172.576114
 30
0.0
 11
82.428527
 21
173.00495
 31
0.0
  0
LINE
  5
59C
330
1F
100
AcDbEntity
  8
101
  6
Continuous
 62
     7
370
    30
100
AcDbLine
 10
69.379641
 20
172.024752
 30
0.0
 11
76.424814
 21
172.576114
 31
0.0
  0
LINE
  5
59D
330
1F
100
AcDbEntity
  8
101
  6
Continuous
 62
     7
370
    30
100
AcDbLine
 10
57.004641
 20
170.738243
 30
0.0
 11
69.379641
 21
172.024752
 31
0.0
  0
LINE
  5
59E
330
1F
100
AcDbEntity
  8
101
  6
Continuous
 62
     7
370
    30
100
AcDbLine
 10
50.817141
 20
170.064356
 30
0.0
 11
57.004641
 21
170.738243
 31
0.0
  0
LINE
  5
59F
330
1F
100
AcDbEntity
  8
101
  6
Continuous
 62
     7
370
    30
100
AcDbLine
 10
43.588181
 20
168.900371
 30
0.0
 11
50.817141
 21
170.064356
 31
0.0
  0
LINE
  5
5A0
330
1F
100
AcDbEntity
  8
101
  6
Continuous
 62
     7
370
    30
100
AcDbLine
 10
33.602413
 20
166.81745
 30
0.0
 11
43.588181
 21
168.900371
 31
0.0
  0
LINE
  5
5A1
330
1F
100
AcDbEntity
  8
101
  6
Continuous
 62
     7
370
    30
100
AcDbLine
 10
25.086943
 20
165.102104
 30
0.0
 11
33.602413
 21
166.81745
 31
0.0
  0
LINE
  5
5A2
330
1F
100
AcDbEntity
  8
101
  6
Continuous
 62
     7
370
    30
100
AcDbLine
 10
20.365028
 20
163.349058
 30
0.0
 11
25.086943
 21
165.102104
 31
0.0
  0
LINE
  5
5A3
330
1F
100
AcDbEntity
  8
101
  6
Continuous
 62
     7
370
    30
100
AcDbLine
 10
15.591275
 20
161.671411
 30
0.0
 11
20.365028
 21
163.349058
 31
0.0
  0
LINE
  5
5A4
330
1F
100
AcDbEntity
  8
101
  6
Continuous
 62
     7
370
    30
100
AcDbLine
 10
10.812809
 20
159.343441
 30
0.0
 11
15.591275
 21
161.671411
 31
0.0
  0
LINE
  5
5A5
330
1F
100
AcDbEntity
  8
101
  6
Continuous
 62
     7
370
    30
100
AcDbLine
 10
6.279394
 20
156.647896
 30
0.0
 11
10.812809
 21
159.343441
 31
0.0
  0
LINE
  5
5A6
330
1F
100
AcDbEntity
  8
101
  6
Continuous
 62
     7
370
    30
100
AcDbLine
 10
2.481126
 20
153.339728
 30
0.0
 11
6.279394
 21
156.647896
 31
0.0
  0
LINE
  5
5A7
330
1F
100
AcDbEntity
  8
101
  6
Continuous
 62
     7
370
    30
100
AcDbLine
 10
1.868502
 20
151.011757
 30
0.0
 11
2.481126
 21
153.339728
 31
0.0
  0
LINE
  5
5A8
330
1F
100
AcDbEntity
  8
101
  6
Continuous
 62
     7
370
    30
100
AcDbLine
 10
2.236077
 20
149.173886
 30
0.0
 11
1.868502
 21
151.011757
 31
0.0
  0
LINE
  5
5A9
330
1F
100
AcDbEntity
  8
101
  6
Continuous
 62
     7
370
    30
100
AcDbLine
 10
4.073948
 20
145.988243
 30
0.0
 11
2.236077
 21
149.173886
 31
0.0
  0
LINE
  5
5AA
330
1F
100
AcDbEntity
  8
101
  6
Continuous
 62
     7
370
    30
100
AcDbLine
 10
7.014542
 20
143.047649
 30
0.0
 11
4.073948
 21
145.988243
 31
0.0
  0
LINE
  5
5AB
330
1F
100
AcDbEntity
  8
101
  6
Continuous
 62
     7
370
    30
100
AcDbLine
 10
10.32271
 20
141.699876
 30
0.0
 11
7.014542
 21
143.047649
 31
0.0
  0
LINE
  5
5AC
330
1F
100
AcDbEntity
  8
101
  6
Continuous
 62
     7
370
    30
100
AcDbLine
 10
15.836324
 20
139.126856
 30
0.0
 11
10.32271
 21
141.699876
 31
0.0
  0
LINE
  5
5AD
330
1F
100
AcDbEntity
  8
101
  6
Continuous
 62
     7
370
    30
100
AcDbLine
 10
19.879641
 20
137.41151
 30
0.0
 11
15.836324
 21
139.126856
 31
0.0
  0
LINE
  5
5AE
330
1F
100
AcDbEntity
  8
101
  6
Continuous
 62
     7
370
    30
100
AcDbLine
 10
26.128403
 20
136.063738
 30
0.0
 11
19.879641
 21
137.41151
 31
0.0
  0
LINE
  5
5AF
330
1F
100
AcDbEntity
  8
101
  6
Continuous
 62
     7
370
    30
100
AcDbLine
 10
36.788057
 20
133.245668
 30
0.0
 11
26.128403
 21
136.063738
 31
0.0
  0
LINE
  5
5B0
330
1F
100
AcDbEntity
  8
101
  6
Continuous
 62
     7
370
    30
100
AcDbLine
 10
38.258354
 20
179.131188
 30
0.0
 11
37.829517
 21
171.595916
 31
0.0
  0
LINE
  5
5B1
330
1F
100
AcDbEntity
  8
101
  6
Continuous
 62
     7
370
    30
100
AcDbLine
 10
32.622215
 20
169.63552
 30
0.0
 11
33.112314
 21
168.961634
 31
0.0
  0
LINE
  5
5B2
330
1F
100
AcDbEntity
  8
101
  6
Continuous
 62
     7
370
    30
100
AcDbLine
 10
32.254641
 20
171.289604
 30
0.0
 11
32.622215
 21
169.63552
 31
0.0
  0
LINE
  5
5B3
330
1F
100
AcDbEntity
  8
101
  6
Continuous
 62
     7
370
    30
100
AcDbLine
 10
32.193379
 20
174.29146
 30
0.0
 11
32.254641
 21
171.289604
 31
0.0
  0
LINE
  5
5B4
330
1F
100
AcDbEntity
  8
101
  6
Continuous
 62
     7
370
    30
100
AcDbLine
 10
33.051052
 20
177.415842
 30
0.0
 11
32.193379
 21
174.29146
 31
0.0
  0
LINE
  5
5B5
330
1F
100
AcDbEntity
  8
101
  6
Continuous
 62
     7
370
    30
100
AcDbLine
 10
33.724938
 20
179.376238
 30
0.0
 11
33.051052
 21
177.415842
 31
0.0
  0
LINE
  5
5B6
330
1F
100
AcDbEntity
  8
101
  6
Continuous
 62
     7
370
    30
100
AcDbLine
 10
35.501547
 20
181.275371
 30
0.0
 11
33.724938
 21
179.376238
 31
0.0
  0
LINE
  5
5B7
330
1F
100
AcDbEntity
  8
101
  6
Continuous
 62
     7
370
    30
100
AcDbLine
 10
40.4638
 20
181.887995
 30
0.0
 11
37.339418
 21
182.806931
 31
0.0
  0
LINE
  5
5B8
330
1F
100
AcDbEntity
  8
101
  6
Continuous
 62
     7
370
    30
100
AcDbLine
 10
38.258354
 20
179.131188
 30
0.0
 11
40.4638
 21
181.887995
 31
0.0
  0
LINE
  5
5B9
330
1F
100
AcDbEntity
  8
101
  6
Continuous
 62
     7
370
    30
100
AcDbLine
 10
38.197092
 20
180.356436
 30
0.0
 11
38.258354
 21
179.131188
 31
0.0
  0
LINE
  5
5BA
330
1F
100
AcDbEntity
  8
101
  6
Continuous
 62
     7
370
    30
100
AcDbLine
 10
37.339418
 20
182.806931
 30
0.0
 11
38.197092
 21
180.356436
 31
0.0
  0
LINE
  5
5BB
330
1F
100
AcDbEntity
  8
101
  6
Continuous
 62
     7
370
    30
100
AcDbLine
 10
31.151918
 20
168.10396
 30
0.0
 11
31.580755
 21
167.613861
 31
0.0
  0
LINE
  5
5BC
330
1F
100
AcDbEntity
  8
101
  6
Continuous
 62
     7
370
    30
100
AcDbLine
 10
29.926671
 20
170.064356
 30
0.0
 11
31.151918
 21
168.10396
 31
0.0
  0
LINE
  5
5BD
330
1F
100
AcDbEntity
  8
101
  6
Continuous
 62
     7
370
    30
100
AcDbLine
 10
29.681621
 20
172.698639
 30
0.0
 11
29.926671
 21
170.064356
 31
0.0
  0
LINE
  5
5BE
330
1F
100
AcDbEntity
  8
101
  6
Continuous
 62
     7
370
    30
100
AcDbLine
 10
29.865408
 20
175.884282
 30
0.0
 11
29.681621
 21
172.698639
 31
0.0
  0
LINE
  5
5BF
330
1F
100
AcDbEntity
  8
101
  6
Continuous
 62
     7
370
    30
100
AcDbLine
 10
30.723082
 20
179.131188
 30
0.0
 11
29.865408
 21
175.884282
 31
0.0
  0
LINE
  5
5C0
330
1F
100
AcDbEntity
  8
101
  6
Continuous
 62
     7
370
    30
100
AcDbLine
 10
32.377166
 20
181.704208
 30
0.0
 11
30.723082
 21
179.131188
 31
0.0
  0
LINE
  5
5C1
330
1F
100
AcDbEntity
  8
101
  6
Continuous
 62
     7
370
    30
100
AcDbLine
 10
34.582611
 20
183.113243
 30
0.0
 11
32.377166
 21
181.704208
 31
0.0
  0
LINE
  5
5C2
330
1F
100
AcDbEntity
  8
101
  6
Continuous
 62
     7
370
    30
100
AcDbLine
 10
24.566213
 20
191.628713
 30
0.0
 11
24.301294
 21
191.31909
 31
0.0
  0
LINE
  5
5C3
330
1F
100
AcDbEntity
  8
101
  6
Continuous
 62
     7
370
    30
100
AcDbLine
 10
24.841894
 20
192.700804
 30
0.0
 11
24.566213
 21
191.628713
 31
0.0
  0
LINE
  5
5C4
330
1F
100
AcDbEntity
  8
101
  6
Continuous
 62
     7
370
    30
100
AcDbLine
 10
24.780631
 20
193.803527
 30
0.0
 11
24.841894
 21
192.700804
 31
0.0
  0
LINE
  5
5C5
330
1F
100
AcDbEntity
  8
101
  6
Continuous
 62
     7
370
    30
100
AcDbLine
 10
24.566213
 20
194.783725
 30
0.0
 11
24.780631
 21
193.803527
 31
0.0
  0
LINE
  5
5C6
330
1F
100
AcDbEntity
  8
101
  6
Continuous
 62
     7
370
    30
100
AcDbLine
 10
23.769802
 20
195.488243
 30
0.0
 11
24.566213
 21
194.783725
 31
0.0
  0
LINE
  5
5C7
330
1F
100
AcDbEntity
  8
101
  6
Continuous
 62
     7
370
    30
100
AcDbLine
 10
24.872525
 20
195.120668
 30
0.0
 11
23.769802
 21
195.488243
 31
0.0
  0
LINE
  5
5C8
330
1F
100
AcDbEntity
  8
101
  6
Continuous
 62
     7
370
    30
100
AcDbLine
 10
25.240099
 20
194.569307
 30
0.0
 11
24.872525
 21
195.120668
 31
0.0
  0
LINE
  5
5C9
330
1F
100
AcDbEntity
  8
101
  6
Continuous
 62
     7
370
    30
100
AcDbLine
 10
25.668936
 20
193.497215
 30
0.0
 11
25.240099
 21
194.569307
 31
0.0
  0
LINE
  5
5CA
330
1F
100
AcDbEntity
  8
101
  6
Continuous
 62
     7
370
    30
100
AcDbLine
 10
25.607673
 20
192.210705
 30
0.0
 11
25.668936
 21
193.497215
 31
0.0
  0
LINE
  5
5CB
330
1F
100
AcDbEntity
  8
101
  6
Continuous
 62
     7
370
    30
100
AcDbLine
 10
25.056312
 20
191.444926
 30
0.0
 11
25.607673
 21
192.210705
 31
0.0
  0
LINE
  5
5CC
330
1F
100
AcDbEntity
  8
101
  6
Continuous
 62
     7
370
    30
100
AcDbLine
 10
23.953589
 20
191.261139
 30
0.0
 11
25.056312
 21
191.444926
 31
0.0
  0
LINE
  5
5CD
330
1F
100
AcDbEntity
  8
101
  6
Continuous
 62
     7
370
    30
100
AcDbLine
 10
23.126547
 20
191.353032
 30
0.0
 11
23.953589
 21
191.261139
 31
0.0
  0
LINE
  5
5CE
330
1F
100
AcDbEntity
  8
101
  6
Continuous
 62
     7
370
    30
100
AcDbLine
 10
22.42203
 20
192.210705
 30
0.0
 11
23.126547
 21
191.353032
 31
0.0
  0
LINE
  5
5CF
330
1F
100
AcDbEntity
  8
101
  6
Continuous
 62
     7
370
    30
100
AcDbLine
 10
22.299505
 20
193.160272
 30
0.0
 11
22.42203
 21
192.210705
 31
0.0
  0
LINE
  5
5D0
330
1F
100
AcDbEntity
  8
101
  6
Continuous
 62
     7
370
    30
100
AcDbLine
 10
22.299505
 20
194.324257
 30
0.0
 11
22.299505
 21
193.160272
 31
0.0
  0
LINE
  5
5D1
330
1F
100
AcDbEntity
  8
101
  6
Continuous
 62
     7
370
    30
100
AcDbLine
 10
22.789604
 20
195.1513
 30
0.0
 11
22.299505
 21
194.324257
 31
0.0
  0
LINE
  5
5D2
330
1F
100
AcDbEntity
  8
101
  6
Continuous
 62
     7
370
    30
100
AcDbLine
 10
23.769802
 20
195.488243
 30
0.0
 11
22.789604
 21
195.1513
 31
0.0
  0
LINE
  5
5D3
330
1F
100
AcDbEntity
  8
101
  6
Continuous
 62
     7
370
    30
100
AcDbLine
 10
20.063428
 20
194.875619
 30
0.0
 11
21.349938
 21
195.855817
 31
0.0
  0
LINE
  5
5D4
330
1F
100
AcDbEntity
  8
101
  6
Continuous
 62
     7
370
    30
100
AcDbLine
 10
19.32828
 20
192.915223
 30
0.0
 11
20.063428
 21
194.875619
 31
0.0
  0
LINE
  5
5D5
330
1F
100
AcDbEntity
  8
101
  6
Continuous
 62
     7
370
    30
100
AcDbLine
 10
19.08323
 20
188.994431
 30
0.0
 11
19.32828
 21
192.915223
 31
0.0
  0
LINE
  5
5D6
330
1F
100
AcDbEntity
  8
101
  6
Continuous
 62
     7
370
    30
100
AcDbLine
 10
19.32828
 20
185.563738
 30
0.0
 11
19.08323
 21
188.994431
 31
0.0
  0
LINE
  5
5D7
330
1F
100
AcDbEntity
  8
101
  6
Continuous
 62
     7
370
    30
100
AcDbLine
 10
20.063428
 20
184.58354
 30
0.0
 11
19.32828
 21
185.563738
 31
0.0
  0
LINE
  5
5D8
330
1F
100
AcDbEntity
  8
101
  6
Continuous
 62
     7
370
    30
100
AcDbLine
 10
25.331993
 20
179.927599
 30
0.0
 11
20.063428
 21
184.58354
 31
0.0
  0
LINE
  5
5D9
330
1F
100
AcDbEntity
  8
101
  6
Continuous
 62
     7
370
    30
100
AcDbLine
 10
25.577042
 20
178.824876
 30
0.0
 11
25.086943
 21
165.102104
 31
0.0
  0
LINE
  5
5DA
330
1F
100
AcDbEntity
  8
101
  6
Continuous
 62
     7
370
    30
100
AcDbLine
 10
24.22927
 20
187.646658
 30
0.0
 11
24.22927
 21
182.500619
 31
0.0
  0
LINE
  5
5DB
330
1F
100
AcDbEntity
  8
101
  6
Continuous
 62
     7
370
    30
100
AcDbLine
 10
26.55724
 20
187.156559
 30
0.0
 11
26.55724
 21
183.358292
 31
0.0
  0
LINE
  5
5DC
330
1F
100
AcDbEntity
  8
101
  6
Continuous
 62
     7
370
    30
100
AcDbLine
 10
26.679765
 20
188.136757
 30
0.0
 11
39.17729
 21
189.852104
 31
0.0
  0
LINE
  5
5DD
330
1F
100
AcDbEntity
  8
101
  6
Continuous
 62
     7
370
    30
100
AcDbLine
 10
51.797339
 20
187.891708
 30
0.0
 11
26.434715
 21
182.01052
 31
0.0
  0
LINE
  5
5DE
330
1F
100
AcDbEntity
  8
101
  6
Continuous
 62
     7
370
    30
100
AcDbLine
 10
50.939666
 20
175.639233
 30
0.0
 11
52.042389
 21
182.133045
 31
0.0
  0
LINE
  5
5DF
330
1F
100
AcDbEntity
  8
101
  6
Continuous
 62
     7
370
    30
100
AcDbLine
 10
51.797339
 20
187.891708
 30
0.0
 11
49.591894
 21
175.639233
 31
0.0
  0
LINE
  5
5E0
330
1F
100
AcDbEntity
  8
101
  6
Continuous
 62
     7
370
    30
100
AcDbLine
 10
121.636448
 20
192.670173
 30
0.0
 11
125.189666
 21
175.149134
 31
0.0
  0
LINE
  5
5E1
330
1F
100
AcDbEntity
  8
101
  6
Continuous
 62
     7
370
    30
100
AcDbLine
 10
120.4112
 20
193.895421
 30
0.0
 11
121.636448
 21
192.670173
 31
0.0
  0
LINE
  5
5E2
330
1F
100
AcDbEntity
  8
101
  6
Continuous
 62
     7
370
    30
100
AcDbLine
 10
115.51021
 20
196.223391
 30
0.0
 11
120.4112
 21
193.895421
 31
0.0
  0
LINE
  5
5E3
330
1F
100
AcDbEntity
  8
101
  6
Continuous
 62
     7
370
    30
100
AcDbLine
 10
109.261448
 20
198.551361
 30
0.0
 11
115.51021
 21
196.223391
 31
0.0
  0
LINE
  5
5E4
330
1F
100
AcDbEntity
  8
101
  6
Continuous
 62
     7
370
    30
100
AcDbLine
 10
103.502785
 20
200.144183
 30
0.0
 11
109.261448
 21
198.551361
 31
0.0
  0
LINE
  5
5E5
330
1F
100
AcDbEntity
  8
101
  6
Continuous
 62
     7
370
    30
100
AcDbLine
 10
96.917079
 20
200.57302
 30
0.0
 11
103.502785
 21
200.144183
 31
0.0
  0
LINE
  5
5E6
330
1F
100
AcDbEntity
  8
101
  6
Continuous
 62
     7
370
    30
100
AcDbLine
 10
75.199567
 20
200.511757
 30
0.0
 11
78.660891
 21
200.450495
 31
0.0
  0
LINE
  5
5E7
330
1F
100
AcDbEntity
  8
101
  6
Continuous
 62
     7
370
    30
100
AcDbLine
 10
70.666151
 20
199.899134
 30
0.0
 11
75.199567
 21
200.511757
 31
0.0
  0
LINE
  5
5E8
330
1F
100
AcDbEntity
  8
101
  6
Continuous
 62
     7
370
    30
100
AcDbLine
 10
65.765161
 20
199.04146
 30
0.0
 11
70.666151
 21
199.899134
 31
0.0
  0
LINE
  5
5E9
330
1F
100
AcDbEntity
  8
101
  6
Continuous
 62
     7
370
    30
100
AcDbLine
 10
60.619121
 20
197.571163
 30
0.0
 11
65.765161
 21
199.04146
 31
0.0
  0
LINE
  5
5EA
330
1F
100
AcDbEntity
  8
101
  6
Continuous
 62
     7
370
    30
100
AcDbLine
 10
55.963181
 20
195.365718
 30
0.0
 11
60.619121
 21
197.571163
 31
0.0
  0
LINE
  5
5EB
330
1F
100
AcDbEntity
  8
101
  6
Continuous
 62
     7
370
    30
100
AcDbLine
 10
53.757735
 20
193.282797
 30
0.0
 11
55.963181
 21
195.365718
 31
0.0
  0
LINE
  5
5EC
330
1F
100
AcDbEntity
  8
101
  6
Continuous
 62
     7
370
    30
100
AcDbLine
 10
40.402537
 20
190.832302
 30
0.0
 11
53.757735
 21
193.282797
 31
0.0
  0
LINE
  5
5ED
330
1F
100
AcDbEntity
  8
101
  6
Continuous
 62
     7
370
    30
100
AcDbLine
 10
37.952042
 20
191.56745
 30
0.0
 11
40.402537
 21
190.832302
 31
0.0
  0
LINE
  5
5EE
330
1F
100
AcDbEntity
  8
101
  6
Continuous
 62
     7
370
    30
100
AcDbLine
 10
35.501547
 20
193.527847
 30
0.0
 11
37.952042
 21
191.56745
 31
0.0
  0
LINE
  5
5EF
330
1F
100
AcDbEntity
  8
101
  6
Continuous
 62
     7
370
    30
100
AcDbLine
 10
32.070854
 20
194.38552
 30
0.0
 11
35.501547
 21
193.527847
 31
0.0
  0
LINE
  5
5F0
330
1F
100
AcDbEntity
  8
101
  6
Continuous
 62
     7
370
    30
100
AcDbLine
 10
22.391399
 20
196.71349
 30
0.0
 11
32.070854
 21
194.38552
 31
0.0
  0
LINE
  5
5F1
330
1F
100
AcDbEntity
  8
101
  6
Continuous
 62
     7
370
    30
100
AcDbLine
 10
21.4112
 20
196.71349
 30
0.0
 11
22.391399
 21
196.71349
 31
0.0
  0
LINE
  5
5F2
330
1F
100
AcDbEntity
  8
101
  6
Continuous
 62
     7
370
    30
100
AcDbLine
 10
18.103032
 20
195.733292
 30
0.0
 11
21.4112
 21
196.71349
 31
0.0
  0
LINE
  5
5F3
330
1F
100
AcDbEntity
  8
101
  6
Continuous
 62
     7
370
    30
100
AcDbLine
 10
15.897587
 20
193.650371
 30
0.0
 11
18.103032
 21
195.733292
 31
0.0
  0
LINE
  5
5F4
330
1F
100
AcDbEntity
  8
101
  6
Continuous
 62
     7
370
    30
100
AcDbLine
 10
15.162438
 20
190.342203
 30
0.0
 11
15.897587
 21
193.650371
 31
0.0
  0
LINE
  5
5F5
330
1F
100
AcDbEntity
  8
101
  6
Continuous
 62
     7
370
    30
100
AcDbLine
 10
15.407488
 20
187.156559
 30
0.0
 11
15.162438
 21
190.342203
 31
0.0
  0
LINE
  5
5F6
330
1F
100
AcDbEntity
  8
101
  6
Continuous
 62
     7
370
    30
100
AcDbLine
 10
16.020111
 20
184.706064
 30
0.0
 11
15.407488
 21
187.156559
 31
0.0
  0
LINE
  5
5F7
330
1F
100
AcDbEntity
  8
101
  6
Continuous
 62
     7
370
    30
100
AcDbLine
 10
17.612933
 20
182.01052
 30
0.0
 11
16.020111
 21
184.706064
 31
0.0
  0
LINE
  5
5F8
330
1F
100
AcDbEntity
  8
101
  6
Continuous
 62
     7
370
    30
100
AcDbLine
 10
20.185953
 20
179.314975
 30
0.0
 11
17.612933
 21
182.01052
 31
0.0
  0
LINE
  5
5F9
330
1F
100
AcDbEntity
  8
101
  6
Continuous
 62
     7
370
    30
100
AcDbLine
 10
21.778775
 20
177.722153
 30
0.0
 11
20.185953
 21
179.314975
 31
0.0
  0
LINE
  5
5FA
330
1F
100
AcDbEntity
  8
101
  6
Continuous
 62
     7
370
    30
100
AcDbLine
 10
20.308478
 20
162.774134
 30
0.0
 11
21.778775
 21
177.722153
 31
0.0
  0
LINE
  5
5FB
330
1F
100
AcDbEntity
  8
101
  6
Continuous
 62
     7
370
    30
100
AcDbLine
 10
87.79362
 20
207.965706
 30
0.0
 11
88.524134
 21
206.821782
 31
0.0
  0
LINE
  5
5FC
330
1F
100
AcDbEntity
  8
101
  6
Continuous
 62
     7
370
    30
100
AcDbLine
 10
89.015756
 20
207.886859
 30
0.0
 11
87.79362
 21
207.965706
 31
0.0
  0
LINE
  5
5FD
330
1F
100
AcDbEntity
  8
101
  6
Continuous
 62
     7
370
    30
100
AcDbLine
 10
88.524134
 20
206.821782
 30
0.0
 11
89.015756
 21
207.886859
 31
0.0
  0
LINE
  5
5FE
330
1F
100
AcDbEntity
  8
101
  6
Continuous
 62
     7
370
    30
100
AcDbLine
 10
88.401609
 20
200.940594
 30
0.0
 11
88.524134
 21
206.821782
 31
0.0
  0
LINE
  5
5FF
330
1F
100
AcDbEntity
  8
101
  6
Continuous
 62
     7
370
    30
100
AcDbLine
 10
94.466584
 20
206.51547
 30
0.0
 11
91.035891
 21
207.80198
 31
0.0
  0
LINE
  5
600
330
1F
100
AcDbEntity
  8
101
  6
Continuous
 62
     7
370
    30
100
AcDbLine
 10
96.855817
 20
204.738861
 30
0.0
 11
94.466584
 21
206.51547
 31
0.0
  0
LINE
  5
601
330
1F
100
AcDbEntity
  8
101
  6
Continuous
 62
     7
370
    30
100
AcDbLine
 10
96.917079
 20
200.57302
 30
0.0
 11
96.855817
 21
204.738861
 31
0.0
  0
LINE
  5
602
330
1F
100
AcDbEntity
  8
101
  6
Continuous
 62
     7
370
    30
100
AcDbLine
 10
95.691832
 20
200.695545
 30
0.0
 11
96.917079
 21
200.57302
 31
0.0
  0
LINE
  5
603
330
1F
100
AcDbEntity
  8
101
  6
Continuous
 62
     7
370
    30
100
AcDbLine
 10
92.444926
 20
200.818069
 30
0.0
 11
95.691832
 21
200.695545
 31
0.0
  0
LINE
  5
604
330
1F
100
AcDbEntity
  8
101
  6
Continuous
 62
     7
370
    30
100
AcDbLine
 10
88.401609
 20
200.940594
 30
0.0
 11
92.444926
 21
200.818069
 31
0.0
  0
LINE
  5
605
330
1F
100
AcDbEntity
  8
101
  6
Continuous
 62
     7
370
    30
100
AcDbLine
 10
85.154703
 20
201.001856
 30
0.0
 11
88.401609
 21
200.940594
 31
0.0
  0
LINE
  5
606
330
1F
100
AcDbEntity
  8
101
  6
Continuous
 62
     7
370
    30
100
AcDbLine
 10
81.907797
 20
200.756807
 30
0.0
 11
85.154703
 21
201.001856
 31
0.0
  0
LINE
  5
607
330
1F
100
AcDbEntity
  8
101
  6
Continuous
 62
     7
370
    30
100
AcDbLine
 10
78.660891
 20
200.450495
 30
0.0
 11
81.907797
 21
200.756807
 31
0.0
  0
LINE
  5
608
330
1F
100
AcDbEntity
  8
101
  6
Continuous
 62
     7
370
    30
100
AcDbLine
 10
78.905941
 20
205.841584
 30
0.0
 11
78.660891
 21
200.450495
 31
0.0
  0
LINE
  5
609
330
1F
100
AcDbEntity
  8
101
  6
Continuous
 62
     7
370
    30
100
AcDbLine
 10
79.518564
 20
206.270421
 30
0.0
 11
78.905941
 21
205.841584
 31
0.0
  0
LINE
  5
60A
330
1F
100
AcDbEntity
  8
101
  6
Continuous
 62
     7
370
    30
100
AcDbLine
 10
81.540223
 20
207.250619
 30
0.0
 11
79.518564
 21
206.270421
 31
0.0
  0
LINE
  5
60B
330
1F
100
AcDbEntity
  8
101
  6
Continuous
 62
     7
370
    30
100
AcDbLine
 10
83.684406
 20
207.80198
 30
0.0
 11
81.540223
 21
207.250619
 31
0.0
  0
LINE
  5
60C
330
1F
100
AcDbEntity
  8
101
  6
Continuous
 62
     7
370
    30
100
AcDbLine
 10
87.91151
 20
210.0
 30
0.0
 11
87.176361
 21
210.0
 31
0.0
  0
LINE
  5
60D
330
1F
100
AcDbEntity
  8
101
  6
Continuous
 62
     7
370
    30
100
AcDbLine
 10
89.136757
 20
209.33354
 30
0.0
 11
87.91151
 21
210.0
 31
0.0
  0
LINE
  5
60E
330
1F
100
AcDbEntity
  8
101
  6
Continuous
 62
     7
370
    30
100
AcDbLine
 10
90.23948
 20
208.537129
 30
0.0
 11
89.136757
 21
209.33354
 31
0.0
  0
LINE
  5
60F
330
1F
100
AcDbEntity
  8
101
  6
Continuous
 62
     7
370
    30
100
AcDbLine
 10
91.035891
 20
207.80198
 30
0.0
 11
90.23948
 21
208.537129
 31
0.0
  0
LINE
  5
610
330
1F
100
AcDbEntity
  8
101
  6
Continuous
 62
     7
370
    30
100
AcDbLine
 10
89.381807
 20
207.863243
 30
0.0
 11
91.035891
 21
207.80198
 31
0.0
  0
LINE
  5
611
330
1F
100
AcDbEntity
  8
101
  6
Continuous
 62
     7
370
    30
100
AcDbLine
 10
87.482673
 20
207.985767
 30
0.0
 11
89.381807
 21
207.863243
 31
0.0
  0
LINE
  5
612
330
1F
100
AcDbEntity
  8
101
  6
Continuous
 62
     7
370
    30
100
AcDbLine
 10
85.828589
 20
207.985767
 30
0.0
 11
87.482673
 21
207.985767
 31
0.0
  0
LINE
  5
613
330
1F
100
AcDbEntity
  8
101
  6
Continuous
 62
     7
370
    30
100
AcDbLine
 10
83.684406
 20
207.80198
 30
0.0
 11
85.828589
 21
207.985767
 31
0.0
  0
LINE
  5
614
330
1F
100
AcDbEntity
  8
101
  6
Continuous
 62
     7
370
    30
100
AcDbLine
 10
84.174505
 20
208.598391
 30
0.0
 11
83.684406
 21
207.80198
 31
0.0
  0
LINE
  5
615
330
1F
100
AcDbEntity
  8
101
  6
Continuous
 62
     7
370
    30
100
AcDbLine
 10
85.399752
 20
209.394802
 30
0.0
 11
84.174505
 21
208.598391
 31
0.0
  0
LINE
  5
616
330
1F
100
AcDbEntity
  8
101
  6
Continuous
 62
     7
370
    30
100
AcDbLine
 10
87.176361
 20
210.0
 30
0.0
 11
85.399752
 21
209.394802
 31
0.0
  0
MTEXT
  5
617
330
1F
100
AcDbEntity
  8
100
  6
Continuous
 62
     7
370
     9
100
AcDbMText
 10
-0.854604779700523
 20
-102.1090392992922
 30
0.0
 40
25.0
 41
293.4182016041797
 46
25.0
 71
     7
 72
     1
  1
{\fＭＳ ゴシック;\W0.714286;松本船舶電機製作所}
 73
     1
 44
1.0
  0
MTEXT
  5
618
330
1F
100
AcDbEntity
  8
100
  6
Continuous
 62
     7
370
     9
100
AcDbMText
 10
-28.04368607679794
 20
250.739640420763
 30
0.0
 40
25.0
 41
349.4765505874703
 46
25.0
 71
     7
 72
     1
  1
{\fＭＳ ゴシック;\W0.714286;[電球色ＬＥＤランプ付]}
 73
     1
 44
1.0
  0
MTEXT
  5
619
330
1F
100
AcDbEntity
  8
100
  6
Continuous
 62
     7
370
     9
100
AcDbMText
 10
-43.33677997610511
 20
288.4262359329218
 30
0.0
 40
25.0
 41
416.6942506198262
 46
25.0
 71
     7
 72
     1
  1
{\fＭＳ ゴシック;\W0.714286;Ｒ２号ブラケットリフレクト}
 73
     1
 44
1.0
  0
MTEXT
  5
61A
330
1F
100
AcDbEntity
  8
100
  6
Continuous
 62
     7
370
     9
100
AcDbMText
 10
47.29647947880643
 20
327.4363523944733
 30
0.0
 40
25.0
 41
149.5618597854195
 46
25.0
 71
     7
 72
     1
  1
{\fＭＳ ゴシック;\W0.714286;(R2B-RF-S)}
 73
     1
 44
1.0
  0
ENDSEC
  0
SECTION
  2
OBJECTS
  0
DICTIONARY
  5
C
330
0
100
AcDbDictionary
281
     1
  3
ACAD_DETAILVIEWSTYLE
350
622
  3
ACAD_GROUP
350
D
  3
ACAD_LAYOUT
350
1A
  3
ACAD_MATERIAL
350
43
  3
ACAD_MLEADERSTYLE
350
6B
  3
ACAD_MLINESTYLE
350
17
  3
ACAD_PLOTSETTINGS
350
19
  3
ACAD_PLOTSTYLENAME
350
E
  3
ACAD_SCALELIST
350
47
  3
ACAD_SECTIONVIEWSTYLE
350
623
  3
ACAD_TABLESTYLE
350
69
  3
ACAD_VISUALSTYLE
350
2A
  3
ACDB_RECOMPOSE_DATA
350
61F
  3
AcDbVariableDictionary
350
61B
  0
SUN
  5
6D
330
29
100
AcDbSun
 90
        1
290
     0
 63
     7
421
 16777215
 40
1.0
291
     1
 91
  2455826
 92
 54000000
292
     0
 70
     2
 71
   256
280
     1
  0
DICTIONARY
  5
622
102
{ACAD_REACTORS
330
C
102
}
330
C
100
AcDbDictionary
281
     1
  0
DICTIONARY
  5
D
102
{ACAD_REACTORS
330
C
102
}
330
C
100
AcDbDictionary
281
     1
  0
DICTIONARY
  5
1A
102
{ACAD_REACTORS
330
C
102
}
330
C
100
AcDbDictionary
281
     1
  3
Layout1
350
1E
  3
Layout2
350
26
  3
Model
350
22
  0
DICTIONARY
  5
43
102
{ACAD_REACTORS
330
C
102
}
330
C
100
AcDbDictionary
281
     1
  3
ByBlock
350
45
  3
ByLayer
350
44
  3
Global
350
46
  0
DICTIONARY
  5
6B
102
{ACAD_REACTORS
330
C
102
}
330
C
100
AcDbDictionary
281
     1
  3
Standard
350
6C
  0
DICTIONARY
  5
17
102
{ACAD_REACTORS
330
C
102
}
330
C
100
AcDbDictionary
281
     1
  3
Standard
350
18
  0
DICTIONARY
  5
19
102
{ACAD_REACTORS
330
C
102
}
330
C
100
AcDbDictionary
281
     1
  0
ACDBDICTIONARYWDFLT
  5
E
102
{ACAD_REACTORS
330
C
102
}
330
C
100
AcDbDictionary
281
     1
  3
Normal
350
F
100
AcDbDictionaryWithDefault
340
F
  0
DICTIONARY
  5
47
102
{ACAD_REACTORS
330
C
102
}
330
C
100
AcDbDictionary
281
     1
  3
A0
350
48
  3
A1
350
49
  3
A2
350
4A
  3
A3
350
4B
  3
A4
350
4C
  3
A5
350
4D
  3
A6
350
4E
  3
A7
350
4F
  3
A8
350
50
  3
A9
350
51
  3
B0
350
52
  3
B1
350
53
  3
B2
350
54
  3
B3
350
55
  3
B4
350
56
  3
B5
350
57
  3
B6
350
58
  3
B7
350
59
  3
B8
350
5A
  3
B9
350
5B
  3
C0
350
5C
  3
C1
350
5D
  3
C2
350
5E
  3
C3
350
5F
  3
C4
350
60
  3
C5
350
61
  3
C6
350
62
  3
C7
350
63
  3
C8
350
64
  3
C9
350
65
  3
D0
350
66
  3
D1
350
67
  3
D2
350
68
  0
DICTIONARY
  5
623
102
{ACAD_REACTORS
330
C
102
}
330
C
100
AcDbDictionary
281
     1
  0
DICTIONARY
  5
69
102
{ACAD_REACTORS
330
C
102
}
330
C
100
AcDbDictionary
281
     1
  3
Standard
350
6A
  0
DICTIONARY
  5
2A
102
{ACAD_REACTORS
330
C
102
}
330
C
100
AcDbDictionary
281
     1
  3
2dWireframe
350
2F
  3
Basic
350
32
  3
Brighten
350
36
  3
ColorChange
350
3A
  3
Conceptual
350
34
  3
Dim
350
35
  3
EdgeColorOff
350
3D
  3
Facepattern
350
39
  3
Flat
350
2B
  3
FlatWithEdges
350
2C
  3
Gouraud
350
2D
  3
GouraudWithEdges
350
2E
  3
Hidden
350
31
  3
JitterOff
350
3B
  3
Linepattern
350
38
  3
OverhangOff
350
3C
  3
Realistic
350
33
  3
Shaded
350
42
  3
Shaded with edges
350
41
  3
Shades of Gray
350
3E
  3
Sketchy
350
3F
  3
Thicken
350
37
  3
Wireframe
350
30
  3
X-Ray
350
40
  0
XRECORD
  5
61F
102
{ACAD_REACTORS
330
C
102
}
330
C
100
AcDbXrecord
280
     1
 90
        1
330
6A
  0
DICTIONARY
  5
61B
102
{ACAD_REACTORS
330
C
102
}
330
C
100
AcDbDictionary
281
     1
  3
CANNOSCALE
350
61C
  3
CMLEADERSTYLE
350
621
  3
CTABLESTYLE
350
620
  0
LAYOUT
  5
1E
102
{ACAD_REACTORS
330
1A
102
}
330
1A
100
AcDbPlotSettings
  1

  2
none_device
  4

  6

 40
0.0
 41
0.0
 42
0.0
 43
0.0
 44
0.0
 45
0.0
 46
0.0
 47
0.0
 48
0.0
 49
0.0
140
0.0
141
0.0
142
1.0
143
1.0
 70
   688
 72
     0
 73
     0
 74
     5
  7

 75
    16
 76
     0
 77
     2
 78
   300
147
1.0
148
0.0
149
0.0
100
AcDbLayout
  1
Layout1
 70
     1
 71
     1
 10
0.0
 20
0.0
 11
297.0
 21
210.0
 12
0.0
 22
0.0
 32
0.0
 14
0.0
 24
0.0
 34
0.0
 15
297.0
 25
210.0
 35
0.0
146
0.0
 13
0.0
 23
0.0
 33
0.0
 16
1.0
 26
0.0
 36
0.0
 17
0.0
 27
1.0
 37
0.0
 76
     0
330
1B
  0
LAYOUT
  5
26
102
{ACAD_REACTORS
330
1A
102
}
330
1A
100
AcDbPlotSettings
  1

  2
none_device
  4

  6

 40
0.0
 41
0.0
 42
0.0
 43
0.0
 44
0.0
 45
0.0
 46
0.0
 47
0.0
 48
0.0
 49
0.0
140
0.0
141
0.0
142
1.0
143
1.0
 70
   688
 72
     0
 73
     0
 74
     5
  7

 75
    16
 76
     0
 77
     2
 78
   300
147
1.0
148
0.0
149
0.0
100
AcDbLayout
  1
Layout2
 70
     1
 71
     2
 10
0.0
 20
0.0
 11
0.0
 21
0.0
 12
0.0
 22
0.0
 32
0.0
 14
0.0
 24
0.0
 34
0.0
 15
0.0
 25
0.0
 35
0.0
146
0.0
 13
0.0
 23
0.0
 33
0.0
 16
1.0
 26
0.0
 36
0.0
 17
0.0
 27
1.0
 37
0.0
 76
     0
330
23
  0
LAYOUT
  5
22
102
{ACAD_REACTORS
330
1A
102
}
330
1A
100
AcDbPlotSettings
  1

  2
none_device
  4
Letter_(8.50_x_11.00_Inches)
  6

 40
6.35
 41
6.35
 42
6.35000508
 43
6.35000508
 44
215.9
 45
279.4
 46
0.0
 47
0.0
 48
0.0
 49
0.0
140
0.0
141
0.0
142
1.0
143
1.0
 70
  1712
 72
     0
 73
     0
 74
     0
  7

 75
     0
 76
     0
 77
     2
 78
   300
147
1.0
148
0.0
149
0.0
100
AcDbLayout
  1
Model
 70
     1
 71
     0
 10
0.0
 20
0.0
 11
297.0
 21
210.0
 12
0.0
 22
0.0
 32
0.0
 14
-43.33677997610511
 24
-102.1090392992922
 34
0.0
 15
281.6632200238949
 25
352.4363523944733
 35
0.0
146
0.0
 13
0.0
 23
0.0
 33
0.0
 16
1.0
 26
0.0
 36
0.0
 17
0.0
 27
1.0
 37
0.0
 76
     0
330
1F
331
29
  0
MATERIAL
  5
45
102
{ACAD_REACTORS
330
43
102
}
330
43
100
AcDbMaterial
  1
ByBlock
 72
     1
 94
      127
  0
MATERIAL
  5
44
102
{ACAD_REACTORS
330
43
102
}
330
43
100
AcDbMaterial
  1
ByLayer
 72
     1
 94
      127
  0
MATERIAL
  5
46
102
{ACAD_REACTORS
330
43
102
}
330
43
100
AcDbMaterial
  1
Global
 72
     1
 94
      127
  0
MLEADERSTYLE
  5
6C
102
{ACAD_REACTORS
330
6B
102
}
330
6B
100
AcDbMLeaderStyle
179
     2
170
     2
171
     1
172
     0
 90
        2
 40
0.0
 41
0.0
173
     1
 91
-1056964608
340
14
 92
       -2
290
     1
 42
0.09
291
     1
 43
0.36
  3
Standard
341
0
 44
0.18
300

342
11
174
     1
178
     6
175
     1
176
     0
 93
-1056964608
 45
0.18
292
     0
297
     0
 46
0.18
343
0
 94
-1056964608
 47
1.0
 49
1.0
140
1.0
293
     1
141
0.0
294
     1
177
     0
142
1.0
295
     0
296
     0
143
0.125
271
     0
272
     9
273
     9
298
     0
  0
MLINESTYLE
  5
18
102
{ACAD_REACTORS
330
17
102
}
330
17
100
AcDbMlineStyle
  2
Standard
 70
     0
  3

 62
   256
 51
90.0
 52
90.0
 71
     2
 49
0.5
 62
   256
  6
BYLAYER
 49
-0.5
 62
   256
  6
BYLAYER
  0
ACDBPLACEHOLDER
  5
F
102
{ACAD_REACTORS
330
E
102
}
330
E
  0
SCALE
  5
48
102
{ACAD_REACTORS
330
47
102
}
330
47
100
AcDbScale
 70
     0
300
1:1
140
1.0
141
1.0
290
     1
  0
SCALE
  5
49
102
{ACAD_REACTORS
330
47
102
}
330
47
100
AcDbScale
 70
     0
300
1:2
140
1.0
141
2.0
290
     0
  0
SCALE
  5
4A
102
{ACAD_REACTORS
330
47
102
}
330
47
100
AcDbScale
 70
     0
300
1:4
140
1.0
141
4.0
290
     0
  0
SCALE
  5
4B
102
{ACAD_REACTORS
330
47
102
}
330
47
100
AcDbScale
 70
     0
300
1:5
140
1.0
141
5.0
290
     0
  0
SCALE
  5
4C
102
{ACAD_REACTORS
330
47
102
}
330
47
100
AcDbScale
 70
     0
300
1:8
140
1.0
141
8.0
290
     0
  0
SCALE
  5
4D
102
{ACAD_REACTORS
330
47
102
}
330
47
100
AcDbScale
 70
     0
300
1:10
140
1.0
141
10.0
290
     0
  0
SCALE
  5
4E
102
{ACAD_REACTORS
330
47
102
}
330
47
100
AcDbScale
 70
     0
300
1:16
140
1.0
141
16.0
290
     0
  0
SCALE
  5
4F
102
{ACAD_REACTORS
330
47
102
}
330
47
100
AcDbScale
 70
     0
300
1:20
140
1.0
141
20.0
290
     0
  0
SCALE
  5
50
102
{ACAD_REACTORS
330
47
102
}
330
47
100
AcDbScale
 70
     0
300
1:30
140
1.0
141
30.0
290
     0
  0
SCALE
  5
51
102
{ACAD_REACTORS
330
47
102
}
330
47
100
AcDbScale
 70
     0
300
1:40
140
1.0
141
40.0
290
     0
  0
SCALE
  5
52
102
{ACAD_REACTORS
330
47
102
}
330
47
100
AcDbScale
 70
     0
300
1:50
140
1.0
141
50.0
290
     0
  0
SCALE
  5
53
102
{ACAD_REACTORS
330
47
102
}
330
47
100
AcDbScale
 70
     0
300
1:100
140
1.0
141
100.0
290
     0
  0
SCALE
  5
54
102
{ACAD_REACTORS
330
47
102
}
330
47
100
AcDbScale
 70
     0
300
2:1
140
2.0
141
1.0
290
     0
  0
SCALE
  5
55
102
{ACAD_REACTORS
330
47
102
}
330
47
100
AcDbScale
 70
     0
300
4:1
140
4.0
141
1.0
290
     0
  0
SCALE
  5
56
102
{ACAD_REACTORS
330
47
102
}
330
47
100
AcDbScale
 70
     0
300
8:1
140
8.0
141
1.0
290
     0
  0
SCALE
  5
57
102
{ACAD_REACTORS
330
47
102
}
330
47
100
AcDbScale
 70
     0
300
10:1
140
10.0
141
1.0
290
     0
  0
SCALE
  5
58
102
{ACAD_REACTORS
330
47
102
}
330
47
100
AcDbScale
 70
     0
300
100:1
140
100.0
141
1.0
290
     0
  0
SCALE
  5
59
102
{ACAD_REACTORS
330
47
102
}
330
47
100
AcDbScale
 70
     0
300
1/128" = 1'-0"
140
0.0078125
141
12.0
290
     0
  0
SCALE
  5
5A
102
{ACAD_REACTORS
330
47
102
}
330
47
100
AcDbScale
 70
     0
300
1/64" = 1'-0"
140
0.015625
141
12.0
290
     0
  0
SCALE
  5
5B
102
{ACAD_REACTORS
330
47
102
}
330
47
100
AcDbScale
 70
     0
300
1/32" = 1'-0"
140
0.03125
141
12.0
290
     0
  0
SCALE
  5
5C
102
{ACAD_REACTORS
330
47
102
}
330
47
100
AcDbScale
 70
     0
300
1/16" = 1'-0"
140
0.0625
141
12.0
290
     0
  0
SCALE
  5
5D
102
{ACAD_REACTORS
330
47
102
}
330
47
100
AcDbScale
 70
     0
300
3/32" = 1'-0"
140
0.09375
141
12.0
290
     0
  0
SCALE
  5
5E
102
{ACAD_REACTORS
330
47
102
}
330
47
100
AcDbScale
 70
     0
300
1/8" = 1'-0"
140
0.125
141
12.0
290
     0
  0
SCALE
  5
5F
102
{ACAD_REACTORS
330
47
102
}
330
47
100
AcDbScale
 70
     0
300
3/16" = 1'-0"
140
0.1875
141
12.0
290
     0
  0
SCALE
  5
60
102
{ACAD_REACTORS
330
47
102
}
330
47
100
AcDbScale
 70
     0
300
1/4" = 1'-0"
140
0.25
141
12.0
290
     0
  0
SCALE
  5
61
102
{ACAD_REACTORS
330
47
102
}
330
47
100
AcDbScale
 70
     0
300
3/8" = 1'-0"
140
0.375
141
12.0
290
     0
  0
SCALE
  5
62
102
{ACAD_REACTORS
330
47
102
}
330
47
100
AcDbScale
 70
     0
300
1/2" = 1'-0"
140
0.5
141
12.0
290
     0
  0
SCALE
  5
63
102
{ACAD_REACTORS
330
47
102
}
330
47
100
AcDbScale
 70
     0
300
3/4" = 1'-0"
140
0.75
141
12.0
290
     0
  0
SCALE
  5
64
102
{ACAD_REACTORS
330
47
102
}
330
47
100
AcDbScale
 70
     0
300
1" = 1'-0"
140
1.0
141
12.0
290
     0
  0
SCALE
  5
65
102
{ACAD_REACTORS
330
47
102
}
330
47
100
AcDbScale
 70
     0
300
1-1/2" = 1'-0"
140
1.5
141
12.0
290
     0
  0
SCALE
  5
66
102
{ACAD_REACTORS
330
47
102
}
330
47
100
AcDbScale
 70
     0
300
3" = 1'-0"
140
3.0
141
12.0
290
     0
  0
SCALE
  5
67
102
{ACAD_REACTORS
330
47
102
}
330
47
100
AcDbScale
 70
     0
300
6" = 1'-0"
140
6.0
141
12.0
290
     0
  0
SCALE
  5
68
102
{ACAD_REACTORS
330
47
102
}
330
47
100
AcDbScale
 70
     0
300
1'-0" = 1'-0"
140
12.0
141
12.0
290
     0
  0
TABLESTYLE
  5
6A
102
{ACAD_REACTORS
330
69
102
}
102
{ACAD_XDICTIONARY
360
61D
102
}
330
69
100
AcDbTableStyle
  3
Standard
 70
     0
 71
     0
 40
0.06
 41
0.06
280
     0
281
     0
  7
Standard
140
0.18
170
     2
 62
     0
 63
   257
283
     0
 90
        4
 91
        0
  1

274
    -2
284
     1
 64
     0
275
    -2
285
     1
 65
     0
276
    -2
286
     1
 66
     0
277
    -2
287
     1
 67
     0
278
    -2
288
     1
 68
     0
279
    -2
289
     1
 69
     0
  7
Standard
140
0.25
170
     5
 62
     0
 63
   257
283
     0
 90
        4
 91
        0
  1

274
    -2
284
     1
 64
     0
275
    -2
285
     1
 65
     0
276
    -2
286
     1
 66
     0
277
    -2
287
     1
 67
     0
278
    -2
288
     1
 68
     0
279
    -2
289
     1
 69
     0
  7
Standard
140
0.18
170
     5
 62
     0
 63
   257
283
     0
 90
        4
 91
        0
  1

274
    -2
284
     1
 64
     0
275
    -2
285
     1
 65
     0
276
    -2
286
     1
 66
     0
277
    -2
287
     1
 67
     0
278
    -2
288
     1
 68
     0
279
    -2
289
     1
 69
     0
  0
VISUALSTYLE
  5
2F
102
{ACAD_REACTORS
330
2A
102
}
330
2A
100
AcDbVisualStyle
  2
2dWireframe
 70
     4
177
     3
291
     0
 70
    58
 90
        0
176
     1
 90
        2
176
     1
 90
        0
176
     1
 90
        0
176
     1
 40
0.6
176
     1
 40
30.0
176
     1
 62
     7
420
 16777215
176
     1
 90
        1
176
     1
 90
        4
176
     1
 62
     7
176
     1
 62
   257
176
     1
 90
        1
176
     1
 90
        1
176
     1
 40
1.0
176
     1
 90
        0
176
     1
 62
   257
176
     1
 40
1.0
176
     1
 90
        1
176
     1
 90
        6
176
     1
 90
        2
176
     1
 62
     7
176
     1
 90
        5
176
     1
 90
        0
176
     1
 90
        0
176
     1
290
     0
176
     1
 90
        1
176
     1
 40
0.0
176
     1
 90
        0
176
     1
290
     1
176
     1
290
     1
176
     1
290
     0
176
     1
290
     0
176
     1
290
     0
176
     1
290
     0
176
     1
290
     0
176
     1
290
     0
176
     1
290
     0
176
     1
 90
       50
176
     1
 40
0.0
176
     1
 40
1.0
176
     1
 90
        0
176
     1
 62
    18
420
        0
176
     1
 90
       50
176
     1
 90
        3
176
     1
 62
     5
420
      255
176
     1
290
     0
176
     1
 90
       50
176
     1
 90
       50
176
     1
 90
       50
176
     1
290
     0
176
     1
 90
       50
176
     1
 62
   256
176
     0
 40
1.0
176
     0
 90
        2
176
     1
  1
strokes_ogs.tif
176
     1
290
     0
176
     1
 40
1.0
176
     1
 40
1.0
176
     1
  0
VISUALSTYLE
  5
32
102
{ACAD_REACTORS
330
2A
102
}
330
2A
100
AcDbVisualStyle
  2
Basic
 70
     7
177
     3
291
     1
 70
    58
 90
        1
176
     1
 90
        0
176
     1
 90
        1
176
     1
 90
        0
176
     1
 40
0.6
176
     1
 40
30.0
176
     1
 62
     7
420
 16777215
176
     1
 90
        0
176
     1
 90
        4
176
     1
 62
     7
176
     1
 62
   257
176
     1
 90
        1
176
     1
 90
        1
176
     1
 40
1.0
176
     1
 90
        8
176
     1
 62
     7
176
     1
 40
1.0
176
     1
 90
        1
176
     1
 90
        6
176
     1
 90
        2
176
     1
 62
     7
176
     1
 90
        5
176
     1
 90
        0
176
     1
 90
        0
176
     1
290
     0
176
     1
 90
        1
176
     1
 40
0.0
176
     1
 90
        0
176
     1
290
     0
176
     1
290
     1
176
     1
290
     1
176
     1
290
     0
176
     1
290
     0
176
     1
290
     0
176
     1
290
     0
176
     1
290
     0
176
     1
290
     0
176
     1
 90
       50
176
     1
 40
0.0
176
     1
 40
1.0
176
     1
 90
        0
176
     1
 62
    18
420
        0
176
     1
 90
       50
176
     1
 90
        3
176
     1
 62
     5
420
      255
176
     1
290
     0
176
     1
 90
       50
176
     1
 90
       50
176
     1
 90
       50
176
     1
290
     0
176
     1
 90
       50
176
     1
 62
   256
176
     0
 40
1.0
176
     0
 90
        2
176
     1
  1
strokes_ogs.tif
176
     1
290
     0
176
     1
 40
1.0
176
     1
 40
1.0
176
     1
  0
VISUALSTYLE
  5
36
102
{ACAD_REACTORS
330
2A
102
}
330
2A
100
AcDbVisualStyle
  2
Brighten
 70
    12
177
     3
291
     1
 70
    58
 90
        2
176
     1
 90
        2
176
     1
 90
        0
176
     1
 90
        0
176
     1
 40
0.6
176
     1
 40
30.0
176
     1
 62
     7
420
 16777215
176
     1
 90
        1
176
     1
 90
        4
176
     1
 62
     7
176
     1
 62
   257
176
     1
 90
        1
176
     1
 90
        1
176
     1
 40
1.0
176
     1
 90
        8
176
     1
 62
     7
176
     1
 40
1.0
176
     1
 90
        1
176
     1
 90
        6
176
     1
 90
        2
176
     1
 62
     7
176
     1
 90
        5
176
     1
 90
        0
176
     1
 90
        0
176
     1
290
     0
176
     1
 90
        1
176
     1
 40
50.0
176
     1
 90
        0
176
     1
290
     0
176
     1
290
     1
176
     1
290
     1
176
     1
290
     0
176
     1
290
     0
176
     1
290
     0
176
     1
290
     0
176
     1
290
     0
176
     1
290
     0
176
     1
 90
       50
176
     1
 40
0.0
176
     1
 40
1.0
176
     1
 90
        0
176
     1
 62
    18
420
        0
176
     1
 90
       50
176
     1
 90
        3
176
     1
 62
     5
420
      255
176
     1
290
     0
176
     1
 90
       50
176
     1
 90
       50
176
     1
 90
       50
176
     1
290
     0
176
     1
 90
       50
176
     1
 62
   256
176
     0
 40
1.0
176
     0
 90
        2
176
     1
  1
strokes_ogs.tif
176
     1
290
     0
176
     1
 40
1.0
176
     1
 40
1.0
176
     1
  0
VISUALSTYLE
  5
3A
102
{ACAD_REACTORS
330
2A
102
}
330
2A
100
AcDbVisualStyle
  2
ColorChange
 70
    16
177
     3
291
     1
 70
    58
 90
        2
176
     1
 90
        2
176
     1
 90
        3
176
     1
 90
        0
176
     1
 40
0.6
176
     1
 40
30.0
176
     1
 62
     8
420
  8421504
176
     1
 90
        1
176
     1
 90
        4
176
     1
 62
     7
176
     1
 62
   257
176
     1
 90
        1
176
     1
 90
        1
176
     1
 40
1.0
176
     1
 90
        8
176
     1
 62
     8
420
  8421504
176
     1
 40
1.0
176
     1
 90
        1
176
     1
 90
        6
176
     1
 90
        2
176
     1
 62
     7
176
     1
 90
        5
176
     1
 90
        0
176
     1
 90
        0
176
     1
290
     0
176
     1
 90
        1
176
     1
 40
0.0
176
     1
 90
        0
176
     1
290
     0
176
     1
290
     1
176
     1
290
     1
176
     1
290
     0
176
     1
290
     0
176
     1
290
     0
176
     1
290
     0
176
     1
290
     0
176
     1
290
     0
176
     1
 90
       50
176
     1
 40
0.0
176
     1
 40
1.0
176
     1
 90
        0
176
     1
 62
    18
420
        0
176
     1
 90
       50
176
     1
 90
        3
176
     1
 62
     5
420
      255
176
     1
290
     0
176
     1
 90
       50
176
     1
 90
       50
176
     1
 90
       50
176
     1
290
     0
176
     1
 90
       50
176
     1
 62
   256
176
     0
 40
1.0
176
     0
 90
        2
176
     1
  1
strokes_ogs.tif
176
     1
290
     0
176
     1
 40
1.0
176
     1
 40
1.0
176
     1
  0
VISUALSTYLE
  5
34
102
{ACAD_REACTORS
330
2A
102
}
330
2A
100
AcDbVisualStyle
  2
Conceptual
 70
     9
177
     3
291
     0
 70
    58
 90
        3
176
     1
 90
        2
176
     1
 90
        0
176
     1
 90
        0
176
     1
 40
0.6
176
     1
 40
30.0
176
     1
 62
     7
420
 16777215
176
     1
 90
        2
176
     1
 90
        2
176
     1
 62
     7
176
     1
 62
   257
176
     1
 90
        1
176
     1
 90
        1
176
     1
 40
179.0
176
     1
 90
        8
176
     1
 62
     7
176
     1
 40
1.0
176
     1
 90
        1
176
     1
 90
        6
176
     1
 90
        2
176
     1
 62
     7
176
     1
 90
        3
176
     1
 90
        0
176
     1
 90
        0
176
     1
290
     0
176
     1
 90
        1
176
     1
 40
0.0
176
     1
 90
        0
176
     1
290
     0
176
     1
290
     1
176
     1
290
     1
176
     1
290
     0
176
     1
290
     0
176
     1
290
     0
176
     1
290
     0
176
     1
290
     0
176
     1
290
     0
176
     1
 90
       50
176
     1
 40
0.0
176
     1
 40
1.0
176
     1
 90
        0
176
     1
 62
    18
420
        0
176
     1
 90
       50
176
     1
 90
        3
176
     1
 62
     5
420
      255
176
     1
290
     0
176
     1
 90
       50
176
     1
 90
       50
176
     1
 90
       50
176
     1
290
     0
176
     1
 90
       50
176
     1
 62
   256
176
     0
 40
1.0
176
     0
 90
        2
176
     1
  1
strokes_ogs.tif
176
     1
290
     0
176
     1
 40
1.0
176
     1
 40
1.0
176
     1
  0
VISUALSTYLE
  5
35
102
{ACAD_REACTORS
330
2A
102
}
330
2A
100
AcDbVisualStyle
  2
Dim
 70
    11
177
     3
291
     1
 70
    58
 90
        2
176
     1
 90
        2
176
     1
 90
        0
176
     1
 90
        0
176
     1
 40
0.6
176
     1
 40
30.0
176
     1
 62
     7
420
 16777215
176
     1
 90
        1
176
     1
 90
        4
176
     1
 62
     7
176
     1
 62
   257
176
     1
 90
        1
176
     1
 90
        1
176
     1
 40
1.0
176
     1
 90
        8
176
     1
 62
     7
176
     1
 40
1.0
176
     1
 90
        1
176
     1
 90
        6
176
     1
 90
        2
176
     1
 62
     7
176
     1
 90
        5
176
     1
 90
        0
176
     1
 90
        0
176
     1
290
     0
176
     1
 90
        1
176
     1
 40
-50.0
176
     1
 90
        0
176
     1
290
     0
176
     1
290
     1
176
     1
290
     1
176
     1
290
     0
176
     1
290
     0
176
     1
290
     0
176
     1
290
     0
176
     1
290
     0
176
     1
290
     0
176
     1
 90
       50
176
     1
 40
0.0
176
     1
 40
1.0
176
     1
 90
        0
176
     1
 62
    18
420
        0
176
     1
 90
       50
176
     1
 90
        3
176
     1
 62
     5
420
      255
176
     1
290
     0
176
     1
 90
       50
176
     1
 90
       50
176
     1
 90
       50
176
     1
290
     0
176
     1
 90
       50
176
     1
 62
   256
176
     0
 40
1.0
176
     0
 90
        2
176
     1
  1
strokes_ogs.tif
176
     1
290
     0
176
     1
 40
1.0
176
     1
 40
1.0
176
     1
  0
VISUALSTYLE
  5
3D
102
{ACAD_REACTORS
330
2A
102
}
330
2A
100
AcDbVisualStyle
  2
EdgeColorOff
 70
    22
177
     3
291
     1
 70
    58
 90
        2
176
     0
 90
        2
176
     0
 90
        0
176
     0
 90
        0
176
     0
 40
0.6
176
     0
 40
30.0
176
     0
 62
     7
420
 16777215
176
     0
 90
        1
176
     0
 90
        4
176
     0
 62
     7
176
     0
 62
   257
176
     0
 90
        1
176
     0
 90
        1
176
     0
 40
1.0
176
     0
 90
        8
176
     2
 62
     7
176
     0
 40
1.0
176
     0
 90
        1
176
     0
 90
        6
176
     0
 90
        2
176
     0
 62
     7
176
     0
 90
        5
176
     0
 90
        0
176
     0
 90
        0
176
     0
290
     0
176
     0
 90
        1
176
     0
 40
0.0
176
     0
 90
        0
176
     0
290
     0
176
     0
290
     1
176
     0
290
     1
176
     0
290
     0
176
     0
290
     0
176
     0
290
     0
176
     0
290
     0
176
     0
290
     0
176
     0
290
     0
176
     0
 90
       50
176
     0
 40
0.0
176
     0
 40
1.0
176
     0
 90
        0
176
     0
 62
    18
420
        0
176
     0
 90
       50
176
     0
 90
        3
176
     0
 62
     5
420
      255
176
     0
290
     0
176
     0
 90
       50
176
     0
 90
       50
176
     0
 90
       50
176
     0
290
     0
176
     0
 90
       50
176
     0
 62
   256
176
     0
 40
1.0
176
     0
 90
        2
176
     0
  1
strokes_ogs.tif
176
     0
290
     0
176
     0
 40
1.0
176
     0
 40
1.0
176
     0
  0
VISUALSTYLE
  5
39
102
{ACAD_REACTORS
330
2A
102
}
330
2A
100
AcDbVisualStyle
  2
Facepattern
 70
    15
177
     3
291
     1
 70
    58
 90
        2
176
     1
 90
        2
176
     1
 90
        0
176
     1
 90
        0
176
     1
 40
0.6
176
     1
 40
30.0
176
     1
 62
     7
420
 16777215
176
     1
 90
        1
176
     1
 90
        4
176
     1
 62
     7
176
     1
 62
   257
176
     1
 90
        1
176
     1
 90
        1
176
     1
 40
1.0
176
     1
 90
        8
176
     1
 62
     7
176
     1
 40
1.0
176
     1
 90
        1
176
     1
 90
        6
176
     1
 90
        2
176
     1
 62
     7
176
     1
 90
        5
176
     1
 90
        0
176
     1
 90
        0
176
     1
290
     0
176
     1
 90
        1
176
     1
 40
0.0
176
     1
 90
        0
176
     1
290
     0
176
     1
290
     1
176
     1
290
     1
176
     1
290
     0
176
     1
290
     0
176
     1
290
     0
176
     1
290
     0
176
     1
290
     0
176
     1
290
     0
176
     1
 90
       50
176
     1
 40
0.0
176
     1
 40
1.0
176
     1
 90
        0
176
     1
 62
    18
420
        0
176
     1
 90
       50
176
     1
 90
        3
176
     1
 62
     5
420
      255
176
     1
290
     0
176
     1
 90
       50
176
     1
 90
       50
176
     1
 90
       50
176
     1
290
     0
176
     1
 90
       50
176
     1
 62
   256
176
     0
 40
1.0
176
     0
 90
        2
176
     1
  1
strokes_ogs.tif
176
     1
290
     0
176
     1
 40
1.0
176
     1
 40
1.0
176
     1
  0
VISUALSTYLE
  5
2B
102
{ACAD_REACTORS
330
2A
102
}
330
2A
100
AcDbVisualStyle
  2
Flat
 70
     0
177
     3
291
     1
 70
    58
 90
        2
176
     1
 90
        1
176
     1
 90
        1
176
     1
 90
        2
176
     1
 40
0.6
176
     1
 40
30.0
176
     1
 62
     7
420
 16777215
176
     1
 90
        0
176
     1
 90
        0
176
     1
 62
     7
176
     1
 62
   257
176
     1
 90
        1
176
     1
 90
        1
176
     1
 40
1.0
176
     1
 90
        8
176
     1
 62
     7
176
     1
 40
1.0
176
     1
 90
        1
176
     1
 90
        6
176
     1
 90
        2
176
     1
 62
     7
176
     1
 90
        5
176
     1
 90
        0
176
     1
 90
        0
176
     1
290
     0
176
     1
 90
       13
176
     1
 40
0.0
176
     1
 90
        0
176
     1
290
     0
176
     1
290
     1
176
     1
290
     1
176
     1
290
     0
176
     1
290
     0
176
     1
290
     0
176
     1
290
     0
176
     1
290
     0
176
     1
290
     0
176
     1
 90
       50
176
     1
 40
0.0
176
     1
 40
1.0
176
     1
 90
        0
176
     1
 62
    18
420
        0
176
     1
 90
       50
176
     1
 90
        3
176
     1
 62
     5
420
      255
176
     1
290
     0
176
     1
 90
       50
176
     1
 90
       50
176
     1
 90
       50
176
     1
290
     0
176
     1
 90
       50
176
     1
 62
   256
176
     0
 40
1.0
176
     0
 90
        2
176
     1
  1
strokes_ogs.tif
176
     1
290
     0
176
     1
 40
1.0
176
     1
 40
1.0
176
     1
  0
VISUALSTYLE
  5
2C
102
{ACAD_REACTORS
330
2A
102
}
330
2A
100
AcDbVisualStyle
  2
FlatWithEdges
 70
     1
177
     3
291
     1
 70
    58
 90
        2
176
     1
 90
        1
176
     1
 90
        1
176
     1
 90
        2
176
     1
 40
0.6
176
     1
 40
30.0
176
     1
 62
     7
420
 16777215
176
     1
 90
        1
176
     1
 90
        0
176
     1
 62
     7
176
     1
 62
   257
176
     1
 90
        1
176
     1
 90
        1
176
     1
 40
1.0
176
     1
 90
        0
176
     1
 62
   257
176
     1
 40
1.0
176
     1
 90
        1
176
     1
 90
        6
176
     1
 90
        2
176
     1
 62
     7
176
     1
 90
        5
176
     1
 90
        0
176
     1
 90
        0
176
     1
290
     0
176
     1
 90
       13
176
     1
 40
0.0
176
     1
 90
        0
176
     1
290
     0
176
     1
290
     1
176
     1
290
     1
176
     1
290
     0
176
     1
290
     0
176
     1
290
     0
176
     1
290
     0
176
     1
290
     0
176
     1
290
     0
176
     1
 90
       50
176
     1
 40
0.0
176
     1
 40
1.0
176
     1
 90
        0
176
     1
 62
    18
420
        0
176
     1
 90
       50
176
     1
 90
        3
176
     1
 62
     5
420
      255
176
     1
290
     0
176
     1
 90
       50
176
     1
 90
       50
176
     1
 90
       50
176
     1
290
     0
176
     1
 90
       50
176
     1
 62
   256
176
     0
 40
1.0
176
     0
 90
        2
176
     1
  1
strokes_ogs.tif
176
     1
290
     0
176
     1
 40
1.0
176
     1
 40
1.0
176
     1
  0
VISUALSTYLE
  5
2D
102
{ACAD_REACTORS
330
2A
102
}
330
2A
100
AcDbVisualStyle
  2
Gouraud
 70
     2
177
     3
291
     1
 70
    58
 90
        2
176
     1
 90
        2
176
     1
 90
        1
176
     1
 90
        2
176
     1
 40
0.6
176
     1
 40
30.0
176
     1
 62
     7
420
 16777215
176
     1
 90
        0
176
     1
 90
        0
176
     1
 62
     7
176
     1
 62
   257
176
     1
 90
        1
176
     1
 90
        1
176
     1
 40
1.0
176
     1
 90
        0
176
     1
 62
     7
176
     1
 40
1.0
176
     1
 90
        1
176
     1
 90
        6
176
     1
 90
        2
176
     1
 62
     7
176
     1
 90
        5
176
     1
 90
        0
176
     1
 90
        0
176
     1
290
     0
176
     1
 90
       13
176
     1
 40
0.0
176
     1
 90
        0
176
     1
290
     0
176
     1
290
     1
176
     1
290
     1
176
     1
290
     0
176
     1
290
     0
176
     1
290
     0
176
     1
290
     0
176
     1
290
     0
176
     1
290
     0
176
     1
 90
       50
176
     1
 40
0.0
176
     1
 40
1.0
176
     1
 90
        0
176
     1
 62
    18
420
        0
176
     1
 90
       50
176
     1
 90
        3
176
     1
 62
     5
420
      255
176
     1
290
     0
176
     1
 90
       50
176
     1
 90
       50
176
     1
 90
       50
176
     1
290
     0
176
     1
 90
       50
176
     1
 62
   256
176
     0
 40
1.0
176
     0
 90
        2
176
     1
  1
strokes_ogs.tif
176
     1
290
     0
176
     1
 40
1.0
176
     1
 40
1.0
176
     1
  0
VISUALSTYLE
  5
2E
102
{ACAD_REACTORS
330
2A
102
}
330
2A
100
AcDbVisualStyle
  2
GouraudWithEdges
 70
     3
177
     3
291
     1
 70
    58
 90
        2
176
     1
 90
        2
176
     1
 90
        1
176
     1
 90
        2
176
     1
 40
0.6
176
     1
 40
30.0
176
     1
 62
     7
420
 16777215
176
     1
 90
        1
176
     1
 90
        0
176
     1
 62
     7
176
     1
 62
   257
176
     1
 90
        1
176
     1
 90
        1
176
     1
 40
1.0
176
     1
 90
        0
176
     1
 62
   257
176
     1
 40
1.0
176
     1
 90
        1
176
     1
 90
        6
176
     1
 90
        2
176
     1
 62
     7
176
     1
 90
        5
176
     1
 90
        0
176
     1
 90
        0
176
     1
290
     0
176
     1
 90
       13
176
     1
 40
0.0
176
     1
 90
        0
176
     1
290
     0
176
     1
290
     1
176
     1
290
     1
176
     1
290
     0
176
     1
290
     0
176
     1
290
     0
176
     1
290
     0
176
     1
290
     0
176
     1
290
     0
176
     1
 90
       50
176
     1
 40
0.0
176
     1
 40
1.0
176
     1
 90
        0
176
     1
 62
    18
420
        0
176
     1
 90
       50
176
     1
 90
        3
176
     1
 62
     5
420
      255
176
     1
290
     0
176
     1
 90
       50
176
     1
 90
       50
176
     1
 90
       50
176
     1
290
     0
176
     1
 90
       50
176
     1
 62
   256
176
     0
 40
1.0
176
     0
 90
        2
176
     1
  1
strokes_ogs.tif
176
     1
290
     0
176
     1
 40
1.0
176
     1
 40
1.0
176
     1
  0
VISUALSTYLE
  5
31
102
{ACAD_REACTORS
330
2A
102
}
330
2A
100
AcDbVisualStyle
  2
Hidden
 70
     6
177
     3
291
     0
 70
    58
 90
        1
176
     1
 90
        2
176
     1
 90
        2
176
     1
 90
        0
176
     1
 40
0.6
176
     1
 40
30.0
176
     1
 62
     7
420
 16777215
176
     1
 90
        2
176
     1
 90
        2
176
     1
 62
     7
176
     1
 62
   257
176
     1
 90
        2
176
     1
 90
        1
176
     1
 40
40.0
176
     1
 90
        0
176
     1
 62
   257
176
     1
 40
1.0
176
     1
 90
        1
176
     1
 90
        6
176
     1
 90
        2
176
     1
 62
     7
176
     1
 90
        3
176
     1
 90
        0
176
     1
 90
        0
176
     1
290
     0
176
     1
 90
        1
176
     1
 40
0.0
176
     1
 90
        0
176
     1
290
     0
176
     1
290
     1
176
     1
290
     1
176
     1
290
     0
176
     1
290
     0
176
     1
290
     0
176
     1
290
     0
176
     1
290
     0
176
     1
290
     0
176
     1
 90
       50
176
     1
 40
0.0
176
     1
 40
1.0
176
     1
 90
        0
176
     1
 62
    18
420
        0
176
     1
 90
       50
176
     1
 90
        3
176
     1
 62
     5
420
      255
176
     1
290
     0
176
     1
 90
       50
176
     1
 90
       50
176
     1
 90
       50
176
     1
290
     0
176
     1
 90
       50
176
     1
 62
   256
176
     0
 40
1.0
176
     0
 90
        2
176
     1
  1
strokes_ogs.tif
176
     1
290
     0
176
     1
 40
1.0
176
     1
 40
1.0
176
     1
  0
VISUALSTYLE
  5
3B
102
{ACAD_REACTORS
330
2A
102
}
330
2A
100
AcDbVisualStyle
  2
JitterOff
 70
    20
177
     3
291
     1
 70
    58
 90
        2
176
     0
 90
        2
176
     0
 90
        0
176
     0
 90
        0
176
     0
 40
0.6
176
     0
 40
30.0
176
     0
 62
     7
420
 16777215
176
     0
 90
        1
176
     0
 90
        4
176
     0
 62
     7
176
     0
 62
   257
176
     0
 90
        1
176
     0
 90
        1
176
     0
 40
1.0
176
     0
 90
       10
176
     2
 62
     7
176
     0
 40
1.0
176
     0
 90
        1
176
     0
 90
        6
176
     0
 90
        2
176
     0
 62
     7
176
     0
 90
        5
176
     0
 90
        0
176
     0
 90
        0
176
     0
290
     0
176
     0
 90
        1
176
     0
 40
0.0
176
     0
 90
        0
176
     0
290
     0
176
     0
290
     1
176
     0
290
     1
176
     0
290
     0
176
     0
290
     0
176
     0
290
     0
176
     0
290
     0
176
     0
290
     0
176
     0
290
     0
176
     0
 90
       50
176
     0
 40
0.0
176
     0
 40
1.0
176
     0
 90
        0
176
     0
 62
    18
420
        0
176
     0
 90
       50
176
     0
 90
        3
176
     0
 62
     5
420
      255
176
     0
290
     0
176
     0
 90
       50
176
     0
 90
       50
176
     0
 90
       50
176
     0
290
     0
176
     0
 90
       50
176
     0
 62
   256
176
     0
 40
1.0
176
     0
 90
        2
176
     0
  1
strokes_ogs.tif
176
     0
290
     0
176
     0
 40
1.0
176
     0
 40
1.0
176
     0
  0
VISUALSTYLE
  5
38
102
{ACAD_REACTORS
330
2A
102
}
330
2A
100
AcDbVisualStyle
  2
Linepattern
 70
    14
177
     3
291
     1
 70
    58
 90
        2
176
     1
 90
        2
176
     1
 90
        0
176
     1
 90
        0
176
     1
 40
0.6
176
     1
 40
30.0
176
     1
 62
     7
420
 16777215
176
     1
 90
        1
176
     1
 90
        4
176
     1
 62
     7
176
     1
 62
   257
176
     1
 90
        7
176
     1
 90
        7
176
     1
 40
1.0
176
     1
 90
        8
176
     1
 62
     7
176
     1
 40
1.0
176
     1
 90
        1
176
     1
 90
        6
176
     1
 90
        2
176
     1
 62
     7
176
     1
 90
        5
176
     1
 90
        0
176
     1
 90
        0
176
     1
290
     0
176
     1
 90
        1
176
     1
 40
0.0
176
     1
 90
        0
176
     1
290
     0
176
     1
290
     1
176
     1
290
     1
176
     1
290
     0
176
     1
290
     0
176
     1
290
     0
176
     1
290
     0
176
     1
290
     0
176
     1
290
     0
176
     1
 90
       50
176
     1
 40
0.0
176
     1
 40
1.0
176
     1
 90
        0
176
     1
 62
    18
420
        0
176
     1
 90
       50
176
     1
 90
        3
176
     1
 62
     5
420
      255
176
     1
290
     0
176
     1
 90
       50
176
     1
 90
       50
176
     1
 90
       50
176
     1
290
     0
176
     1
 90
       50
176
     1
 62
   256
176
     0
 40
1.0
176
     0
 90
        2
176
     1
  1
strokes_ogs.tif
176
     1
290
     0
176
     1
 40
1.0
176
     1
 40
1.0
176
     1
  0
VISUALSTYLE
  5
3C
102
{ACAD_REACTORS
330
2A
102
}
330
2A
100
AcDbVisualStyle
  2
OverhangOff
 70
    21
177
     3
291
     1
 70
    58
 90
        2
176
     0
 90
        2
176
     0
 90
        0
176
     0
 90
        0
176
     0
 40
0.6
176
     0
 40
30.0
176
     0
 62
     7
420
 16777215
176
     0
 90
        1
176
     0
 90
        4
176
     0
 62
     7
176
     0
 62
   257
176
     0
 90
        1
176
     0
 90
        1
176
     0
 40
1.0
176
     0
 90
        9
176
     2
 62
     7
176
     0
 40
1.0
176
     0
 90
        1
176
     0
 90
        6
176
     0
 90
        2
176
     0
 62
     7
176
     0
 90
        5
176
     0
 90
        0
176
     0
 90
        0
176
     0
290
     0
176
     0
 90
        1
176
     0
 40
0.0
176
     0
 90
        0
176
     0
290
     0
176
     0
290
     1
176
     0
290
     1
176
     0
290
     0
176
     0
290
     0
176
     0
290
     0
176
     0
290
     0
176
     0
290
     0
176
     0
290
     0
176
     0
 90
       50
176
     0
 40
0.0
176
     0
 40
1.0
176
     0
 90
        0
176
     0
 62
    18
420
        0
176
     0
 90
       50
176
     0
 90
        3
176
     0
 62
     5
420
      255
176
     0
290
     0
176
     0
 90
       50
176
     0
 90
       50
176
     0
 90
       50
176
     0
290
     0
176
     0
 90
       50
176
     0
 62
   256
176
     0
 40
1.0
176
     0
 90
        2
176
     0
  1
strokes_ogs.tif
176
     0
290
     0
176
     0
 40
1.0
176
     0
 40
1.0
176
     0
  0
VISUALSTYLE
  5
33
102
{ACAD_REACTORS
330
2A
102
}
330
2A
100
AcDbVisualStyle
  2
Realistic
 70
     8
177
     3
291
     0
 70
    58
 90
        2
176
     1
 90
        3
176
     1
 90
        0
176
     1
 90
        2
176
     1
 40
0.6
176
     1
 40
30.0
176
     1
 62
     7
420
 16777215
176
     1
 90
        0
176
     1
 90
        0
176
     1
 62
     7
176
     1
 62
   257
176
     1
 90
        1
176
     1
 90
        1
176
     1
 40
1.0
176
     1
 90
        8
176
     1
 62
   257
176
     1
 40
1.0
176
     1
 90
        1
176
     1
 90
        6
176
     1
 90
        2
176
     1
 62
     7
176
     1
 90
        3
176
     1
 90
        0
176
     1
 90
        0
176
     1
290
     0
176
     1
 90
       13
176
     1
 40
0.0
176
     1
 90
        0
176
     1
290
     0
176
     1
290
     1
176
     1
290
     1
176
     1
290
     0
176
     1
290
     0
176
     1
290
     0
176
     1
290
     0
176
     1
290
     0
176
     1
290
     0
176
     1
 90
       50
176
     1
 40
0.0
176
     1
 40
1.0
176
     1
 90
        0
176
     1
 62
    18
420
        0
176
     1
 90
       50
176
     1
 90
        3
176
     1
 62
     5
420
      255
176
     1
290
     0
176
     1
 90
       50
176
     1
 90
       50
176
     1
 90
       50
176
     1
290
     0
176
     1
 90
       50
176
     1
 62
   256
176
     0
 40
1.0
176
     0
 90
        2
176
     1
  1
strokes_ogs.tif
176
     1
290
     0
176
     1
 40
1.0
176
     1
 40
1.0
176
     1
  0
VISUALSTYLE
  5
42
102
{ACAD_REACTORS
330
2A
102
}
330
2A
100
AcDbVisualStyle
  2
Shaded
 70
    27
177
     3
291
     0
 70
    58
 90
        2
176
     1
 90
        2
176
     1
 90
        1
176
     1
 90
        2
176
     1
 40
0.6
176
     1
 40
30.0
176
     1
 62
     7
420
 16777215
176
     1
 90
        0
176
     1
 90
        4
176
     1
 62
     7
176
     1
 62
   257
176
     1
 90
        1
176
     1
 90
        1
176
     1
 40
1.0
176
     1
 90
        8
176
     1
 62
   257
176
     1
 40
1.0
176
     1
 90
        1
176
     1
 90
        6
176
     1
 90
        2
176
     1
 62
     8
420
  7895160
176
     1
 90
        3
176
     1
 90
        0
176
     1
 90
        0
176
     1
290
     0
176
     1
 90
        5
176
     1
 40
0.0
176
     1
 90
        0
176
     1
290
     0
176
     1
290
     1
176
     1
290
     1
176
     1
290
     0
176
     1
290
     0
176
     1
290
     0
176
     1
290
     0
176
     1
290
     0
176
     1
290
     0
176
     1
 90
       50
176
     1
 40
0.0
176
     1
 40
1.0
176
     1
 90
        0
176
     1
 62
    18
420
        0
176
     1
 90
       50
176
     1
 90
        3
176
     1
 62
     5
420
      255
176
     1
290
     0
176
     1
 90
       50
176
     1
 90
       50
176
     1
 90
       50
176
     1
290
     0
176
     1
 90
       50
176
     1
 62
   256
176
     0
 40
1.0
176
     0
 90
        2
176
     1
  1
strokes_ogs.tif
176
     1
290
     0
176
     1
 40
1.0
176
     1
 40
1.0
176
     1
  0
VISUALSTYLE
  5
41
102
{ACAD_REACTORS
330
2A
102
}
330
2A
100
AcDbVisualStyle
  2
Shaded with edges
 70
    26
177
     3
291
     0
 70
    58
 90
        2
176
     1
 90
        2
176
     1
 90
        1
176
     1
 90
        2
176
     1
 40
0.6
176
     1
 40
30.0
176
     1
 62
     7
420
 16777215
176
     1
 90
        1
176
     1
 90
       10
176
     1
 62
     7
176
     1
 62
   257
176
     1
 90
        2
176
     1
 90
        1
176
     1
 40
1.0
176
     1
 90
        8
176
     1
 62
   257
176
     1
 40
1.0
176
     1
 90
        1
176
     1
 90
        6
176
     1
 90
        2
176
     1
 62
     7
176
     1
 90
        3
176
     1
 90
        0
176
     1
 90
        0
176
     1
290
     0
176
     1
 90
        5
176
     1
 40
0.0
176
     1
 90
        0
176
     1
290
     0
176
     1
290
     1
176
     1
290
     1
176
     1
290
     0
176
     1
290
     0
176
     1
290
     0
176
     1
290
     0
176
     1
290
     0
176
     1
290
     0
176
     1
 90
       50
176
     1
 40
0.0
176
     1
 40
1.0
176
     1
 90
        0
176
     1
 62
    18
420
        0
176
     1
 90
       50
176
     1
 90
        3
176
     1
 62
     5
420
      255
176
     1
290
     0
176
     1
 90
       50
176
     1
 90
       50
176
     1
 90
       50
176
     1
290
     0
176
     1
 90
       50
176
     1
 62
   256
176
     0
 40
1.0
176
     0
 90
        2
176
     1
  1
strokes_ogs.tif
176
     1
290
     0
176
     1
 40
1.0
176
     1
 40
1.0
176
     1
  0
VISUALSTYLE
  5
3E
102
{ACAD_REACTORS
330
2A
102
}
330
2A
100
AcDbVisualStyle
  2
Shades of Gray
 70
    23
177
     3
291
     0
 70
    58
 90
        2
176
     1
 90
        2
176
     1
 90
        3
176
     1
 90
        0
176
     1
 40
0.6
176
     1
 40
30.0
176
     1
 62
     7
420
 16777215
176
     1
 90
        2
176
     1
 90
        2
176
     1
 62
     7
176
     1
 62
     7
176
     1
 90
        1
176
     1
 90
        1
176
     1
 40
40.0
176
     1
 90
        8
176
     1
 62
     7
176
     1
 40
1.0
176
     1
 90
        1
176
     1
 90
        6
176
     1
 90
        2
176
     1
 62
     7
176
     1
 90
        3
176
     1
 90
        0
176
     1
 90
        0
176
     1
290
     0
176
     1
 90
        1
176
     1
 40
0.0
176
     1
 90
        0
176
     1
290
     0
176
     1
290
     1
176
     1
290
     1
176
     1
290
     0
176
     1
290
     0
176
     1
290
     0
176
     1
290
     0
176
     1
290
     0
176
     1
290
     0
176
     1
 90
       50
176
     1
 40
0.0
176
     1
 40
1.0
176
     1
 90
        0
176
     1
 62
    18
420
        0
176
     1
 90
       50
176
     1
 90
        3
176
     1
 62
     5
420
      255
176
     1
290
     0
176
     1
 90
       50
176
     1
 90
       50
176
     1
 90
       50
176
     1
290
     0
176
     1
 90
       50
176
     1
 62
   256
176
     0
 40
1.0
176
     0
 90
        2
176
     1
  1
strokes_ogs.tif
176
     1
290
     0
176
     1
 40
1.0
176
     1
 40
1.0
176
     1
  0
VISUALSTYLE
  5
3F
102
{ACAD_REACTORS
330
2A
102
}
330
2A
100
AcDbVisualStyle
  2
Sketchy
 70
    24
177
     3
291
     0
 70
    58
 90
        1
176
     1
 90
        2
176
     1
 90
        2
176
     1
 90
        0
176
     1
 40
0.6
176
     1
 40
30.0
176
     1
 62
     7
420
 16777215
176
     1
 90
        2
176
     1
 90
        2
176
     1
 62
     7
176
     1
 62
     7
176
     1
 90
        1
176
     1
 90
        1
176
     1
 40
40.0
176
     1
 90
       11
176
     1
 62
     7
176
     1
 40
1.0
176
     1
 90
        1
176
     1
 90
        6
176
     1
 90
        2
176
     1
 62
     7
176
     1
 90
        6
176
     1
 90
        0
176
     1
 90
        0
176
     1
290
     0
176
     1
 90
        1
176
     1
 40
0.0
176
     1
 90
        0
176
     1
290
     0
176
     1
290
     1
176
     1
290
     1
176
     1
290
     0
176
     1
290
     0
176
     1
290
     0
176
     1
290
     0
176
     1
290
     0
176
     1
290
     0
176
     1
 90
       50
176
     1
 40
0.0
176
     1
 40
1.0
176
     1
 90
        0
176
     1
 62
    18
420
        0
176
     1
 90
       50
176
     1
 90
        3
176
     1
 62
     5
420
      255
176
     1
290
     0
176
     1
 90
       50
176
     1
 90
       50
176
     1
 90
       50
176
     1
290
     0
176
     1
 90
       50
176
     1
 62
   256
176
     0
 40
1.0
176
     0
 90
        2
176
     1
  1
strokes_ogs.tif
176
     1
290
     0
176
     1
 40
1.0
176
     1
 40
1.0
176
     1
  0
VISUALSTYLE
  5
37
102
{ACAD_REACTORS
330
2A
102
}
330
2A
100
AcDbVisualStyle
  2
Thicken
 70
    13
177
     3
291
     1
 70
    58
 90
        2
176
     1
 90
        2
176
     1
 90
        0
176
     1
 90
        0
176
     1
 40
0.6
176
     1
 40
30.0
176
     1
 62
     7
420
 16777215
176
     1
 90
        1
176
     1
 90
        4
176
     1
 62
     7
176
     1
 62
   257
176
     1
 90
        1
176
     1
 90
        1
176
     1
 40
1.0
176
     1
 90
       12
176
     1
 62
     7
176
     1
 40
1.0
176
     1
 90
        1
176
     1
 90
        6
176
     1
 90
        2
176
     1
 62
     7
176
     1
 90
        5
176
     1
 90
        0
176
     1
 90
        0
176
     1
290
     0
176
     1
 90
        1
176
     1
 40
0.0
176
     1
 90
        0
176
     1
290
     0
176
     1
290
     1
176
     1
290
     1
176
     1
290
     0
176
     1
290
     0
176
     1
290
     0
176
     1
290
     0
176
     1
290
     0
176
     1
290
     0
176
     1
 90
       50
176
     1
 40
0.0
176
     1
 40
1.0
176
     1
 90
        0
176
     1
 62
    18
420
        0
176
     1
 90
       50
176
     1
 90
        3
176
     1
 62
     5
420
      255
176
     1
290
     0
176
     1
 90
       50
176
     1
 90
       50
176
     1
 90
       50
176
     1
290
     0
176
     1
 90
       50
176
     1
 62
   256
176
     0
 40
1.0
176
     0
 90
        2
176
     1
  1
strokes_ogs.tif
176
     1
290
     0
176
     1
 40
1.0
176
     1
 40
1.0
176
     1
  0
VISUALSTYLE
  5
30
102
{ACAD_REACTORS
330
2A
102
}
330
2A
100
AcDbVisualStyle
  2
Wireframe
 70
     5
177
     3
291
     0
 70
    58
 90
        0
176
     1
 90
        2
176
     1
 90
        0
176
     1
 90
        0
176
     1
 40
0.6
176
     1
 40
30.0
176
     1
 62
     7
420
 16777215
176
     1
 90
        1
176
     1
 90
        4
176
     1
 62
     7
176
     1
 62
   257
176
     1
 90
        1
176
     1
 90
        1
176
     1
 40
1.0
176
     1
 90
        0
176
     1
 62
   257
176
     1
 40
1.0
176
     1
 90
        1
176
     1
 90
        6
176
     1
 90
        2
176
     1
 62
     7
176
     1
 90
        3
176
     1
 90
        0
176
     1
 90
        0
176
     1
290
     0
176
     1
 90
        1
176
     1
 40
0.0
176
     1
 90
        0
176
     1
290
     0
176
     1
290
     1
176
     1
290
     1
176
     1
290
     0
176
     1
290
     0
176
     1
290
     0
176
     1
290
     0
176
     1
290
     0
176
     1
290
     0
176
     1
 90
       50
176
     1
 40
0.0
176
     1
 40
1.0
176
     1
 90
        0
176
     1
 62
    18
420
        0
176
     1
 90
       50
176
     1
 90
        3
176
     1
 62
     5
420
      255
176
     1
290
     0
176
     1
 90
       50
176
     1
 90
       50
176
     1
 90
       50
176
     1
290
     0
176
     1
 90
       50
176
     1
 62
   256
176
     0
 40
1.0
176
     0
 90
        2
176
     1
  1
strokes_ogs.tif
176
     1
290
     0
176
     1
 40
1.0
176
     1
 40
1.0
176
     1
  0
VISUALSTYLE
  5
40
102
{ACAD_REACTORS
330
2A
102
}
330
2A
100
AcDbVisualStyle
  2
X-Ray
 70
    25
177
     3
291
     0
 70
    58
 90
        2
176
     1
 90
        2
176
     1
 90
        1
176
     1
 90
        1
176
     1
 40
0.5
176
     1
 40
30.0
176
     1
 62
     7
420
 16777215
176
     1
 90
        1
176
     1
 90
        0
176
     1
 62
     7
176
     1
 62
   257
176
     1
 90
        1
176
     1
 90
        1
176
     1
 40
1.0
176
     1
 90
        8
176
     1
 62
     7
176
     1
 40
1.0
176
     1
 90
        1
176
     1
 90
        6
176
     1
 90
        2
176
     1
 62
     7
176
     1
 90
        3
176
     1
 90
        0
176
     1
 90
        0
176
     1
290
     0
176
     1
 90
       13
176
     1
 40
0.0
176
     1
 90
        0
176
     1
290
     0
176
     1
290
     1
176
     1
290
     1
176
     1
290
     0
176
     1
290
     0
176
     1
290
     0
176
     1
290
     0
176
     1
290
     0
176
     1
290
     0
176
     1
 90
       50
176
     1
 40
0.0
176
     1
 40
1.0
176
     1
 90
        0
176
     1
 62
    18
420
        0
176
     1
 90
       50
176
     1
 90
        3
176
     1
 62
     5
420
      255
176
     1
290
     0
176
     1
 90
       50
176
     1
 90
       50
176
     1
 90
       50
176
     1
290
     0
176
     1
 90
       50
176
     1
 62
   256
176
     0
 40
1.0
176
     0
 90
        2
176
     1
  1
strokes_ogs.tif
176
     1
290
     0
176
     1
 40
1.0
176
     1
 40
1.0
176
     1
  0
DICTIONARYVAR
  5
61C
102
{ACAD_REACTORS
330
61B
102
}
330
61B
100
DictionaryVariables
280
     0
  1
1:1
  0
DICTIONARYVAR
  5
621
102
{ACAD_REACTORS
330
61B
102
}
330
61B
100
DictionaryVariables
280
     0
  1
Standard
  0
DICTIONARYVAR
  5
620
102
{ACAD_REACTORS
330
61B
102
}
330
61B
100
DictionaryVariables
280
     0
  1
Standard
  0
DICTIONARY
  5
61D
330
6A
100
AcDbDictionary
280
     1
281
     1
  3
ACAD_ROUNDTRIP_2008_TABLESTYLE_CELLSTYLEMAP
360
61E
  0
CELLSTYLEMAP
  5
61E
102
{ACAD_REACTORS
330
61D
102
}
330
61D
100
AcDbCellStyleMap
 90
        3
300
CELLSTYLE
  1
TABLEFORMAT_BEGIN
 90
        5
170
     1
 91
        0
 92
    32768
 62
   257
 93
        1
300
CONTENTFORMAT
  1
CONTENTFORMAT_BEGIN
 90
        0
 91
        0
 92
        4
 93
        0
300

 40
0.0
140
1.0
 94
        5
 62
     0
340
11
144
0.25
309
CONTENTFORMAT_END
171
     1
301
MARGIN
  1
CELLMARGIN_BEGIN
 40
0.06
 40
0.06
 40
0.06
 40
0.06
 40
0.06
 40
0.06
309
CELLMARGIN_END
 94
        6
 95
        1
302
GRIDFORMAT
  1
GRIDFORMAT_BEGIN
 90
        0
 91
        1
 62
     0
 92
       -2
340
14
 93
        0
 40
0.045
309
GRIDFORMAT_END
 95
        2
302
GRIDFORMAT
  1
GRIDFORMAT_BEGIN
 90
        0
 91
        1
 62
     0
 92
       -2
340
14
 93
        0
 40
0.045
309
GRIDFORMAT_END
 95
        4
302
GRIDFORMAT
  1
GRIDFORMAT_BEGIN
 90
        0
 91
        1
 62
     0
 92
       -2
340
14
 93
        0
 40
0.045
309
GRIDFORMAT_END
 95
        8
302
GRIDFORMAT
  1
GRIDFORMAT_BEGIN
 90
        0
 91
        1
 62
     0
 92
       -2
340
14
 93
        0
 40
0.045
309
GRIDFORMAT_END
 95
       16
302
GRIDFORMAT
  1
GRIDFORMAT_BEGIN
 90
        0
 91
        1
 62
     0
 92
       -2
340
14
 93
        0
 40
0.045
309
GRIDFORMAT_END
 95
       32
302
GRIDFORMAT
  1
GRIDFORMAT_BEGIN
 90
        0
 91
        1
 62
     0
 92
       -2
340
14
 93
        0
 40
0.045
309
GRIDFORMAT_END
309
TABLEFORMAT_END
  1
CELLSTYLE_BEGIN
 90
        1
 91
        1
300
_TITLE
309
CELLSTYLE_END
300
CELLSTYLE
  1
TABLEFORMAT_BEGIN
 90
        5
170
     1
 91
        0
 92
        0
 62
   257
 93
        1
300
CONTENTFORMAT
  1
CONTENTFORMAT_BEGIN
 90
        0
 91
        0
 92
        4
 93
        0
300

 40
0.0
140
1.0
 94
        5
 62
     0
340
11
144
0.18
309
CONTENTFORMAT_END
171
     1
301
MARGIN
  1
CELLMARGIN_BEGIN
 40
0.06
 40
0.06
 40
0.06
 40
0.06
 40
0.06
 40
0.06
309
CELLMARGIN_END
 94
        6
 95
        1
302
GRIDFORMAT
  1
GRIDFORMAT_BEGIN
 90
        0
 91
        1
 62
     0
 92
       -2
340
14
 93
        0
 40
0.045
309
GRIDFORMAT_END
 95
        2
302
GRIDFORMAT
  1
GRIDFORMAT_BEGIN
 90
        0
 91
        1
 62
     0
 92
       -2
340
14
 93
        0
 40
0.045
309
GRIDFORMAT_END
 95
        4
302
GRIDFORMAT
  1
GRIDFORMAT_BEGIN
 90
        0
 91
        1
 62
     0
 92
       -2
340
14
 93
        0
 40
0.045
309
GRIDFORMAT_END
 95
        8
302
GRIDFORMAT
  1
GRIDFORMAT_BEGIN
 90
        0
 91
        1
 62
     0
 92
       -2
340
14
 93
        0
 40
0.045
309
GRIDFORMAT_END
 95
       16
302
GRIDFORMAT
  1
GRIDFORMAT_BEGIN
 90
        0
 91
        1
 62
     0
 92
       -2
340
14
 93
        0
 40
0.045
309
GRIDFORMAT_END
 95
       32
302
GRIDFORMAT
  1
GRIDFORMAT_BEGIN
 90
        0
 91
        1
 62
     0
 92
       -2
340
14
 93
        0
 40
0.045
309
GRIDFORMAT_END
309
TABLEFORMAT_END
  1
CELLSTYLE_BEGIN
 90
        2
 91
        1
300
_HEADER
309
CELLSTYLE_END
300
CELLSTYLE
  1
TABLEFORMAT_BEGIN
 90
        5
170
     1
 91
        0
 92
        0
 62
   257
 93
        1
300
CONTENTFORMAT
  1
CONTENTFORMAT_BEGIN
 90
        0
 91
        0
 92
        4
 93
        0
300

 40
0.0
140
1.0
 94
        2
 62
     0
340
11
144
0.18
309
CONTENTFORMAT_END
171
     1
301
MARGIN
  1
CELLMARGIN_BEGIN
 40
0.06
 40
0.06
 40
0.06
 40
0.06
 40
0.06
 40
0.06
309
CELLMARGIN_END
 94
        6
 95
        1
302
GRIDFORMAT
  1
GRIDFORMAT_BEGIN
 90
        0
 91
        1
 62
     0
 92
       -2
340
14
 93
        0
 40
0.045
309
GRIDFORMAT_END
 95
        2
302
GRIDFORMAT
  1
GRIDFORMAT_BEGIN
 90
        0
 91
        1
 62
     0
 92
       -2
340
14
 93
        0
 40
0.045
309
GRIDFORMAT_END
 95
        4
302
GRIDFORMAT
  1
GRIDFORMAT_BEGIN
 90
        0
 91
        1
 62
     0
 92
       -2
340
14
 93
        0
 40
0.045
309
GRIDFORMAT_END
 95
        8
302
GRIDFORMAT
  1
GRIDFORMAT_BEGIN
 90
        0
 91
        1
 62
     0
 92
       -2
340
14
 93
        0
 40
0.045
309
GRIDFORMAT_END
 95
       16
302
GRIDFORMAT
  1
GRIDFORMAT_BEGIN
 90
        0
 91
        1
 62
     0
 92
       -2
340
14
 93
        0
 40
0.045
309
GRIDFORMAT_END
 95
       32
302
GRIDFORMAT
  1
GRIDFORMAT_BEGIN
 90
        0
 91
        1
 62
     0
 92
       -2
340
14
 93
        0
 40
0.045
309
GRIDFORMAT_END
309
TABLEFORMAT_END
  1
CELLSTYLE_BEGIN
 90
        3
 91
        2
300
_DATA
309
CELLSTYLE_END
  0
ENDSEC
  0
EOF
