  0
SECTION
  2
HEADER
  9
$ACADVER
  1
AC1032
  9
$ACADMAINTVER
 90
       55
  9
$DWGCODEPAGE
  3
ANSI_932
  9
$LASTSAVEDBY
  1
client05
  9
$REQUIREDVERSIONS
160
                 0
  9
$INSBASE
 10
0.0
 20
0.0
 30
0.0
  9
$EXTMIN
 10
-101.0038116472918
 20
-99.654545
 30
0.0
  9
$EXTMAX
 10
286.4961883527082
 20
371.0434806060605
 30
0.0
  9
$LIMMIN
 10
0.0
 20
0.0
  9
$LIMMAX
 10
297.0
 20
210.0
  9
$ORTHOMODE
 70
     0
  9
$REGENMODE
 70
     1
  9
$FILLMODE
 70
     1
  9
$QTEXTMODE
 70
     0
  9
$MIRRTEXT
 70
     1
  9
$LTSCALE
 40
0.25
  9
$ATTMODE
 70
     1
  9
$TEXTSIZE
 40
5.0
  9
$TRACEWID
 40
0.05
  9
$TEXTSTYLE
  7
Standard
  9
$CLAYER
  8
0
  9
$CELTYPE
  6
ByLayer
  9
$CECOLOR
 62
   256
  9
$CELTSCALE
 40
1.0
  9
$DISPSILH
 70
     0
  9
$DIMSCALE
 40
1.0
  9
$DIMASZ
 40
4.0
  9
$DIMEXO
 40
2.0
  9
$DIMDLI
 40
10.0
  9
$DIMRND
 40
0.0
  9
$DIMDLE
 40
0.0
  9
$DIMEXE
 40
2.0
  9
$DIMTP
 40
0.0
  9
$DIMTM
 40
0.0
  9
$DIMTXT
 40
3.5
  9
$DIMCEN
 40
0.09
  9
$DIMTSZ
 40
0.0
  9
$DIMTOL
 70
     0
  9
$DIMLIM
 70
     0
  9
$DIMTIH
 70
     0
  9
$DIMTOH
 70
     0
  9
$DIMSE1
 70
     0
  9
$DIMSE2
 70
     0
  9
$DIMTAD
 70
     3
  9
$DIMZIN
 70
     8
  9
$DIMBLK
  1

  9
$DIMASO
 70
     1
  9
$DIMSHO
 70
     1
  9
$DIMPOST
  1

  9
$DIMAPOST
  1

  9
$DIMALT
 70
     0
  9
$DIMALTD
 70
     2
  9
$DIMALTF
 40
25.4
  9
$DIMLFAC
 40
1.0
  9
$DIMTOFL
 70
     1
  9
$DIMTVP
 40
0.7
  9
$DIMTIX
 70
     0
  9
$DIMSOXD
 70
     0
  9
$DIMSAH
 70
     0
  9
$DIMBLK1
  1

  9
$DIMBLK2
  1

  9
$DIMSTYLE
  2
Standard
  9
$DIMCLRD
 70
     0
  9
$DIMCLRE
 70
     0
  9
$DIMCLRT
 70
     0
  9
$DIMTFAC
 40
0.5
  9
$DIMGAP
 40
0.09
  9
$DIMJUST
 70
     0
  9
$DIMSD1
 70
     0
  9
$DIMSD2
 70
     0
  9
$DIMTOLJ
 70
     1
  9
$DIMTZIN
 70
     8
  9
$DIMALTZ
 70
     0
  9
$DIMALTTZ
 70
     0
  9
$DIMUPT
 70
     1
  9
$DIMDEC
 70
     2
  9
$DIMTDEC
 70
     4
  9
$DIMALTU
 70
     2
  9
$DIMALTTD
 70
     2
  9
$DIMTXSTY
  7
Standard
  9
$DIMAUNIT
 70
     0
  9
$DIMADEC
 70
     0
  9
$DIMALTRND
 40
0.0
  9
$DIMAZIN
 70
     0
  9
$DIMDSEP
 70
    46
  9
$DIMATFIT
 70
     2
  9
$DIMFRAC
 70
     0
  9
$DIMLDRBLK
  1

  9
$DIMLUNIT
 70
     2
  9
$DIMLWD
 70
    -2
  9
$DIMLWE
 70
    -2
  9
$DIMTMOVE
 70
     2
  9
$DIMFXL
 40
1.0
  9
$DIMFXLON
 70
     0
  9
$DIMJOGANG
 40
0.7853981633974483
  9
$DIMTFILL
 70
     0
  9
$DIMTFILLCLR
 70
     0
  9
$DIMARCSYM
 70
     0
  9
$DIMLTYPE
  6

  9
$DIMLTEX1
  6

  9
$DIMLTEX2
  6

  9
$DIMTXTDIRECTION
 70
     0
  9
$LUNITS
 70
     2
  9
$LUPREC
 70
     4
  9
$SKETCHINC
 40
0.1
  9
$FILLETRAD
 40
0.5
  9
$AUNITS
 70
     0
  9
$AUPREC
 70
     0
  9
$MENU
  1
.
  9
$ELEVATION
 40
0.0
  9
$PELEVATION
 40
0.0
  9
$THICKNESS
 40
0.0
  9
$LIMCHECK
 70
     0
  9
$CHAMFERA
 40
0.0
  9
$CHAMFERB
 40
0.0
  9
$CHAMFERC
 40
0.0
  9
$CHAMFERD
 40
0.0
  9
$SKPOLY
 70
     0
  9
$TDCREATE
 40
2459374.931331018
  9
$TDUCREATE
 40
2459374.556331018
  9
$TDUPDATE
 40
2459374.556338449
  9
$TDUUPDATE
 40
2459374.181338449
  9
$TDINDWG
 40
0.0000000116
  9
$TDUSRTIMER
 40
0.0000000116
  9
$USRTIMER
 70
     1
  9
$ANGBASE
 50
0.0
  9
$ANGDIR
 70
     0
  9
$PDMODE
 70
     0
  9
$PDSIZE
 40
0.0
  9
$PLINEWID
 40
0.0
  9
$SPLFRAME
 70
     0
  9
$SPLINETYPE
 70
     6
  9
$SPLINESEGS
 70
     8
  9
$HANDSEED
  5
310
  9
$SURFTAB1
 70
     6
  9
$SURFTAB2
 70
     6
  9
$SURFTYPE
 70
     6
  9
$SURFU
 70
     6
  9
$SURFV
 70
     6
  9
$UCSBASE
  2

  9
$UCSNAME
  2

  9
$UCSORG
 10
0.0
 20
0.0
 30
0.0
  9
$UCSXDIR
 10
1.0
 20
0.0
 30
0.0
  9
$UCSYDIR
 10
0.0
 20
1.0
 30
0.0
  9
$UCSORTHOREF
  2

  9
$UCSORTHOVIEW
 70
     0
  9
$UCSORGTOP
 10
0.0
 20
0.0
 30
0.0
  9
$UCSORGBOTTOM
 10
0.0
 20
0.0
 30
0.0
  9
$UCSORGLEFT
 10
0.0
 20
0.0
 30
0.0
  9
$UCSORGRIGHT
 10
0.0
 20
0.0
 30
0.0
  9
$UCSORGFRONT
 10
0.0
 20
0.0
 30
0.0
  9
$UCSORGBACK
 10
0.0
 20
0.0
 30
0.0
  9
$PUCSBASE
  2

  9
$PUCSNAME
  2

  9
$PUCSORG
 10
0.0
 20
0.0
 30
0.0
  9
$PUCSXDIR
 10
1.0
 20
0.0
 30
0.0
  9
$PUCSYDIR
 10
0.0
 20
1.0
 30
0.0
  9
$PUCSORTHOREF
  2

  9
$PUCSORTHOVIEW
 70
     0
  9
$PUCSORGTOP
 10
0.0
 20
0.0
 30
0.0
  9
$PUCSORGBOTTOM
 10
0.0
 20
0.0
 30
0.0
  9
$PUCSORGLEFT
 10
0.0
 20
0.0
 30
0.0
  9
$PUCSORGRIGHT
 10
0.0
 20
0.0
 30
0.0
  9
$PUCSORGFRONT
 10
0.0
 20
0.0
 30
0.0
  9
$PUCSORGBACK
 10
0.0
 20
0.0
 30
0.0
  9
$USERI1
 70
     0
  9
$USERI2
 70
     0
  9
$USERI3
 70
     0
  9
$USERI4
 70
     0
  9
$USERI5
 70
     0
  9
$USERR1
 40
0.0
  9
$USERR2
 40
0.0
  9
$USERR3
 40
0.0
  9
$USERR4
 40
0.0
  9
$USERR5
 40
0.0
  9
$WORLDVIEW
 70
     1
  9
$SHADEDGE
 70
     3
  9
$SHADEDIF
 70
    70
  9
$TILEMODE
 70
     1
  9
$MAXACTVP
 70
    64
  9
$PINSBASE
 10
0.0
 20
0.0
 30
0.0
  9
$PLIMCHECK
 70
     0
  9
$PEXTMIN
 10
0.0
 20
0.0
 30
0.0
  9
$PEXTMAX
 10
297.0
 20
210.0
 30
0.0
  9
$PLIMMIN
 10
0.0
 20
0.0
  9
$PLIMMAX
 10
297.0
 20
210.0
  9
$UNITMODE
 70
     0
  9
$VISRETAIN
 70
     1
  9
$PLINEGEN
 70
     0
  9
$PSLTSCALE
 70
     1
  9
$TREEDEPTH
 70
  3020
  9
$CMLSTYLE
  2
Standard
  9
$CMLJUST
 70
     0
  9
$CMLSCALE
 40
1.0
  9
$PROXYGRAPHICS
 70
     1
  9
$MEASUREMENT
 70
     1
  9
$CELWEIGHT
370
    -1
  9
$ENDCAPS
280
     0
  9
$JOINSTYLE
280
     0
  9
$LWDISPLAY
290
     0
  9
$INSUNITS
 70
     4
  9
$HYPERLINKBASE
  1

  9
$STYLESHEET
  1

  9
$XEDIT
290
     1
  9
$CEPSNTYPE
380
     0
  9
$PSTYLEMODE
290
     1
  9
$FINGERPRINTGUID
  2
{2254eb2c-6c32-4398-8aa6-04bba7fe268a}
  9
$VERSIONGUID
  2
{FAEB1C32-E019-11D5-929B-00C0DF256EC4}
  9
$EXTNAMES
290
     1
  9
$PSVPSCALE
 40
0.0
  9
$OLESTARTUP
290
     0
  9
$SORTENTS
280
   127
  9
$INDEXCTL
280
     0
  9
$HIDETEXT
280
     1
  9
$XCLIPFRAME
280
     2
  9
$HALOGAP
280
     0
  9
$OBSCOLOR
 70
   257
  9
$OBSLTYPE
280
     0
  9
$INTERSECTIONDISPLAY
280
     0
  9
$INTERSECTIONCOLOR
 70
   257
  9
$DIMASSOC
280
     1
  9
$PROJECTNAME
  1

  9
$CAMERADISPLAY
290
     0
  9
$LENSLENGTH
 40
50.0
  9
$CAMERAHEIGHT
 40
0.0
  9
$STEPSPERSEC
 40
2.0
  9
$STEPSIZE
 40
6.0
  9
$3DDWFPREC
 40
2.0
  9
$PSOLWIDTH
 40
0.25
  9
$PSOLHEIGHT
 40
4.0
  9
$LOFTANG1
 40
1.570796326794897
  9
$LOFTANG2
 40
1.570796326794897
  9
$LOFTMAG1
 40
0.0
  9
$LOFTMAG2
 40
0.0
  9
$LOFTPARAM
 70
     7
  9
$LOFTNORMALS
280
     1
  9
$LATITUDE
 40
37.795
  9
$LONGITUDE
 40
-122.394
  9
$NORTHDIRECTION
 40
0.0
  9
$TIMEZONE
 70
 -8000
  9
$LIGHTGLYPHDISPLAY
280
     1
  9
$TILEMODELIGHTSYNCH
280
     1
  9
$CMATERIAL
347
44
  9
$SOLIDHIST
280
     0
  9
$SHOWHIST
280
     1
  9
$DWFFRAME
280
     2
  9
$DGNFRAME
280
     2
  9
$REALWORLDSCALE
290
     1
  9
$INTERFERECOLOR
 62
   256
  9
$CSHADOW
280
     0
  9
$SHADOWPLANELOCATION
 40
0.0
  0
ENDSEC
  0
SECTION
  2
CLASSES
  0
CLASS
  1
ACDBDICTIONARYWDFLT
  2
AcDbDictionaryWithDefault
  3
ObjectDBX Classes
 90
        0
 91
        3
280
     0
281
     0
  0
CLASS
  1
VISUALSTYLE
  2
AcDbVisualStyle
  3
ObjectDBX Classes
 90
     4095
 91
        3
280
     0
281
     0
  0
CLASS
  1
MATERIAL
  2
AcDbMaterial
  3
ObjectDBX Classes
 90
     1153
 91
        3
280
     0
281
     0
  0
CLASS
  1
SCALE
  2
AcDbScale
  3
ObjectDBX Classes
 90
     1153
 91
        3
280
     0
281
     0
  0
CLASS
  1
TABLESTYLE
  2
AcDbTableStyle
  3
ObjectDBX Classes
 90
     4095
 91
        3
280
     0
281
     0
  0
CLASS
  1
MLEADERSTYLE
  2
AcDbMLeaderStyle
  3
ACDB_MLEADERSTYLE_CLASS
 90
     4095
 91
        3
280
     0
281
     0
  0
CLASS
  1
SUN
  2
AcDbSun
  3
SCENEOE
 90
     1153
 91
        3
280
     0
281
     0
  0
CLASS
  1
DICTIONARYVAR
  2
AcDbDictionaryVar
  3
ObjectDBX Classes
 90
        0
 91
        3
280
     0
281
     0
  0
CLASS
  1
CELLSTYLEMAP
  2
AcDbCellStyleMap
  3
ObjectDBX Classes
 90
     1152
 91
        3
280
     0
281
     0
  0
ENDSEC
  0
SECTION
  2
TABLES
  0
TABLE
  2
VPORT
  5
8
330
0
100
AcDbSymbolTable
 70
     1
  0
VPORT
  5
29
330
8
100
AcDbSymbolTableRecord
100
AcDbViewportTableRecord
  2
*Active
 70
     0
 10
0.0
 20
0.0
 11
1.0
 21
1.0
 12
10.42990654205607
 22
4.5
 13
0.0
 23
0.0
 14
0.5
 24
0.5
 15
0.5
 25
0.5
 16
0.0
 26
0.0
 36
1.0
 17
0.0
 27
0.0
 37
0.0
 40
9.0
 41
1.972972972850329
 42
50.0
 43
0.0
 44
0.0
 50
0.0
 51
0.0
 71
     0
 72
   100
 73
     1
 74
     3
 75
     0
 76
     0
 77
     0
 78
     0
281
     0
 65
     1
110
0.0
120
0.0
130
0.0
111
1.0
121
0.0
131
0.0
112
0.0
122
1.0
132
0.0
 79
     0
146
0.0
348
2F
 60
     3
 61
     5
292
     1
282
     1
141
0.0
142
0.0
 63
   250
361
6D
  0
ENDTAB
  0
TABLE
  2
LTYPE
  5
5
330
0
100
AcDbSymbolTable
 70
     9
  0
LTYPE
  5
14
330
5
100
AcDbSymbolTableRecord
100
AcDbLinetypeTableRecord
  2
ByBlock
 70
     0
  3

 72
    65
 73
     0
 40
0.0
  0
LTYPE
  5
15
330
5
100
AcDbSymbolTableRecord
100
AcDbLinetypeTableRecord
  2
ByLayer
 70
     0
  3

 72
    65
 73
     0
 40
0.0
  0
LTYPE
  5
16
330
5
100
AcDbSymbolTableRecord
100
AcDbLinetypeTableRecord
  2
Continuous
 70
     0
  3
Solid line
 72
    65
 73
     0
 40
0.0
  0
LTYPE
  5
BC
330
5
100
AcDbSymbolTableRecord
100
AcDbLinetypeTableRecord
  2
DOT
 70
     0
  3
DOT
 72
    65
 73
     2
 40
4.0
 49
6.0
 74
     0
 49
-2.0
 74
     0
  0
LTYPE
  5
BD
330
5
100
AcDbSymbolTableRecord
100
AcDbLinetypeTableRecord
  2
HIDDEN
 70
     0
  3
HIDDEN
 72
    65
 73
     2
 40
4.2
 49
8.4
 74
     0
 49
-4.2
 74
     0
  0
LTYPE
  5
BE
330
5
100
AcDbSymbolTableRecord
100
AcDbLinetypeTableRecord
  2
DASHDOT
 70
     0
  3
DASHDOT
 72
    65
 73
     4
 40
14.5
 49
30.0
 74
     0
 49
-9.0
 74
     0
 49
2.5
 74
     0
 49
-9.0
 74
     0
  0
LTYPE
  5
BF
330
5
100
AcDbSymbolTableRecord
100
AcDbLinetypeTableRecord
  2
PHANTOM
 70
     0
  3
PHANTOM
 72
    65
 73
     6
 40
12.0
 49
30.0
 74
     0
 49
-9.0
 74
     0
 49
2.5
 74
     0
 49
-5.0
 74
     0
 49
2.5
 74
     0
 49
-9.0
 74
     0
  0
LTYPE
  5
C0
330
5
100
AcDbSymbolTableRecord
100
AcDbLinetypeTableRecord
  2
ACAD_ISO14W100
 70
     0
  3
ACAD_ISO14W100
 72
    65
 73
     8
 40
1.5
 49
12.0
 74
     0
 49
-3.0
 74
     0
 49
0.5
 74
     0
 49
-3.0
 74
     0
 49
0.5
 74
     0
 49
-3.0
 74
     0
 49
0.5
 74
     0
 49
-3.0
 74
     0
  0
LTYPE
  5
C1
330
5
100
AcDbSymbolTableRecord
100
AcDbLinetypeTableRecord
  2
ACAD_ISO06W100
 70
     0
  3
ACAD_ISO06W100
 72
    65
 73
     8
 40
13.5
 49
24.0
 74
     0
 49
-3.0
 74
     0
 49
0.5
 74
     0
 49
-3.0
 74
     0
 49
0.5
 74
     0
 49
-3.0
 74
     0
 49
0.5
 74
     0
 49
-3.0
 74
     0
  0
LTYPE
  5
C2
330
5
100
AcDbSymbolTableRecord
100
AcDbLinetypeTableRecord
  2
ACAD_ISO11W100
 70
     0
  3
ACAD_ISO11W100
 72
    65
 73
     6
 40
15.5
 49
12.0
 74
     0
 49
-3.0
 74
     0
 49
12.0
 74
     0
 49
-3.0
 74
     0
 49
0.5
 74
     0
 49
-3.0
 74
     0
  0
LTYPE
  5
C3
330
5
100
AcDbSymbolTableRecord
100
AcDbLinetypeTableRecord
  2
ACAD_ISO13W100
 70
     0
  3
ACAD_ISO13W100
 72
    65
 73
     8
 40
13.0
 49
12.0
 74
     0
 49
-3.0
 74
     0
 49
12.0
 74
     0
 49
-3.0
 74
     0
 49
0.5
 74
     0
 49
-3.0
 74
     0
 49
0.5
 74
     0
 49
-3.0
 74
     0
  0
ENDTAB
  0
TABLE
  2
LAYER
  5
2
330
0
100
AcDbSymbolTable
 70
    30
  0
LAYER
  5
10
330
2
100
AcDbSymbolTableRecord
100
AcDbLayerTableRecord
  2
0
 70
     0
 62
     7
  6
Continuous
370
    -3
390
F
347
46
348
0
  0
LAYER
  5
C4
330
2
100
AcDbSymbolTableRecord
100
AcDbLayerTableRecord
  2
1
 70
     0
 62
     7
  6
Continuous
370
     9
390
F
347
46
348
0
  0
LAYER
  5
C5
330
2
100
AcDbSymbolTableRecord
100
AcDbLayerTableRecord
  2
2
 70
     0
 62
   136
420
    32896
  6
Continuous
370
     9
390
F
347
46
348
0
  0
LAYER
  5
C6
330
2
100
AcDbSymbolTableRecord
100
AcDbLayerTableRecord
  2
3
 70
     0
 62
   216
420
  8388736
  6
Continuous
370
     9
390
F
347
46
348
0
  0
LAYER
  5
C7
330
2
100
AcDbSymbolTableRecord
100
AcDbLayerTableRecord
  2
4
 70
     0
 62
    56
420
  8421376
  6
Continuous
370
     9
390
F
347
46
348
0
  0
LAYER
  5
C8
330
2
100
AcDbSymbolTableRecord
100
AcDbLayerTableRecord
  2
5
 70
     0
 62
    96
420
    32768
  6
Continuous
370
     9
390
F
347
46
348
0
  0
LAYER
  5
C9
330
2
100
AcDbSymbolTableRecord
100
AcDbLayerTableRecord
  2
6
 70
     0
 62
    16
420
  8388608
  6
Continuous
370
     9
390
F
347
46
348
0
  0
LAYER
  5
CA
330
2
100
AcDbSymbolTableRecord
100
AcDbLayerTableRecord
  2
7
 70
     0
 62
     4
  6
Continuous
370
     9
390
F
347
46
348
0
  0
LAYER
  5
CB
330
2
100
AcDbSymbolTableRecord
100
AcDbLayerTableRecord
  2
8
 70
     0
 62
     6
  6
Continuous
370
     9
390
F
347
46
348
0
  0
LAYER
  5
CC
330
2
100
AcDbSymbolTableRecord
100
AcDbLayerTableRecord
  2
9
 70
     0
 62
     2
  6
Continuous
370
     9
390
F
347
46
348
0
  0
LAYER
  5
CD
330
2
100
AcDbSymbolTableRecord
100
AcDbLayerTableRecord
  2
10
 70
     0
 62
     3
  6
Continuous
370
     9
390
F
347
46
348
0
  0
LAYER
  5
CE
330
2
100
AcDbSymbolTableRecord
100
AcDbLayerTableRecord
  2
11
 70
     0
 62
     8
420
  8421504
  6
Continuous
370
     9
390
F
347
46
348
0
  0
LAYER
  5
CF
330
2
100
AcDbSymbolTableRecord
100
AcDbLayerTableRecord
  2
12
 70
     0
 62
   138
420
    20560
  6
Continuous
370
     9
390
F
347
46
348
0
  0
LAYER
  5
D0
330
2
100
AcDbSymbolTableRecord
100
AcDbLayerTableRecord
  2
13
 70
     0
 62
   218
420
  5242960
  6
Continuous
370
     9
390
F
347
46
348
0
  0
LAYER
  5
D1
330
2
100
AcDbSymbolTableRecord
100
AcDbLayerTableRecord
  2
14
 70
     0
 62
    58
420
  5263360
  6
Continuous
370
     9
390
F
347
46
348
0
  0
LAYER
  5
D2
330
2
100
AcDbSymbolTableRecord
100
AcDbLayerTableRecord
  2
15
 70
     0
 62
    98
420
    20480
  6
Continuous
370
     9
390
F
347
46
348
0
  0
LAYER
  5
D3
330
2
100
AcDbSymbolTableRecord
100
AcDbLayerTableRecord
  2
16
 70
     0
 62
    18
420
  5242880
  6
Continuous
370
     9
390
F
347
46
348
0
  0
LAYER
  5
D4
330
2
100
AcDbSymbolTableRecord
100
AcDbLayerTableRecord
  2
17
 70
     0
 62
   132
420
    49344
  6
Continuous
370
     9
390
F
347
46
348
0
  0
LAYER
  5
D5
330
2
100
AcDbSymbolTableRecord
100
AcDbLayerTableRecord
  2
18
 70
     0
 62
   212
420
 12583104
  6
Continuous
370
     9
390
F
347
46
348
0
  0
LAYER
  5
D6
330
2
100
AcDbSymbolTableRecord
100
AcDbLayerTableRecord
  2
19
 70
     0
 62
    52
420
 12632064
  6
Continuous
370
     9
390
F
347
46
348
0
  0
LAYER
  5
D7
330
2
100
AcDbSymbolTableRecord
100
AcDbLayerTableRecord
  2
20
 70
     0
 62
   251
420
  5263440
  6
Continuous
370
     9
390
F
347
46
348
0
  0
LAYER
  5
D8
330
2
100
AcDbSymbolTableRecord
100
AcDbLayerTableRecord
  2
100
 70
     0
 62
     7
  6
Continuous
370
     9
390
F
347
46
348
0
  0
LAYER
  5
D9
330
2
100
AcDbSymbolTableRecord
100
AcDbLayerTableRecord
  2
101
 70
     0
 62
     7
  6
Continuous
370
     9
390
F
347
46
348
0
  0
LAYER
  5
DA
330
2
100
AcDbSymbolTableRecord
100
AcDbLayerTableRecord
  2
102
 70
     0
 62
     7
  6
Continuous
370
     9
390
F
347
46
348
0
  0
LAYER
  5
DB
330
2
100
AcDbSymbolTableRecord
100
AcDbLayerTableRecord
  2
103
 70
     0
 62
     9
420
 12434877
  6
Continuous
370
     9
390
F
347
46
348
0
  0
LAYER
  5
DC
330
2
100
AcDbSymbolTableRecord
100
AcDbLayerTableRecord
  2
104
 70
     0
 62
   253
420
 10263708
  6
Continuous
370
     9
390
F
347
46
348
0
  0
LAYER
  5
DD
330
2
100
AcDbSymbolTableRecord
100
AcDbLayerTableRecord
  2
105
 70
     0
 62
     8
420
  7566195
  6
Continuous
370
     9
390
F
347
46
348
0
  0
LAYER
  5
DE
330
2
100
AcDbSymbolTableRecord
100
AcDbLayerTableRecord
  2
106
 70
     0
 62
     8
420
  7566195
  6
Continuous
370
     9
390
F
347
46
348
0
  0
LAYER
  5
DF
330
2
100
AcDbSymbolTableRecord
100
AcDbLayerTableRecord
  2
107
 70
     0
 62
     1
  6
Continuous
370
     9
390
F
347
46
348
0
  0
LAYER
  5
E0
330
2
100
AcDbSymbolTableRecord
100
AcDbLayerTableRecord
  2
128
 70
     0
 62
     7
  6
Continuous
370
     9
390
F
347
46
348
0
  0
ENDTAB
  0
TABLE
  2
STYLE
  5
3
330
0
100
AcDbSymbolTable
 70
     2
  0
STYLE
  5
11
330
3
100
AcDbSymbolTableRecord
100
AcDbTextStyleTableRecord
  2
Standard
 70
     0
 40
0.0
 41
1.0
 50
0.0
 71
     0
 42
5.0
  3
txt
  4
bigfont
  0
STYLE
  5
6F
330
3
100
AcDbSymbolTableRecord
100
AcDbTextStyleTableRecord
  2
T_STANDARD
 70
     4
 40
10.0
 41
1.0
 50
0.0
 71
     0
 42
5.0
  3
txt
  4
bigfont
1001
ACAD
1000

1071
      256
  0
ENDTAB
  0
TABLE
  2
VIEW
  5
6
330
0
100
AcDbSymbolTable
 70
     0
  0
ENDTAB
  0
TABLE
  2
UCS
  5
7
330
0
100
AcDbSymbolTable
 70
     0
  0
ENDTAB
  0
TABLE
  2
APPID
  5
9
330
0
100
AcDbSymbolTable
 70
     2
  0
APPID
  5
12
330
9
100
AcDbSymbolTableRecord
100
AcDbRegAppTableRecord
  2
ACAD
 70
     0
  0
APPID
  5
6E
330
9
100
AcDbSymbolTableRecord
100
AcDbRegAppTableRecord
  2
ODA
 70
     0
  0
ENDTAB
  0
TABLE
  2
DIMSTYLE
  5
A
330
0
100
AcDbSymbolTable
 70
     1
100
AcDbDimStyleTable
  0
DIMSTYLE
105
27
330
A
100
AcDbSymbolTableRecord
100
AcDbDimStyleTableRecord
  2
Standard
 70
     0
178
     0
340
11
  0
ENDTAB
  0
TABLE
  2
BLOCK_RECORD
  5
1
330
0
100
AcDbSymbolTable
 70
    16
  0
BLOCK_RECORD
  5
1F
330
1
100
AcDbSymbolTableRecord
100
AcDbBlockTableRecord
  2
*Model_Space
340
22
 70
     0
280
     1
281
     0
  0
BLOCK_RECORD
  5
1B
330
1
100
AcDbSymbolTableRecord
100
AcDbBlockTableRecord
  2
*Paper_Space
340
1E
 70
     0
280
     1
281
     0
  0
BLOCK_RECORD
  5
23
330
1
100
AcDbSymbolTableRecord
100
AcDbBlockTableRecord
  2
*Paper_Space0
340
26
 70
     0
280
     1
281
     0
  0
BLOCK_RECORD
  5
70
330
1
100
AcDbSymbolTableRecord
100
AcDbBlockTableRecord
  2
_ORIGIN
340
0
 70
     0
280
     1
281
     0
  0
BLOCK_RECORD
  5
75
330
1
100
AcDbSymbolTableRecord
100
AcDbBlockTableRecord
  2
_DOTBLANK
340
0
 70
     0
280
     1
281
     0
  0
BLOCK_RECORD
  5
7A
330
1
100
AcDbSymbolTableRecord
100
AcDbBlockTableRecord
  2
_DOT
340
0
 70
     0
280
     1
281
     0
  0
BLOCK_RECORD
  5
7F
330
1
100
AcDbSymbolTableRecord
100
AcDbBlockTableRecord
  2
_OPEN
340
0
 70
     0
280
     1
281
     0
  0
BLOCK_RECORD
  5
85
330
1
100
AcDbSymbolTableRecord
100
AcDbBlockTableRecord
  2
_CLOSED
340
0
 70
     0
280
     1
281
     0
  0
BLOCK_RECORD
  5
8C
330
1
100
AcDbSymbolTableRecord
100
AcDbBlockTableRecord
  2
_CLOSEDBLANK
340
0
 70
     0
280
     1
281
     0
  0
BLOCK_RECORD
  5
92
330
1
100
AcDbSymbolTableRecord
100
AcDbBlockTableRecord
  2
_ARROWFILLED
340
0
 70
     0
280
     1
281
     0
  0
BLOCK_RECORD
  5
96
330
1
100
AcDbSymbolTableRecord
100
AcDbBlockTableRecord
  2
_BOXBLANK
340
0
 70
     0
280
     1
281
     0
  0
BLOCK_RECORD
  5
9E
330
1
100
AcDbSymbolTableRecord
100
AcDbBlockTableRecord
  2
_BOXFILLED
340
0
 70
     0
280
     1
281
     0
  0
BLOCK_RECORD
  5
A3
330
1
100
AcDbSymbolTableRecord
100
AcDbBlockTableRecord
  2
_INTEGRAL
340
0
 70
     0
280
     1
281
     0
  0
BLOCK_RECORD
  5
A8
330
1
100
AcDbSymbolTableRecord
100
AcDbBlockTableRecord
  2
_OBLIQUE
340
0
 70
     0
280
     1
281
     0
  0
BLOCK_RECORD
  5
AC
330
1
100
AcDbSymbolTableRecord
100
AcDbBlockTableRecord
  2
_NONE
340
0
 70
     0
280
     1
281
     0
  0
BLOCK_RECORD
  5
AF
330
1
100
AcDbSymbolTableRecord
100
AcDbBlockTableRecord
  2
MARK_OPEN
340
0
 70
     0
280
     1
281
     0
  0
BLOCK_RECORD
  5
B4
330
1
100
AcDbSymbolTableRecord
100
AcDbBlockTableRecord
  2
MARK_ORIGIN
340
0
 70
     0
280
     1
281
     0
  0
BLOCK_RECORD
  5
B8
330
1
100
AcDbSymbolTableRecord
100
AcDbBlockTableRecord
  2
MARK_DOT
340
0
 70
     0
280
     1
281
     0
  0
ENDTAB
  0
ENDSEC
  0
SECTION
  2
BLOCKS
  0
BLOCK
  5
20
330
1F
100
AcDbEntity
  8
0
100
AcDbBlockBegin
  2
*Model_Space
 70
     0
 10
0.0
 20
0.0
 30
0.0
  3
*Model_Space
  1

  0
ENDBLK
  5
21
330
1F
100
AcDbEntity
  8
0
100
AcDbBlockEnd
  0
BLOCK
  5
1C
330
1B
100
AcDbEntity
 67
     1
  8
0
100
AcDbBlockBegin
  2
*Paper_Space
 70
     0
 10
0.0
 20
0.0
 30
0.0
  3
*Paper_Space
  1

  0
ENDBLK
  5
1D
330
1B
100
AcDbEntity
 67
     1
  8
0
100
AcDbBlockEnd
  0
BLOCK
  5
24
330
23
100
AcDbEntity
  8
0
100
AcDbBlockBegin
  2
*Paper_Space0
 70
     0
 10
0.0
 20
0.0
 30
0.0
  3
*Paper_Space0
  1

  0
ENDBLK
  5
25
330
23
100
AcDbEntity
  8
0
100
AcDbBlockEnd
  0
BLOCK
  5
73
330
70
100
AcDbEntity
  8
0
100
AcDbBlockBegin
  2
_ORIGIN
 70
     0
 10
0.0
 20
0.0
 30
0.0
  3
_ORIGIN
  1

  0
CIRCLE
  5
71
330
70
100
AcDbEntity
  8
0
 62
     0
100
AcDbCircle
 10
0.0
 20
0.0
 30
0.0
 40
0.5
  0
LINE
  5
72
330
70
100
AcDbEntity
  8
0
 62
     0
100
AcDbLine
 10
0.0
 20
0.0
 30
0.0
 11
-1.0
 21
0.0
 31
0.0
  0
ENDBLK
  5
74
330
70
100
AcDbEntity
  8
0
100
AcDbBlockEnd
  0
BLOCK
  5
78
330
75
100
AcDbEntity
  8
0
100
AcDbBlockBegin
  2
_DOTBLANK
 70
     0
 10
0.0
 20
0.0
 30
0.0
  3
_DOTBLANK
  1

  0
CIRCLE
  5
76
330
75
100
AcDbEntity
  8
0
 62
     0
100
AcDbCircle
 10
0.0
 20
0.0
 30
0.0
 40
0.5
  0
LINE
  5
77
330
75
100
AcDbEntity
  8
0
 62
     0
100
AcDbLine
 10
-0.5
 20
0.0
 30
0.0
 11
-1.0
 21
0.0
 31
0.0
  0
ENDBLK
  5
79
330
75
100
AcDbEntity
  8
0
100
AcDbBlockEnd
  0
BLOCK
  5
7D
330
7A
100
AcDbEntity
  8
0
100
AcDbBlockBegin
  2
_DOT
 70
     0
 10
0.0
 20
0.0
 30
0.0
  3
_DOT
  1

  0
LWPOLYLINE
  5
7B
330
7A
100
AcDbEntity
  8
0
 62
     0
100
AcDbPolyline
 90
        2
 70
     1
 43
0.5
 10
-0.25
 20
0.0
 42
1.0
 10
0.25
 20
0.0
 42
1.0
  0
LINE
  5
7C
330
7A
100
AcDbEntity
  8
0
 62
     0
100
AcDbLine
 10
-0.5
 20
0.0
 30
0.0
 11
-1.0
 21
0.0
 31
0.0
  0
ENDBLK
  5
7E
330
7A
100
AcDbEntity
  8
0
100
AcDbBlockEnd
  0
BLOCK
  5
83
330
7F
100
AcDbEntity
  8
0
100
AcDbBlockBegin
  2
_OPEN
 70
     0
 10
0.0
 20
0.0
 30
0.0
  3
_OPEN
  1

  0
LINE
  5
80
330
7F
100
AcDbEntity
  8
0
 62
     0
100
AcDbLine
 10
0.0
 20
0.0
 30
0.0
 11
-1.0
 21
0.1666666666666667
 31
0.0
  0
LINE
  5
81
330
7F
100
AcDbEntity
  8
0
 62
     0
100
AcDbLine
 10
0.0
 20
0.0
 30
0.0
 11
-1.0
 21
-0.1666666666666667
 31
0.0
  0
LINE
  5
82
330
7F
100
AcDbEntity
  8
0
 62
     0
100
AcDbLine
 10
0.0
 20
0.0
 30
0.0
 11
-1.0
 21
0.0
 31
0.0
  0
ENDBLK
  5
84
330
7F
100
AcDbEntity
  8
0
100
AcDbBlockEnd
  0
BLOCK
  5
8A
330
85
100
AcDbEntity
  8
0
100
AcDbBlockBegin
  2
_CLOSED
 70
     0
 10
0.0
 20
0.0
 30
0.0
  3
_CLOSED
  1

  0
LINE
  5
86
330
85
100
AcDbEntity
  8
0
 62
     0
100
AcDbLine
 10
0.0
 20
0.0
 30
0.0
 11
-1.0
 21
0.1666666666666667
 31
0.0
  0
LINE
  5
87
330
85
100
AcDbEntity
  8
0
 62
     0
100
AcDbLine
 10
0.0
 20
0.0
 30
0.0
 11
-1.0
 21
-0.1666666666666667
 31
0.0
  0
LINE
  5
88
330
85
100
AcDbEntity
  8
0
 62
     0
100
AcDbLine
 10
-1.0
 20
0.1666666666666667
 30
0.0
 11
-1.0
 21
-0.1666666666666667
 31
0.0
  0
LINE
  5
89
330
85
100
AcDbEntity
  8
0
 62
     0
100
AcDbLine
 10
0.0
 20
0.0
 30
0.0
 11
-1.0
 21
0.0
 31
0.0
  0
ENDBLK
  5
8B
330
85
100
AcDbEntity
  8
0
100
AcDbBlockEnd
  0
BLOCK
  5
90
330
8C
100
AcDbEntity
  8
0
100
AcDbBlockBegin
  2
_CLOSEDBLANK
 70
     0
 10
0.0
 20
0.0
 30
0.0
  3
_CLOSEDBLANK
  1

  0
LINE
  5
8D
330
8C
100
AcDbEntity
  8
0
 62
     0
100
AcDbLine
 10
0.0
 20
0.0
 30
0.0
 11
-1.0
 21
0.1666666666666667
 31
0.0
  0
LINE
  5
8E
330
8C
100
AcDbEntity
  8
0
 62
     0
100
AcDbLine
 10
0.0
 20
0.0
 30
0.0
 11
-1.0
 21
-0.1666666666666667
 31
0.0
  0
LINE
  5
8F
330
8C
100
AcDbEntity
  8
0
 62
     0
100
AcDbLine
 10
-1.0
 20
0.1666666666666667
 30
0.0
 11
-1.0
 21
-0.1666666666666667
 31
0.0
  0
ENDBLK
  5
91
330
8C
100
AcDbEntity
  8
0
100
AcDbBlockEnd
  0
BLOCK
  5
94
330
92
100
AcDbEntity
  8
0
100
AcDbBlockBegin
  2
_ARROWFILLED
 70
     0
 10
0.0
 20
0.0
 30
0.0
  3
_ARROWFILLED
  1

  0
SOLID
  5
93
330
92
100
AcDbEntity
  8
0
 62
     0
100
AcDbTrace
 10
0.0
 20
0.0
 30
0.0
 11
-1.0
 21
-0.1666666666666667
 31
0.0
 12
-1.0
 22
0.1666666666666667
 32
0.0
 13
0.0
 23
0.0
 33
0.0
  0
ENDBLK
  5
95
330
92
100
AcDbEntity
  8
0
100
AcDbBlockEnd
  0
BLOCK
  5
9C
330
96
100
AcDbEntity
  8
0
100
AcDbBlockBegin
  2
_BOXBLANK
 70
     0
 10
0.0
 20
0.0
 30
0.0
  3
_BOXBLANK
  1

  0
LINE
  5
97
330
96
100
AcDbEntity
  8
0
 62
     0
100
AcDbLine
 10
-0.5
 20
-0.5
 30
0.0
 11
0.5
 21
-0.5
 31
0.0
  0
LINE
  5
98
330
96
100
AcDbEntity
  8
0
 62
     0
100
AcDbLine
 10
0.5
 20
-0.5
 30
0.0
 11
0.5
 21
0.5
 31
0.0
  0
LINE
  5
99
330
96
100
AcDbEntity
  8
0
 62
     0
100
AcDbLine
 10
0.5
 20
0.5
 30
0.0
 11
-0.5
 21
0.5
 31
0.0
  0
LINE
  5
9A
330
96
100
AcDbEntity
  8
0
 62
     0
100
AcDbLine
 10
-0.5
 20
0.5
 30
0.0
 11
-0.5
 21
-0.5
 31
0.0
  0
LINE
  5
9B
330
96
100
AcDbEntity
  8
0
 62
     0
100
AcDbLine
 10
-0.5
 20
0.0
 30
0.0
 11
-1.0
 21
0.0
 31
0.0
  0
ENDBLK
  5
9D
330
96
100
AcDbEntity
  8
0
100
AcDbBlockEnd
  0
BLOCK
  5
A1
330
9E
100
AcDbEntity
  8
0
100
AcDbBlockBegin
  2
_BOXFILLED
 70
     0
 10
0.0
 20
0.0
 30
0.0
  3
_BOXFILLED
  1

  0
SOLID
  5
9F
330
9E
100
AcDbEntity
  8
0
 62
     0
100
AcDbTrace
 10
-0.5
 20
0.5
 30
0.0
 11
0.5
 21
0.5
 31
0.0
 12
-0.5
 22
-0.5
 32
0.0
 13
0.5
 23
-0.5
 33
0.0
  0
LINE
  5
A0
330
9E
100
AcDbEntity
  8
0
 62
     0
100
AcDbLine
 10
-0.5
 20
0.0
 30
0.0
 11
-1.0
 21
0.0
 31
0.0
  0
ENDBLK
  5
A2
330
9E
100
AcDbEntity
  8
0
100
AcDbBlockEnd
  0
BLOCK
  5
A6
330
A3
100
AcDbEntity
  8
0
100
AcDbBlockBegin
  2
_INTEGRAL
 70
     0
 10
0.0
 20
0.0
 30
0.0
  3
_INTEGRAL
  1

  0
ARC
  5
A4
330
A3
100
AcDbEntity
  8
0
 62
     0
100
AcDbCircle
 10
0.444888
 20
-0.0913346
 30
0.0
 40
0.4541666
100
AcDbArc
 50
101.9999999999999
 51
167.9999999999998
  0
ARC
  5
A5
330
A3
100
AcDbEntity
  8
0
 62
     0
100
AcDbCircle
 10
-0.444888
 20
0.0913346
 30
0.0
 40
0.4541666
100
AcDbArc
 50
281.9999999999997
 51
347.9999999999997
  0
ENDBLK
  5
A7
330
A3
100
AcDbEntity
  8
0
100
AcDbBlockEnd
  0
BLOCK
  5
AA
330
A8
100
AcDbEntity
  8
0
100
AcDbBlockBegin
  2
_OBLIQUE
 70
     0
 10
0.0
 20
0.0
 30
0.0
  3
_OBLIQUE
  1

  0
LINE
  5
A9
330
A8
100
AcDbEntity
  8
0
 62
     0
100
AcDbLine
 10
-0.5
 20
-0.5
 30
0.0
 11
0.5
 21
0.5
 31
0.0
  0
ENDBLK
  5
AB
330
A8
100
AcDbEntity
  8
0
100
AcDbBlockEnd
  0
BLOCK
  5
AD
330
AC
100
AcDbEntity
  8
0
100
AcDbBlockBegin
  2
_NONE
 70
     0
 10
0.0
 20
0.0
 30
0.0
  3
_NONE
  1

  0
ENDBLK
  5
AE
330
AC
100
AcDbEntity
  8
0
100
AcDbBlockEnd
  0
BLOCK
  5
B2
330
AF
100
AcDbEntity
  8
0
100
AcDbBlockBegin
  2
MARK_OPEN
 70
     0
 10
0.0
 20
0.0
 30
0.0
  3
MARK_OPEN
  1

  0
LINE
  5
B0
330
AF
100
AcDbEntity
  8
0
 62
     0
100
AcDbLine
 10
0.0
 20
0.0
 30
0.0
 11
-1.0
 21
0.1666666666666667
 31
0.0
  0
LINE
  5
B1
330
AF
100
AcDbEntity
  8
0
 62
     0
100
AcDbLine
 10
0.0
 20
0.0
 30
0.0
 11
-1.0
 21
-0.1666666666666667
 31
0.0
  0
ENDBLK
  5
B3
330
AF
100
AcDbEntity
  8
0
100
AcDbBlockEnd
  0
BLOCK
  5
B6
330
B4
100
AcDbEntity
  8
0
100
AcDbBlockBegin
  2
MARK_ORIGIN
 70
     0
 10
0.0
 20
0.0
 30
0.0
  3
MARK_ORIGIN
  1

  0
CIRCLE
  5
B5
330
B4
100
AcDbEntity
  8
0
 62
     0
100
AcDbCircle
 10
0.0
 20
0.0
 30
0.0
 40
0.5
  0
ENDBLK
  5
B7
330
B4
100
AcDbEntity
  8
0
100
AcDbBlockEnd
  0
BLOCK
  5
BA
330
B8
100
AcDbEntity
  8
0
100
AcDbBlockBegin
  2
MARK_DOT
 70
     0
 10
0.0
 20
0.0
 30
0.0
  3
MARK_DOT
  1

  0
LWPOLYLINE
  5
B9
330
B8
100
AcDbEntity
  8
0
 62
     0
100
AcDbPolyline
 90
        2
 70
     1
 43
0.5
 10
-0.25
 20
0.0
 42
1.0
 10
0.25
 20
0.0
 42
1.0
  0
ENDBLK
  5
BB
330
B8
100
AcDbEntity
  8
0
100
AcDbBlockEnd
  0
ENDSEC
  0
SECTION
  2
ENTITIES
  0
MTEXT
  5
E1
330
1F
100
AcDbEntity
  8
100
  6
Continuous
 62
     7
370
     9
100
AcDbMText
 10
-26.65288844461008
 20
-99.654545
 30
0.0
 40
25.0
 41
293.4182016041797
 46
25.0
 71
     7
 72
     1
  1
{\fＭＳ ゴシック;\W0.714286;松本船舶電機製作所}
 73
     1
 44
1.0
  0
MTEXT
  5
E2
330
1F
100
AcDbEntity
  8
100
  6
Continuous
 62
     7
370
     9
100
AcDbMText
 10
-101.0038116472918
 20
269.6798442424242
 30
0.0
 40
25.0
 41
497.87154375991
 46
25.0
 71
     7
 72
     1
  1
{\fＭＳ ゴシック;\W0.714286;[電球色ＬＥＤランプ付　E17口金]}
 73
     1
 44
1.0
  0
MTEXT
  5
E3
330
1F
100
AcDbEntity
  8
100
  6
Continuous
 62
     7
370
     9
100
AcDbMText
 10
32.67786440337862
 20
346.0434806060605
 30
0.0
 40
25.0
 41
133.073527210704
 46
25.0
 71
     7
 72
     1
  1
{\fＭＳ ゴシック;\W0.714286;(R1-FR-B)}
 73
     1
 44
1.0
  0
MTEXT
  5
E4
330
1F
100
AcDbEntity
  8
100
  6
Continuous
 62
     7
370
     9
100
AcDbMText
 10
-49.73894439443565
 20
306.8010563636363
 30
0.0
 40
25.0
 41
349.7262537009816
 46
25.0
 71
     7
 72
     1
  1
{\fＭＳ ゴシック;\W0.714286;Ｒ１号フランジブラック}
 73
     1
 44
1.0
  0
LINE
  5
E5
330
1F
100
AcDbEntity
  8
101
  6
Continuous
 62
     7
370
    30
100
AcDbLine
 10
160.5394843484973
 20
66.62854341360156
 30
0.0
 11
160.6561833484973
 21
69.62448141360159
 31
0.0
  0
LINE
  5
E6
330
1F
100
AcDbEntity
  8
101
  6
Continuous
 62
     7
370
    30
100
AcDbLine
 10
160.6008473484972
 20
63.31490641360159
 30
0.0
 11
160.5394843484973
 21
66.62854341360156
 31
0.0
  0
LINE
  5
E7
330
1F
100
AcDbEntity
  8
101
  6
Continuous
 62
     7
370
    30
100
AcDbLine
 10
160.2633473484973
 20
57.33195241360158
 30
0.0
 11
160.6008473484972
 21
63.31490641360159
 31
0.0
  0
LINE
  5
E8
330
1F
100
AcDbEntity
  8
101
  6
Continuous
 62
     7
370
    30
100
AcDbLine
 10
158.5451663484972
 20
49.96831641360157
 30
0.0
 11
160.2633473484973
 21
57.33195241360158
 31
0.0
  0
LINE
  5
E9
330
1F
100
AcDbEntity
  8
101
  6
Continuous
 62
     7
370
    30
100
AcDbLine
 10
156.0906203484973
 20
43.34104341360157
 30
0.0
 11
158.5451663484972
 21
49.96831641360157
 31
0.0
  0
LINE
  5
EA
330
1F
100
AcDbEntity
  8
101
  6
Continuous
 62
     7
370
    30
100
AcDbLine
 10
150.3224383484972
 20
34.13649741360157
 30
0.0
 11
156.0906203484973
 21
43.34104341360157
 31
0.0
  0
LINE
  5
EB
330
1F
100
AcDbEntity
  8
101
  6
Continuous
 62
     7
370
    30
100
AcDbLine
 10
142.5906203484973
 20
25.54558841360156
 30
0.0
 11
150.3224383484972
 21
34.13649741360157
 31
0.0
  0
LINE
  5
EC
330
1F
100
AcDbEntity
  8
101
  6
Continuous
 62
     7
370
    30
100
AcDbLine
 10
134.6133473484973
 20
20.26831641360158
 30
0.0
 11
142.5906203484973
 21
25.54558841360156
 31
0.0
  0
LINE
  5
ED
330
1F
100
AcDbEntity
  8
101
  6
Continuous
 62
     7
370
    30
100
AcDbLine
 10
127.3724383484973
 20
15.97286141360158
 30
0.0
 11
134.6133473484973
 21
20.26831641360158
 31
0.0
  0
LINE
  5
EE
330
1F
100
AcDbEntity
  8
101
  6
Continuous
 62
     7
370
    30
100
AcDbLine
 10
120.9906203484972
 20
13.27286141360156
 30
0.0
 11
127.3724383484973
 21
15.97286141360158
 31
0.0
  0
LINE
  5
EF
330
1F
100
AcDbEntity
  8
101
  6
Continuous
 62
     7
370
    30
100
AcDbLine
 10
114.7315293484972
 20
12.16831641360156
 30
0.0
 11
120.9906203484972
 21
13.27286141360156
 31
0.0
  0
LINE
  5
F0
330
1F
100
AcDbEntity
  8
101
  6
Continuous
 62
     7
370
    30
100
AcDbLine
 10
107.6133473484973
 20
11.55467941360158
 30
0.0
 11
114.7315293484972
 21
12.16831641360156
 31
0.0
  0
LINE
  5
F1
330
1F
100
AcDbEntity
  8
101
  6
Continuous
 62
     7
370
    30
100
AcDbLine
 10
105.5369293484973
 20
11.77283741360156
 30
0.0
 11
107.6133473484973
 21
11.55467941360158
 31
0.0
  0
LINE
  5
F2
330
1F
100
AcDbEntity
  8
101
  6
Continuous
 62
     7
370
    30
100
AcDbLine
 10
99.3292573484973
 20
12.44445241360157
 30
0.0
 11
100.6285623484973
 21
12.22041941360158
 31
0.0
  0
LINE
  5
F3
330
1F
100
AcDbEntity
  8
101
  6
Continuous
 62
     7
370
    30
100
AcDbLine
 10
95.37130234849721
 20
13.73308841360156
 30
0.0
 11
99.3292573484973
 21
12.44445241360157
 31
0.0
  0
LINE
  5
F4
330
1F
100
AcDbEntity
  8
101
  6
Continuous
 62
     7
370
    30
100
AcDbLine
 10
89.97130234849723
 20
15.81945241360157
 30
0.0
 11
95.37130234849721
 21
13.73308841360156
 31
0.0
  0
LINE
  5
F5
330
1F
100
AcDbEntity
  8
101
  6
Continuous
 62
     7
370
    30
100
AcDbLine
 10
81.74857534849727
 20
19.50127041360156
 30
0.0
 11
89.97130234849723
 21
15.81945241360157
 31
0.0
  0
LINE
  5
F6
330
1F
100
AcDbEntity
  8
101
  6
Continuous
 62
     7
370
    30
100
AcDbLine
 10
76.96221134849722
 20
22.20127041360158
 30
0.0
 11
81.74857534849727
 21
19.50127041360156
 31
0.0
  0
LINE
  5
F7
330
1F
100
AcDbEntity
  8
101
  6
Continuous
 62
     7
370
    30
100
AcDbLine
 10
72.17584734849729
 20
25.88308841360157
 30
0.0
 11
76.96221134849722
 21
22.20127041360158
 31
0.0
  0
LINE
  5
F8
330
1F
100
AcDbEntity
  8
101
  6
Continuous
 62
     7
370
    30
100
AcDbLine
 10
65.18039334849729
 20
32.63308841360157
 30
0.0
 11
72.17584734849729
 21
25.88308841360157
 31
0.0
  0
LINE
  5
F9
330
1F
100
AcDbEntity
  8
101
  6
Continuous
 62
     7
370
    30
100
AcDbLine
 10
61.37584734849722
 20
38.03308841360158
 30
0.0
 11
65.18039334849729
 21
32.63308841360157
 31
0.0
  0
LINE
  5
FA
330
1F
100
AcDbEntity
  8
101
  6
Continuous
 62
     7
370
    30
100
AcDbLine
 10
57.93948434849731
 20
44.66036141360158
 30
0.0
 11
61.37584734849722
 21
38.03308841360158
 31
0.0
  0
LINE
  5
FB
330
1F
100
AcDbEntity
  8
101
  6
Continuous
 62
     7
370
    30
100
AcDbLine
 10
55.23948434849726
 20
51.65581641360157
 30
0.0
 11
57.93948434849731
 21
44.66036141360158
 31
0.0
  0
LINE
  5
FC
330
1F
100
AcDbEntity
  8
101
  6
Continuous
 62
     7
370
    30
100
AcDbLine
 10
54.50312034849728
 20
56.81036141360158
 30
0.0
 11
55.23948434849726
 21
51.65581641360157
 31
0.0
  0
LINE
  5
FD
330
1F
100
AcDbEntity
  8
101
  6
Continuous
 62
     7
370
    30
100
AcDbLine
 10
54.13493834849724
 20
61.59672541360158
 30
0.0
 11
54.50312034849728
 21
56.81036141360158
 31
0.0
  0
LINE
  5
FE
330
1F
100
AcDbEntity
  8
101
  6
Continuous
 62
     7
370
    30
100
AcDbLine
 10
53.73607534849723
 20
68.19331641360156
 30
0.0
 11
54.13493834849724
 21
61.59672541360158
 31
0.0
  0
LINE
  5
FF
330
1F
100
AcDbEntity
  8
101
  6
Continuous
 62
     7
370
    30
100
AcDbLine
 10
96.6599383484972
 20
63.49899741360156
 30
0.0
 11
96.59857534849729
 21
69.88081641360156
 31
0.0
  0
LINE
  5
100
330
1F
100
AcDbEntity
  8
101
  6
Continuous
 62
     7
370
    30
100
AcDbLine
 10
96.90539334849731
 20
53.92627041360157
 30
0.0
 11
96.6599383484972
 21
63.49899741360156
 31
0.0
  0
LINE
  5
101
330
1F
100
AcDbEntity
  8
101
  6
Continuous
 62
     7
370
    30
100
AcDbLine
 10
97.45766634849721
 20
42.69672541360157
 30
0.0
 11
96.90539334849731
 21
53.92627041360157
 31
0.0
  0
LINE
  5
102
330
1F
100
AcDbEntity
  8
101
  6
Continuous
 62
     7
370
    30
100
AcDbLine
 10
98.25539334849722
 20
32.08081641360158
 30
0.0
 11
97.45766634849721
 21
42.69672541360157
 31
0.0
  0
LINE
  5
103
330
1F
100
AcDbEntity
  8
101
  6
Continuous
 62
     7
370
    30
100
AcDbLine
 10
99.11448434849726
 20
22.93763441360159
 30
0.0
 11
98.25539334849722
 21
32.08081641360158
 31
0.0
  0
LINE
  5
104
330
1F
100
AcDbEntity
  8
101
  6
Continuous
 62
     7
370
    30
100
AcDbLine
 10
100.4644843484973
 20
13.24217941360158
 30
0.0
 11
99.11448434849726
 21
22.93763441360159
 31
0.0
  0
LINE
  5
105
330
1F
100
AcDbEntity
  8
101
  6
Continuous
 62
     7
370
    30
100
AcDbLine
 10
101.8144843484973
 20
4.835361413601561
 30
0.0
 11
100.4644843484973
 21
13.24217941360158
 31
0.0
  0
LINE
  5
106
330
1F
100
AcDbEntity
  8
101
  6
Continuous
 62
     7
370
    30
100
AcDbLine
 10
103.4713023484972
 20
-2.927138586398428
 30
0.0
 11
101.8144843484973
 21
4.835361413601561
 31
0.0
  0
LINE
  5
107
330
1F
100
AcDbEntity
  8
101
  6
Continuous
 62
     7
370
    30
100
AcDbLine
 10
104.9440293484973
 20
-7.682820586398435
 30
0.0
 11
103.4713023484972
 21
-2.927138586398428
 31
0.0
  0
LINE
  5
108
330
1F
100
AcDbEntity
  8
101
  6
Continuous
 62
     7
370
    30
100
AcDbLine
 10
105.7417573484973
 20
-9.769183586398412
 30
0.0
 11
104.9440293484973
 21
-7.682820586398435
 31
0.0
  0
LINE
  5
109
330
1F
100
AcDbEntity
  8
101
  6
Continuous
 62
     7
370
    30
100
AcDbLine
 10
108.0735753484972
 20
-10.75100258639844
 30
0.0
 11
105.7417573484973
 21
-9.769183586398412
 31
0.0
  0
LINE
  5
10A
330
1F
100
AcDbEntity
  8
101
  6
Continuous
 62
     7
370
    30
100
AcDbLine
 10
109.2394843484973
 20
-10.38282058639842
 30
0.0
 11
108.0735753484972
 21
-10.75100258639844
 31
0.0
  0
LINE
  5
10B
330
1F
100
AcDbEntity
  8
101
  6
Continuous
 62
     7
370
    30
100
AcDbLine
 10
110.6508473484972
 20
-9.03282058639843
 30
0.0
 11
109.2394843484973
 21
-10.38282058639842
 31
0.0
  0
LINE
  5
10C
330
1F
100
AcDbEntity
  8
101
  6
Continuous
 62
     7
370
    30
100
AcDbLine
 10
111.6326663484973
 20
-8.112365586398425
 30
0.0
 11
110.6508473484972
 21
-9.03282058639843
 31
0.0
  0
LINE
  5
10D
330
1F
100
AcDbEntity
  8
101
  6
Continuous
 62
     7
370
    30
100
AcDbLine
 10
112.9213023484973
 20
-6.148729586398417
 30
0.0
 11
111.6326663484973
 21
-8.112365586398425
 31
0.0
  0
LINE
  5
10E
330
1F
100
AcDbEntity
  8
101
  6
Continuous
 62
     7
370
    30
100
AcDbLine
 10
114.1485753484972
 20
-1.607820586398418
 30
0.0
 11
112.9213023484973
 21
-6.148729586398417
 31
0.0
  0
LINE
  5
10F
330
1F
100
AcDbEntity
  8
101
  6
Continuous
 62
     7
370
    30
100
AcDbLine
 10
114.9463023484973
 20
1.705816413601582
 30
0.0
 11
114.1485753484972
 21
-1.607820586398418
 31
0.0
  0
LINE
  5
110
330
1F
100
AcDbEntity
  8
101
  6
Continuous
 62
     7
370
    30
100
AcDbLine
 10
115.9894843484973
 20
7.780816413601571
 30
0.0
 11
114.9463023484973
 21
1.705816413601582
 31
0.0
  0
LINE
  5
111
330
1F
100
AcDbEntity
  8
101
  6
Continuous
 62
     7
370
    30
100
AcDbLine
 10
116.5417573484973
 20
12.62854341360156
 30
0.0
 11
115.9894843484973
 21
7.780816413601571
 31
0.0
  0
LINE
  5
112
330
1F
100
AcDbEntity
  8
101
  6
Continuous
 62
     7
370
    30
100
AcDbLine
 10
111.4485753484972
 20
9.867179413601576
 30
0.0
 11
111.5099383484972
 21
12.13763441360157
 31
0.0
  0
LINE
  5
113
330
1F
100
AcDbEntity
  8
101
  6
Continuous
 62
     7
370
    30
100
AcDbLine
 10
111.0190293484972
 20
6.185361413601584
 30
0.0
 11
111.4485753484972
 21
9.867179413601576
 31
0.0
  0
LINE
  5
114
330
1F
100
AcDbEntity
  8
101
  6
Continuous
 62
     7
370
    30
100
AcDbLine
 10
110.3440293484973
 20
1.705816413601582
 30
0.0
 11
111.0190293484972
 21
6.185361413601584
 31
0.0
  0
LINE
  5
115
330
1F
100
AcDbEntity
  8
101
  6
Continuous
 62
     7
370
    30
100
AcDbLine
 10
109.4235753484972
 20
-3.632820586398424
 30
0.0
 11
110.3440293484973
 21
1.705816413601582
 31
0.0
  0
LINE
  5
116
330
1F
100
AcDbEntity
  8
101
  6
Continuous
 62
     7
370
    30
100
AcDbLine
 10
108.6872113484972
 20
-3.448729586398429
 30
0.0
 11
109.4235753484972
 21
-3.632820586398424
 31
0.0
  0
LINE
  5
117
330
1F
100
AcDbEntity
  8
101
  6
Continuous
 62
     7
370
    30
100
AcDbLine
 10
107.9508473484973
 20
-1.362365586398425
 30
0.0
 11
108.6872113484972
 21
-3.448729586398429
 31
0.0
  0
LINE
  5
118
330
1F
100
AcDbEntity
  8
101
  6
Continuous
 62
     7
370
    30
100
AcDbLine
 10
106.6622113484973
 20
4.09899741360158
 30
0.0
 11
107.9508473484973
 21
-1.362365586398425
 31
0.0
  0
LINE
  5
119
330
1F
100
AcDbEntity
  8
101
  6
Continuous
 62
     7
370
    30
100
AcDbLine
 10
105.6803933484973
 20
10.05127041360157
 30
0.0
 11
106.6622113484973
 21
4.09899741360158
 31
0.0
  0
LINE
  5
11A
330
1F
100
AcDbEntity
  8
101
  6
Continuous
 62
     7
370
    30
100
AcDbLine
 10
105.1894843484973
 20
15.94217941360156
 30
0.0
 11
105.6803933484973
 21
10.05127041360157
 31
0.0
  0
LINE
  5
11B
330
1F
100
AcDbEntity
  8
101
  6
Continuous
 62
     7
370
    30
100
AcDbLine
 10
104.2690293484972
 20
20.60581641360159
 30
0.0
 11
105.1894843484973
 21
15.94217941360156
 31
0.0
  0
LINE
  5
11C
330
1F
100
AcDbEntity
  8
101
  6
Continuous
 62
     7
370
    30
100
AcDbLine
 10
103.7781203484973
 20
27.23308841360156
 30
0.0
 11
104.2690293484972
 21
20.60581641360159
 31
0.0
  0
LINE
  5
11D
330
1F
100
AcDbEntity
  8
101
  6
Continuous
 62
     7
370
    30
100
AcDbLine
 10
103.5940293484973
 20
35.33308841360156
 30
0.0
 11
103.7781203484973
 21
27.23308841360156
 31
0.0
  0
LINE
  5
11E
330
1F
100
AcDbEntity
  8
101
  6
Continuous
 62
     7
370
    30
100
AcDbLine
 10
103.3485753484973
 20
41.28536141360158
 30
0.0
 11
103.5940293484973
 21
35.33308841360156
 31
0.0
  0
LINE
  5
11F
330
1F
100
AcDbEntity
  8
101
  6
Continuous
 62
     7
370
    30
100
AcDbLine
 10
102.9190293484972
 20
46.68536141360158
 30
0.0
 11
103.3485753484973
 21
41.28536141360158
 31
0.0
  0
LINE
  5
120
330
1F
100
AcDbEntity
  8
101
  6
Continuous
 62
     7
370
    30
100
AcDbLine
 10
102.6122113484972
 20
52.14672541360159
 30
0.0
 11
102.9190293484972
 21
46.68536141360158
 31
0.0
  0
LINE
  5
121
330
1F
100
AcDbEntity
  8
101
  6
Continuous
 62
     7
370
    30
100
AcDbLine
 10
102.3667573484973
 20
58.22172541360158
 30
0.0
 11
102.6122113484972
 21
52.14672541360159
 31
0.0
  0
LINE
  5
122
330
1F
100
AcDbEntity
  8
101
  6
Continuous
 62
     7
370
    30
100
AcDbLine
 10
102.3667573484973
 20
63.56036141360158
 30
0.0
 11
102.3667573484973
 21
58.22172541360158
 31
0.0
  0
LINE
  5
123
330
1F
100
AcDbEntity
  8
101
  6
Continuous
 62
     7
370
    30
100
AcDbLine
 10
102.3360753484972
 20
72.58081641360155
 30
0.0
 11
102.3667573484973
 21
63.56036141360158
 31
0.0
  0
LINE
  5
124
330
1F
100
AcDbEntity
  8
101
  6
Continuous
 62
     7
370
    30
100
AcDbLine
 10
102.2440293484973
 20
73.80808841360158
 30
0.0
 11
102.3360753484972
 21
72.58081641360155
 31
0.0
  0
LINE
  5
125
330
1F
100
AcDbEntity
  8
101
  6
Continuous
 62
     7
370
    30
100
AcDbLine
 10
60.5167573484973
 20
70.49445241360158
 30
0.0
 11
55.91448434849722
 21
69.32854341360155
 31
0.0
  0
LINE
  5
126
330
1F
100
AcDbEntity
  8
101
  6
Continuous
 62
     7
370
    30
100
AcDbLine
 10
66.46902934849729
 20
71.59899741360158
 30
0.0
 11
60.5167573484973
 21
70.49445241360158
 31
0.0
  0
LINE
  5
127
330
1F
100
AcDbEntity
  8
101
  6
Continuous
 62
     7
370
    30
100
AcDbLine
 10
71.86902934849726
 20
72.27399741360159
 30
0.0
 11
66.46902934849729
 21
71.59899741360158
 31
0.0
  0
LINE
  5
128
330
1F
100
AcDbEntity
  8
101
  6
Continuous
 62
     7
370
    30
100
AcDbLine
 10
78.06675734849725
 20
72.82627041360158
 30
0.0
 11
71.86902934849726
 21
72.27399741360159
 31
0.0
  0
LINE
  5
129
330
1F
100
AcDbEntity
  8
101
  6
Continuous
 62
     7
370
    30
100
AcDbLine
 10
86.96448434849728
 20
73.37854341360156
 30
0.0
 11
78.06675734849725
 21
72.82627041360158
 31
0.0
  0
LINE
  5
12A
330
1F
100
AcDbEntity
  8
101
  6
Continuous
 62
     7
370
    30
100
AcDbLine
 10
96.41448434849721
 20
73.74672541360155
 30
0.0
 11
86.96448434849728
 21
73.37854341360156
 31
0.0
  0
LINE
  5
12B
330
1F
100
AcDbEntity
  8
101
  6
Continuous
 62
     7
370
    30
100
AcDbLine
 10
125.2553933484972
 20
73.68536141360158
 30
0.0
 11
115.9894843484973
 21
73.74672541360155
 31
0.0
  0
LINE
  5
12C
330
1F
100
AcDbEntity
  8
101
  6
Continuous
 62
     7
370
    30
100
AcDbLine
 10
149.6781203484972
 20
72.02854341360157
 30
0.0
 11
136.6076663484972
 21
73.19445241360157
 31
0.0
  0
LINE
  5
12D
330
1F
100
AcDbEntity
  8
101
  6
Continuous
 62
     7
370
    30
100
AcDbLine
 10
156.1826663484972
 20
70.92399741360157
 30
0.0
 11
149.6781203484972
 21
72.02854341360157
 31
0.0
  0
LINE
  5
12E
330
1F
100
AcDbEntity
  8
101
  6
Continuous
 62
     7
370
    30
100
AcDbLine
 10
160.0485753484972
 20
69.88081641360156
 30
0.0
 11
156.1826663484972
 21
70.92399741360157
 31
0.0
  0
LINE
  5
12F
330
1F
100
AcDbEntity
  8
101
  6
Continuous
 62
     7
370
    30
100
AcDbLine
 10
164.4053933484973
 20
61.28990641360156
 30
0.0
 11
167.6283403484973
 21
62.14190041360158
 31
0.0
  0
LINE
  5
130
330
1F
100
AcDbEntity
  8
101
  6
Continuous
 62
     7
370
    30
100
AcDbLine
 10
160.5394843484973
 20
60.79899741360157
 30
0.0
 11
164.4053933484973
 21
61.28990641360156
 31
0.0
  0
LINE
  5
131
330
1F
100
AcDbEntity
  8
101
  6
Continuous
 62
     7
370
    30
100
AcDbLine
 10
174.4076663484973
 20
66.26036141360157
 30
0.0
 11
172.1065293484972
 21
64.45013441360157
 31
0.0
  0
LINE
  5
132
330
1F
100
AcDbEntity
  8
101
  6
Continuous
 62
     7
370
    30
100
AcDbLine
 10
175.5122113484973
 20
67.42627041360157
 30
0.0
 11
174.4076663484973
 21
66.26036141360157
 31
0.0
  0
LINE
  5
133
330
1F
100
AcDbEntity
  8
101
  6
Continuous
 62
     7
370
    30
100
AcDbLine
 10
175.4508473484973
 20
69.32854341360155
 30
0.0
 11
175.5122113484973
 21
67.42627041360157
 31
0.0
  0
LINE
  5
134
330
1F
100
AcDbEntity
  8
101
  6
Continuous
 62
     7
370
    30
100
AcDbLine
 10
174.5303933484973
 20
70.73990641360157
 30
0.0
 11
175.4508473484973
 21
69.32854341360155
 31
0.0
  0
LINE
  5
135
330
1F
100
AcDbEntity
  8
101
  6
Continuous
 62
     7
370
    30
100
AcDbLine
 10
172.5667573484972
 20
72.15127041360157
 30
0.0
 11
174.5303933484973
 21
70.73990641360157
 31
0.0
  0
LINE
  5
136
330
1F
100
AcDbEntity
  8
101
  6
Continuous
 62
     7
370
    30
100
AcDbLine
 10
170.1735753484972
 20
73.25581641360156
 30
0.0
 11
172.5667573484972
 21
72.15127041360157
 31
0.0
  0
LINE
  5
137
330
1F
100
AcDbEntity
  8
101
  6
Continuous
 62
     7
370
    30
100
AcDbLine
 10
167.5963023484972
 20
73.96149741360159
 30
0.0
 11
170.1735753484972
 21
73.25581641360156
 31
0.0
  0
LINE
  5
138
330
1F
100
AcDbEntity
  8
101
  6
Continuous
 62
     7
370
    30
100
AcDbLine
 10
162.1349383484972
 20
75.28081641360157
 30
0.0
 11
167.5963023484972
 21
73.96149741360159
 31
0.0
  0
LINE
  5
139
330
1F
100
AcDbEntity
  8
101
  6
Continuous
 62
     7
370
    30
100
AcDbLine
 10
156.5508473484973
 20
75.83308841360156
 30
0.0
 11
162.1349383484972
 21
75.28081641360157
 31
0.0
  0
LINE
  5
13A
330
1F
100
AcDbEntity
  8
101
  6
Continuous
 62
     7
370
    30
100
AcDbLine
 10
146.6099383484973
 20
76.99899741360156
 30
0.0
 11
156.5508473484973
 21
75.83308841360156
 31
0.0
  0
LINE
  5
13B
330
1F
100
AcDbEntity
  8
101
  6
Continuous
 62
     7
370
    30
100
AcDbLine
 10
135.2576663484973
 20
77.79672541360156
 30
0.0
 11
146.6099383484973
 21
76.99899741360156
 31
0.0
  0
LINE
  5
13C
330
1F
100
AcDbEntity
  8
101
  6
Continuous
 62
     7
370
    30
100
AcDbLine
 10
64.22925734849727
 20
75.98649741360157
 30
0.0
 11
68.92357534849722
 21
76.44672541360157
 31
0.0
  0
LINE
  5
13D
330
1F
100
AcDbEntity
  8
101
  6
Continuous
 62
     7
370
    30
100
AcDbLine
 10
59.0747113484973
 20
75.21945241360157
 30
0.0
 11
64.22925734849727
 21
75.98649741360157
 31
0.0
  0
LINE
  5
13E
330
1F
100
AcDbEntity
  8
101
  6
Continuous
 62
     7
370
    30
100
AcDbLine
 10
55.57698434849724
 20
74.66717941360156
 30
0.0
 11
59.0747113484973
 21
75.21945241360157
 31
0.0
  0
LINE
  5
13F
330
1F
100
AcDbEntity
  8
101
  6
Continuous
 62
     7
370
    30
100
AcDbLine
 10
53.52130234849731
 20
74.36036141360157
 30
0.0
 11
55.57698434849724
 21
74.66717941360156
 31
0.0
  0
LINE
  5
140
330
1F
100
AcDbEntity
  8
101
  6
Continuous
 62
     7
370
    30
100
AcDbLine
 10
50.69857534849721
 20
73.77740641360157
 30
0.0
 11
53.52130234849731
 21
74.36036141360157
 31
0.0
  0
LINE
  5
141
330
1F
100
AcDbEntity
  8
101
  6
Continuous
 62
     7
370
    30
100
AcDbLine
 10
46.40312034849726
 20
72.30467941360158
 30
0.0
 11
50.69857534849721
 21
73.77740641360157
 31
0.0
  0
LINE
  5
142
330
1F
100
AcDbEntity
  8
101
  6
Continuous
 62
     7
370
    30
100
AcDbLine
 10
45.88152934849732
 20
71.93649741360156
 30
0.0
 11
46.40312034849726
 21
72.30467941360158
 31
0.0
  0
LINE
  5
143
330
1F
100
AcDbEntity
  8
101
  6
Continuous
 62
     7
370
    30
100
AcDbLine
 10
43.42698434849726
 20
70.64786141360156
 30
0.0
 11
45.88152934849732
 21
71.93649741360156
 31
0.0
  0
LINE
  5
144
330
1F
100
AcDbEntity
  8
101
  6
Continuous
 62
     7
370
    30
100
AcDbLine
 10
41.34062034849726
 20
69.11377041360157
 30
0.0
 11
43.42698434849726
 21
70.64786141360156
 31
0.0
  0
LINE
  5
145
330
1F
100
AcDbEntity
  8
101
  6
Continuous
 62
     7
370
    30
100
AcDbLine
 10
41.27925734849723
 20
67.15013441360156
 30
0.0
 11
41.34062034849726
 21
69.11377041360157
 31
0.0
  0
LINE
  5
146
330
1F
100
AcDbEntity
  8
101
  6
Continuous
 62
     7
370
    30
100
AcDbLine
 10
41.83152934849725
 20
66.16831641360159
 30
0.0
 11
41.27925734849723
 21
67.15013441360156
 31
0.0
  0
LINE
  5
147
330
1F
100
AcDbEntity
  8
101
  6
Continuous
 62
     7
370
    30
100
AcDbLine
 10
43.73380234849729
 20
64.57286141360157
 30
0.0
 11
41.83152934849725
 21
66.16831641360159
 31
0.0
  0
LINE
  5
148
330
1F
100
AcDbEntity
  8
101
  6
Continuous
 62
     7
370
    30
100
AcDbLine
 10
45.69743834849724
 20
63.40695241360157
 30
0.0
 11
43.73380234849729
 21
64.57286141360157
 31
0.0
  0
LINE
  5
149
330
1F
100
AcDbEntity
  8
101
  6
Continuous
 62
     7
370
    30
100
AcDbLine
 10
51.01372134849723
 20
60.40737741360158
 30
0.0
 11
54.10425734849728
 21
59.05013441360157
 31
0.0
  0
LINE
  5
14A
330
1F
100
AcDbEntity
  8
101
  6
Continuous
 62
     7
370
    30
100
AcDbLine
 10
50.42243834849726
 20
53.95695241360158
 30
0.0
 11
50.42243834849726
 21
59.05013441360157
 31
0.0
  0
LINE
  5
14B
330
1F
100
AcDbEntity
  8
101
  6
Continuous
 62
     7
370
    30
100
AcDbLine
 10
50.97471134849727
 20
47.45240641360158
 30
0.0
 11
50.42243834849726
 21
53.95695241360158
 31
0.0
  0
LINE
  5
14C
330
1F
100
AcDbEntity
  8
101
  6
Continuous
 62
     7
370
    30
100
AcDbLine
 10
52.0792573484973
 20
40.57967941360158
 30
0.0
 11
50.97471134849727
 21
47.45240641360158
 31
0.0
  0
LINE
  5
14D
330
1F
100
AcDbEntity
  8
101
  6
Continuous
 62
     7
370
    30
100
AcDbLine
 10
54.4110753484973
 20
32.11149741360157
 30
0.0
 11
52.0792573484973
 21
40.57967941360158
 31
0.0
  0
LINE
  5
14E
330
1F
100
AcDbEntity
  8
101
  6
Continuous
 62
     7
370
    30
100
AcDbLine
 10
57.84743834849721
 20
24.13422541360157
 30
0.0
 11
54.4110753484973
 21
32.11149741360157
 31
0.0
  0
LINE
  5
14F
330
1F
100
AcDbEntity
  8
101
  6
Continuous
 62
     7
370
    30
100
AcDbLine
 10
61.77471134849723
 20
17.62967941360156
 30
0.0
 11
57.84743834849721
 21
24.13422541360157
 31
0.0
  0
LINE
  5
150
330
1F
100
AcDbEntity
  8
101
  6
Continuous
 62
     7
370
    30
100
AcDbLine
 10
66.19289334849722
 20
12.10695241360156
 30
0.0
 11
61.77471134849723
 21
17.62967941360156
 31
0.0
  0
LINE
  5
151
330
1F
100
AcDbEntity
  8
101
  6
Continuous
 62
     7
370
    30
100
AcDbLine
 10
71.40880234849723
 20
6.706952413601584
 30
0.0
 11
66.19289334849722
 21
12.10695241360156
 31
0.0
  0
LINE
  5
152
330
1F
100
AcDbEntity
  8
101
  6
Continuous
 62
     7
370
    30
100
AcDbLine
 10
76.44062034849728
 20
2.288770413601583
 30
0.0
 11
71.40880234849723
 21
6.706952413601584
 31
0.0
  0
LINE
  5
153
330
1F
100
AcDbEntity
  8
101
  6
Continuous
 62
     7
370
    30
100
AcDbLine
 10
82.63834734849726
 20
-1.638502586398431
 30
0.0
 11
76.44062034849728
 21
2.288770413601583
 31
0.0
  0
LINE
  5
154
330
1F
100
AcDbEntity
  8
101
  6
Continuous
 62
     7
370
    30
100
AcDbLine
 10
90.30880234849721
 20
-5.013502586398431
 30
0.0
 11
82.63834734849726
 21
-1.638502586398431
 31
0.0
  0
LINE
  5
155
330
1F
100
AcDbEntity
  8
101
  6
Continuous
 62
     7
370
    30
100
AcDbLine
 10
96.19971134849729
 20
-6.977138586398439
 30
0.0
 11
90.30880234849721
 21
-5.013502586398431
 31
0.0
  0
LINE
  5
156
330
1F
100
AcDbEntity
  8
101
  6
Continuous
 62
     7
370
    30
100
AcDbLine
 10
101.5997113484973
 20
-7.989638586398428
 30
0.0
 11
96.19971134849729
 21
-6.977138586398439
 31
0.0
  0
LINE
  5
157
330
1F
100
AcDbEntity
  8
101
  6
Continuous
 62
     7
370
    30
100
AcDbLine
 10
104.5144843484972
 20
-8.204411586398408
 30
0.0
 11
101.5997113484973
 21
-7.989638586398428
 31
0.0
  0
LINE
  5
158
330
1F
100
AcDbEntity
  8
101
  6
Continuous
 62
     7
370
    30
100
AcDbLine
 10
113.1053933484972
 20
-7.989638586398428
 30
0.0
 11
111.6326663484973
 21
-8.112365586398425
 31
0.0
  0
LINE
  5
159
330
1F
100
AcDbEntity
  8
101
  6
Continuous
 62
     7
370
    30
100
AcDbLine
 10
116.2963023484973
 20
-7.744183586398435
 30
0.0
 11
113.1053933484972
 21
-7.989638586398428
 31
0.0
  0
LINE
  5
15A
330
1F
100
AcDbEntity
  8
101
  6
Continuous
 62
     7
370
    30
100
AcDbLine
 10
120.1008473484972
 20
-6.823729586398429
 30
0.0
 11
116.2963023484973
 21
-7.744183586398435
 31
0.0
  0
LINE
  5
15B
330
1F
100
AcDbEntity
  8
101
  6
Continuous
 62
     7
370
    30
100
AcDbLine
 10
123.7213023484972
 20
-5.780547586398427
 30
0.0
 11
120.1008473484972
 21
-6.823729586398429
 31
0.0
  0
LINE
  5
15C
330
1F
100
AcDbEntity
  8
101
  6
Continuous
 62
     7
370
    30
100
AcDbLine
 10
127.7099383484973
 20
-4.369183586398435
 30
0.0
 11
123.7213023484972
 21
-5.780547586398427
 31
0.0
  0
LINE
  5
15D
330
1F
100
AcDbEntity
  8
101
  6
Continuous
 62
     7
370
    30
100
AcDbLine
 10
132.1894843484973
 20
-2.344183586398429
 30
0.0
 11
127.7099383484973
 21
-4.369183586398435
 31
0.0
  0
LINE
  5
15E
330
1F
100
AcDbEntity
  8
101
  6
Continuous
 62
     7
370
    30
100
AcDbLine
 10
136.2394843484973
 20
-0.1350935863984262
 30
0.0
 11
132.1894843484973
 21
-2.344183586398429
 31
0.0
  0
LINE
  5
15F
330
1F
100
AcDbEntity
  8
101
  6
Continuous
 62
     7
370
    30
100
AcDbLine
 10
139.6758473484973
 20
2.135361413601572
 30
0.0
 11
136.2394843484973
 21
-0.1350935863984262
 31
0.0
  0
LINE
  5
160
330
1F
100
AcDbEntity
  8
101
  6
Continuous
 62
     7
370
    30
100
AcDbLine
 10
143.6644843484972
 20
5.080816413601582
 30
0.0
 11
139.6758473484973
 21
2.135361413601572
 31
0.0
  0
LINE
  5
161
330
1F
100
AcDbEntity
  8
101
  6
Continuous
 62
     7
370
    30
100
AcDbLine
 10
146.7940293484972
 20
7.719452413601573
 30
0.0
 11
143.6644843484972
 21
5.080816413601582
 31
0.0
  0
LINE
  5
162
330
1F
100
AcDbEntity
  8
101
  6
Continuous
 62
     7
370
    30
100
AcDbLine
 10
149.9849383484973
 20
11.03308841360158
 30
0.0
 11
146.7940293484972
 21
7.719452413601573
 31
0.0
  0
LINE
  5
163
330
1F
100
AcDbEntity
  8
101
  6
Continuous
 62
     7
370
    30
100
AcDbLine
 10
152.4394843484973
 20
13.54899741360157
 30
0.0
 11
149.9849383484973
 21
11.03308841360158
 31
0.0
  0
LINE
  5
164
330
1F
100
AcDbEntity
  8
101
  6
Continuous
 62
     7
370
    30
100
AcDbLine
 10
155.5690293484973
 20
17.35354341360159
 30
0.0
 11
152.4394843484973
 21
13.54899741360157
 31
0.0
  0
LINE
  5
165
330
1F
100
AcDbEntity
  8
101
  6
Continuous
 62
     7
370
    30
100
AcDbLine
 10
157.9008473484972
 20
21.15808841360158
 30
0.0
 11
155.5690293484973
 21
17.35354341360159
 31
0.0
  0
LINE
  5
166
330
1F
100
AcDbEntity
  8
101
  6
Continuous
 62
     7
370
    30
100
AcDbLine
 10
160.1099383484973
 20
24.53308841360158
 30
0.0
 11
157.9008473484972
 21
21.15808841360158
 31
0.0
  0
LINE
  5
167
330
1F
100
AcDbEntity
  8
101
  6
Continuous
 62
     7
370
    30
100
AcDbLine
 10
162.3190293484973
 20
29.31945241360157
 30
0.0
 11
160.1099383484973
 21
24.53308841360158
 31
0.0
  0
LINE
  5
168
330
1F
100
AcDbEntity
  8
101
  6
Continuous
 62
     7
370
    30
100
AcDbLine
 10
164.8963023484972
 20
35.82399741360157
 30
0.0
 11
162.3190293484973
 21
29.31945241360157
 31
0.0
  0
LINE
  5
169
330
1F
100
AcDbEntity
  8
101
  6
Continuous
 62
     7
370
    30
100
AcDbLine
 10
166.2463023484973
 20
41.77627041360157
 30
0.0
 11
164.8963023484972
 21
35.82399741360157
 31
0.0
  0
LINE
  5
16A
330
1F
100
AcDbEntity
  8
101
  6
Continuous
 62
     7
370
    30
100
AcDbLine
 10
167.1667573484973
 20
46.50127041360156
 30
0.0
 11
166.2463023484973
 21
41.77627041360157
 31
0.0
  0
LINE
  5
16B
330
1F
100
AcDbEntity
  8
101
  6
Continuous
 62
     7
370
    30
100
AcDbLine
 10
167.6576663484973
 20
50.48990641360157
 30
0.0
 11
167.1667573484973
 21
46.50127041360156
 31
0.0
  0
LINE
  5
16C
330
1F
100
AcDbEntity
  8
101
  6
Continuous
 62
     7
370
    30
100
AcDbLine
 10
167.5963023484972
 20
53.86490641360157
 30
0.0
 11
167.6576663484973
 21
50.48990641360157
 31
0.0
  0
LINE
  5
16D
330
1F
100
AcDbEntity
  8
101
  6
Continuous
 62
     7
370
    30
100
AcDbLine
 10
167.7190293484973
 20
60.98308841360156
 30
0.0
 11
167.5963023484972
 21
53.86490641360157
 31
0.0
  0
LINE
  5
16E
330
1F
100
AcDbEntity
  8
101
  6
Continuous
 62
     7
370
    30
100
AcDbLine
 10
172.2906203484972
 20
52.54558841360156
 30
0.0
 11
172.1065293484972
 21
64.45013441360157
 31
0.0
  0
LINE
  5
16F
330
1F
100
AcDbEntity
  8
101
  6
Continuous
 62
     7
370
    30
100
AcDbLine
 10
171.6769843484973
 20
46.77740641360157
 30
0.0
 11
172.2906203484972
 21
52.54558841360156
 31
0.0
  0
LINE
  5
170
330
1F
100
AcDbEntity
  8
101
  6
Continuous
 62
     7
370
    30
100
AcDbLine
 10
170.3269843484972
 20
39.78195241360157
 30
0.0
 11
171.6769843484973
 21
46.77740641360157
 31
0.0
  0
LINE
  5
171
330
1F
100
AcDbEntity
  8
101
  6
Continuous
 62
     7
370
    30
100
AcDbLine
 10
167.9951663484972
 20
31.68195241360158
 30
0.0
 11
170.3269843484972
 21
39.78195241360157
 31
0.0
  0
LINE
  5
172
330
1F
100
AcDbEntity
  8
101
  6
Continuous
 62
     7
370
    30
100
AcDbLine
 10
165.5406203484972
 20
26.28195241360157
 30
0.0
 11
167.9951663484972
 21
31.68195241360158
 31
0.0
  0
LINE
  5
173
330
1F
100
AcDbEntity
  8
101
  6
Continuous
 62
     7
370
    30
100
AcDbLine
 10
162.2883473484972
 20
19.77740641360157
 30
0.0
 11
165.5406203484972
 21
26.28195241360157
 31
0.0
  0
LINE
  5
174
330
1F
100
AcDbEntity
  8
101
  6
Continuous
 62
     7
370
    30
100
AcDbLine
 10
157.3792573484972
 20
12.84331641360157
 30
0.0
 11
162.2883473484972
 21
19.77740641360157
 31
0.0
  0
LINE
  5
175
330
1F
100
AcDbEntity
  8
101
  6
Continuous
 62
     7
370
    30
100
AcDbLine
 10
153.4519843484972
 20
8.670588413601564
 30
0.0
 11
157.3792573484972
 21
12.84331641360157
 31
0.0
  0
LINE
  5
176
330
1F
100
AcDbEntity
  8
101
  6
Continuous
 62
     7
370
    30
100
AcDbLine
 10
149.3406203484973
 20
4.191043413601562
 30
0.0
 11
153.4519843484972
 21
8.670588413601564
 31
0.0
  0
LINE
  5
177
330
1F
100
AcDbEntity
  8
101
  6
Continuous
 62
     7
370
    30
100
AcDbLine
 10
144.9838023484973
 20
0.3251344136015746
 30
0.0
 11
149.3406203484973
 21
4.191043413601562
 31
0.0
  0
LINE
  5
178
330
1F
100
AcDbEntity
  8
101
  6
Continuous
 62
     7
370
    30
100
AcDbLine
 10
139.5838023484972
 20
-3.479411586398442
 30
0.0
 11
144.9838023484973
 21
0.3251344136015746
 31
0.0
  0
LINE
  5
179
330
1F
100
AcDbEntity
  8
101
  6
Continuous
 62
     7
370
    30
100
AcDbLine
 10
134.9201663484972
 20
-5.995320586398435
 30
0.0
 11
139.5838023484972
 21
-3.479411586398442
 31
0.0
  0
LINE
  5
17A
330
1F
100
AcDbEntity
  8
101
  6
Continuous
 62
     7
370
    30
100
AcDbLine
 10
128.1088023484973
 20
-9.002138586398416
 30
0.0
 11
134.9201663484972
 21
-5.995320586398435
 31
0.0
  0
LINE
  5
17B
330
1F
100
AcDbEntity
  8
101
  6
Continuous
 62
     7
370
    30
100
AcDbLine
 10
118.9042573484972
 20
-11.57941158639841
 30
0.0
 11
128.1088023484973
 21
-9.002138586398416
 31
0.0
  0
LINE
  5
17C
330
1F
100
AcDbEntity
  8
101
  6
Continuous
 62
     7
370
    30
100
AcDbLine
 10
114.4247113484972
 20
-12.19304758639842
 30
0.0
 11
118.9042573484972
 21
-11.57941158639841
 31
0.0
  0
LINE
  5
17D
330
1F
100
AcDbEntity
  8
101
  6
Continuous
 62
     7
370
    30
100
AcDbLine
 10
110.9883473484973
 20
-12.68395658639844
 30
0.0
 11
114.4247113484972
 21
-12.19304758639842
 31
0.0
  0
LINE
  5
17E
330
1F
100
AcDbEntity
  8
101
  6
Continuous
 62
     7
370
    30
100
AcDbLine
 10
107.4906203484972
 20
-12.68395658639844
 30
0.0
 11
110.9883473484973
 21
-12.68395658639844
 31
0.0
  0
LINE
  5
17F
330
1F
100
AcDbEntity
  8
101
  6
Continuous
 62
     7
370
    30
100
AcDbLine
 10
102.3974383484973
 20
-12.49986558639841
 30
0.0
 11
107.4906203484972
 21
-12.68395658639844
 31
0.0
  0
LINE
  5
180
330
1F
100
AcDbEntity
  8
101
  6
Continuous
 62
     7
370
    30
100
AcDbLine
 10
98.3474383484972
 20
-11.82486558639843
 30
0.0
 11
102.3974383484973
 21
-12.49986558639841
 31
0.0
  0
LINE
  5
181
330
1F
100
AcDbEntity
  8
101
  6
Continuous
 62
     7
370
    30
100
AcDbLine
 10
93.80652934849726
 20
-10.78168358639843
 30
0.0
 11
98.3474383484972
 21
-11.82486558639843
 31
0.0
  0
LINE
  5
182
330
1F
100
AcDbEntity
  8
101
  6
Continuous
 62
     7
370
    30
100
AcDbLine
 10
88.09971134849727
 20
-8.572593586398426
 30
0.0
 11
93.80652934849726
 21
-10.78168358639843
 31
0.0
  0
LINE
  5
183
330
1F
100
AcDbEntity
  8
101
  6
Continuous
 62
     7
370
    30
100
AcDbLine
 10
83.31334734849722
 20
-6.363502586398425
 30
0.0
 11
88.09971134849727
 21
-8.572593586398426
 31
0.0
  0
LINE
  5
184
330
1F
100
AcDbEntity
  8
101
  6
Continuous
 62
     7
370
    30
100
AcDbLine
 10
79.0792573484973
 20
-4.154411586398425
 30
0.0
 11
83.31334734849722
 21
-6.363502586398425
 31
0.0
  0
LINE
  5
185
330
1F
100
AcDbEntity
  8
101
  6
Continuous
 62
     7
370
    30
100
AcDbLine
 10
73.98607534849722
 20
-0.9635025863984197
 30
0.0
 11
79.0792573484973
 21
-4.154411586398425
 31
0.0
  0
LINE
  5
186
330
1F
100
AcDbEntity
  8
101
  6
Continuous
 62
     7
370
    30
100
AcDbLine
 10
69.87471134849724
 20
2.288770413601583
 30
0.0
 11
73.98607534849722
 21
-0.9635025863984197
 31
0.0
  0
LINE
  5
187
330
1F
100
AcDbEntity
  8
101
  6
Continuous
 62
     7
370
    30
100
AcDbLine
 10
64.72016634849726
 20
7.68877041360156
 30
0.0
 11
69.87471134849724
 21
2.288770413601583
 31
0.0
  0
LINE
  5
188
330
1F
100
AcDbEntity
  8
101
  6
Continuous
 62
     7
370
    30
100
AcDbLine
 10
60.05652934849727
 20
12.96604341360157
 30
0.0
 11
64.72016634849726
 21
7.68877041360156
 31
0.0
  0
LINE
  5
189
330
1F
100
AcDbEntity
  8
101
  6
Continuous
 62
     7
370
    30
100
AcDbLine
 10
54.77925734849723
 20
21.06604341360156
 30
0.0
 11
60.05652934849727
 21
12.96604341360157
 31
0.0
  0
LINE
  5
18A
330
1F
100
AcDbEntity
  8
101
  6
Continuous
 62
     7
370
    30
100
AcDbLine
 10
50.85198434849722
 20
29.65695241360157
 30
0.0
 11
54.77925734849723
 21
21.06604341360156
 31
0.0
  0
LINE
  5
18B
330
1F
100
AcDbEntity
  8
101
  6
Continuous
 62
     7
370
    30
100
AcDbLine
 10
48.64289334849727
 20
37.02058841360156
 30
0.0
 11
50.85198434849722
 21
29.65695241360157
 31
0.0
  0
LINE
  5
18C
330
1F
100
AcDbEntity
  8
101
  6
Continuous
 62
     7
370
    30
100
AcDbLine
 10
46.67925734849721
 20
44.26149741360157
 30
0.0
 11
48.64289334849727
 21
37.02058841360156
 31
0.0
  0
LINE
  5
18D
330
1F
100
AcDbEntity
  8
101
  6
Continuous
 62
     7
370
    30
100
AcDbLine
 10
45.69743834849724
 20
51.87058841360158
 30
0.0
 11
46.67925734849721
 21
44.26149741360157
 31
0.0
  0
LINE
  5
18E
330
1F
100
AcDbEntity
  8
101
  6
Continuous
 62
     7
370
    30
100
AcDbLine
 10
53.42925734849721
 20
90.52967941360157
 30
0.0
 11
53.55198434849726
 21
74.69786141360157
 31
0.0
  0
LINE
  5
18F
330
1F
100
AcDbEntity
  8
101
  6
Continuous
 62
     7
370
    30
100
AcDbLine
 10
53.42925734849721
 20
114.2160434136016
 30
0.0
 11
53.42925734849721
 21
90.52967941360157
 31
0.0
  0
LINE
  5
190
330
1F
100
AcDbEntity
  8
101
  6
Continuous
 62
     7
370
    30
100
AcDbLine
 10
53.6747113484972
 20
126.9796794136016
 30
0.0
 11
53.42925734849721
 21
114.2160434136016
 31
0.0
  0
LINE
  5
191
330
1F
100
AcDbEntity
  8
101
  6
Continuous
 62
     7
370
    30
100
AcDbLine
 10
53.33721134849723
 20
141.4921794136016
 30
0.0
 11
53.6747113484972
 21
126.9796794136016
 31
0.0
  0
LINE
  5
192
330
1F
100
AcDbEntity
  8
101
  6
Continuous
 62
     7
370
    30
100
AcDbLine
 10
160.6928933484972
 20
91.51149741360157
 30
0.0
 11
160.8156203484973
 21
75.43422541360155
 31
0.0
  0
LINE
  5
193
330
1F
100
AcDbEntity
  8
101
  6
Continuous
 62
     7
370
    30
100
AcDbLine
 10
159.9565293484972
 20
115.8114974136016
 30
0.0
 11
160.6928933484972
 21
91.51149741360157
 31
0.0
  0
LINE
  5
194
330
1F
100
AcDbEntity
  8
101
  6
Continuous
 62
     7
370
    30
100
AcDbLine
 10
159.5883473484973
 20
140.7251344136016
 30
0.0
 11
159.9565293484972
 21
115.8114974136016
 31
0.0
  0
LINE
  5
195
330
1F
100
AcDbEntity
  8
101
  6
Continuous
 62
     7
370
    30
100
AcDbLine
 10
160.7235753484973
 20
144.0080884136016
 30
0.0
 11
159.5883473484973
 21
140.7251344136016
 31
0.0
  0
LINE
  5
196
330
1F
100
AcDbEntity
  8
101
  6
Continuous
 62
     7
370
    30
100
AcDbLine
 10
159.7724383484973
 20
128.6978614136016
 30
0.0
 11
165.7444523484972
 21
131.4939624136015
 31
0.0
  0
LINE
  5
197
330
1F
100
AcDbEntity
  8
101
  6
Continuous
 62
     7
370
    30
100
AcDbLine
 10
159.7417573484973
 20
129.5876344136016
 30
0.0
 11
165.7090263484972
 21
132.2024744136016
 31
0.0
  0
LINE
  5
198
330
1F
100
AcDbEntity
  8
101
  6
Continuous
 62
     7
370
    30
100
AcDbLine
 10
166.2769843484973
 20
139.5592254136016
 30
0.0
 11
165.3872113484973
 21
138.6387704136015
 31
0.0
  0
LINE
  5
199
330
1F
100
AcDbEntity
  8
101
  6
Continuous
 62
     7
370
    30
100
AcDbLine
 10
167.4428933484972
 20
139.9274064136015
 30
0.0
 11
166.2769843484973
 21
139.5592254136016
 31
0.0
  0
LINE
  5
19A
330
1F
100
AcDbEntity
  8
101
  6
Continuous
 62
     7
370
    30
100
AcDbLine
 10
168.4247113484973
 20
139.9580884136016
 30
0.0
 11
167.4428933484972
 21
139.9274064136015
 31
0.0
  0
LINE
  5
19B
330
1F
100
AcDbEntity
  8
101
  6
Continuous
 62
     7
370
    30
100
AcDbLine
 10
169.4678933484973
 20
139.5899064136016
 30
0.0
 11
168.4247113484973
 21
139.9580884136016
 31
0.0
  0
LINE
  5
19C
330
1F
100
AcDbEntity
  8
101
  6
Continuous
 62
     7
370
    30
100
AcDbLine
 10
170.1122113484973
 20
139.2217254136016
 30
0.0
 11
169.4678933484973
 21
139.5899064136016
 31
0.0
  0
LINE
  5
19D
330
1F
100
AcDbEntity
  8
101
  6
Continuous
 62
     7
370
    30
100
AcDbLine
 10
170.4190293484972
 20
138.3933164136016
 30
0.0
 11
170.1122113484973
 21
139.2217254136016
 31
0.0
  0
LINE
  5
19E
330
1F
100
AcDbEntity
  8
101
  6
Continuous
 62
     7
370
    30
100
AcDbLine
 10
170.5417573484973
 20
122.5614974136016
 30
0.0
 11
170.4190293484972
 21
138.3933164136016
 31
0.0
  0
LINE
  5
19F
330
1F
100
AcDbEntity
  8
101
  6
Continuous
 62
     7
370
    30
100
AcDbLine
 10
171.5235753484972
 20
98.26149741360157
 30
0.0
 11
170.5417573484973
 21
122.5614974136016
 31
0.0
  0
LINE
  5
1A0
330
1F
100
AcDbEntity
  8
101
  6
Continuous
 62
     7
370
    30
100
AcDbLine
 10
172.1372113484973
 20
72.48877041360157
 30
0.0
 11
171.5235753484972
 21
98.26149741360157
 31
0.0
  0
LINE
  5
1A1
330
1F
100
AcDbEntity
  8
101
  6
Continuous
 62
     7
370
    30
100
AcDbLine
 10
167.4735753484973
 20
88.81149741360156
 30
0.0
 11
167.5963023484972
 21
73.96149741360159
 31
0.0
  0
LINE
  5
1A2
330
1F
100
AcDbEntity
  8
101
  6
Continuous
 62
     7
370
    30
100
AcDbLine
 10
166.8599383484973
 20
106.9751344136016
 30
0.0
 11
167.4735753484973
 21
88.81149741360156
 31
0.0
  0
LINE
  5
1A3
330
1F
100
AcDbEntity
  8
101
  6
Continuous
 62
     7
370
    30
100
AcDbLine
 10
166.2463023484973
 20
121.4569524136016
 30
0.0
 11
166.8599383484973
 21
106.9751344136016
 31
0.0
  0
LINE
  5
1A4
330
1F
100
AcDbEntity
  8
101
  6
Continuous
 62
     7
370
    30
100
AcDbLine
 10
165.3872113484973
 20
138.6387704136015
 30
0.0
 11
166.2463023484973
 21
121.4569524136016
 31
0.0
  0
LINE
  5
1A5
330
1F
100
AcDbEntity
  8
101
  6
Continuous
 62
     7
370
    30
100
AcDbLine
 10
96.69062034849728
 20
154.0410434136016
 30
0.0
 11
95.92357534849722
 21
153.0285434136015
 31
0.0
  0
LINE
  5
1A6
330
1F
100
AcDbEntity
  8
101
  6
Continuous
 62
     7
370
    30
100
AcDbLine
 10
97.51902934849724
 20
154.9308164136016
 30
0.0
 11
96.69062034849728
 21
154.0410434136016
 31
0.0
  0
LINE
  5
1A7
330
1F
100
AcDbEntity
  8
101
  6
Continuous
 62
     7
370
    30
100
AcDbLine
 10
99.14516634849721
 20
155.2989974136016
 30
0.0
 11
97.51902934849724
 21
154.9308164136016
 31
0.0
  0
LINE
  5
1A8
330
1F
100
AcDbEntity
  8
101
  6
Continuous
 62
     7
370
    30
100
AcDbLine
 10
100.3417573484972
 20
154.9921794136016
 30
0.0
 11
99.14516634849721
 21
155.2989974136016
 31
0.0
  0
LINE
  5
1A9
330
1F
100
AcDbEntity
  8
101
  6
Continuous
 62
     7
370
    30
100
AcDbLine
 10
101.1088023484973
 20
154.3785434136016
 30
0.0
 11
100.3417573484972
 21
154.9921794136016
 31
0.0
  0
LINE
  5
1AA
330
1F
100
AcDbEntity
  8
101
  6
Continuous
 62
     7
370
    30
100
AcDbLine
 10
102.0599383484973
 20
153.1205884136016
 30
0.0
 11
101.1088023484973
 21
154.3785434136016
 31
0.0
  0
LINE
  5
1AB
330
1F
100
AcDbEntity
  8
101
  6
Continuous
 62
     7
370
    30
100
AcDbLine
 10
101.9372113484972
 20
142.0444524136016
 30
0.0
 11
102.0599383484973
 21
153.1205884136016
 31
0.0
  0
LINE
  5
1AC
330
1F
100
AcDbEntity
  8
101
  6
Continuous
 62
     7
370
    30
100
AcDbLine
 10
102.0599383484973
 20
123.2671794136016
 30
0.0
 11
101.9372113484972
 21
142.0444524136016
 31
0.0
  0
LINE
  5
1AD
330
1F
100
AcDbEntity
  8
101
  6
Continuous
 62
     7
370
    30
100
AcDbLine
 10
101.9372113484972
 20
104.7353614136016
 30
0.0
 11
102.0599383484973
 21
123.2671794136016
 31
0.0
  0
LINE
  5
1AE
330
1F
100
AcDbEntity
  8
101
  6
Continuous
 62
     7
370
    30
100
AcDbLine
 10
102.0599383484973
 20
79.45354341360155
 30
0.0
 11
101.9372113484972
 21
104.7353614136016
 31
0.0
  0
LINE
  5
1AF
330
1F
100
AcDbEntity
  8
101
  6
Continuous
 62
     7
370
    30
100
AcDbLine
 10
97.02812034849725
 20
87.30808841360158
 30
0.0
 11
97.1508473484972
 21
78.71717941360157
 31
0.0
  0
LINE
  5
1B0
330
1F
100
AcDbEntity
  8
101
  6
Continuous
 62
     7
370
    30
100
AcDbLine
 10
97.1508473484972
 20
105.8399064136016
 30
0.0
 11
97.02812034849725
 21
87.30808841360158
 31
0.0
  0
LINE
  5
1B1
330
1F
100
AcDbEntity
  8
101
  6
Continuous
 62
     7
370
    30
100
AcDbLine
 10
96.78266634849726
 20
119.9535434136016
 30
0.0
 11
97.1508473484972
 21
105.8399064136016
 31
0.0
  0
LINE
  5
1B2
330
1F
100
AcDbEntity
  8
101
  6
Continuous
 62
     7
370
    30
100
AcDbLine
 10
96.41448434849721
 20
138.2399064136015
 30
0.0
 11
96.78266634849726
 21
119.9535434136016
 31
0.0
  0
LINE
  5
1B3
330
1F
100
AcDbEntity
  8
101
  6
Continuous
 62
     7
370
    30
100
AcDbLine
 10
95.92357534849722
 20
153.0285434136015
 30
0.0
 11
96.41448434849721
 21
138.2399064136015
 31
0.0
  0
LINE
  5
1B4
330
1F
100
AcDbEntity
  8
101
  6
Continuous
 62
     7
370
    30
100
AcDbLine
 10
47.75312034849728
 20
133.8217254136015
 30
0.0
 11
47.07812034849722
 21
133.1160434136016
 31
0.0
  0
LINE
  5
1B5
330
1F
100
AcDbEntity
  8
101
  6
Continuous
 62
     7
370
    30
100
AcDbLine
 10
48.73493834849726
 20
134.4046794136016
 30
0.0
 11
47.75312034849728
 21
133.8217254136015
 31
0.0
  0
LINE
  5
1B6
330
1F
100
AcDbEntity
  8
101
  6
Continuous
 62
     7
370
    30
100
AcDbLine
 10
49.93152934849727
 20
134.5887704136016
 30
0.0
 11
48.73493834849726
 21
134.4046794136016
 31
0.0
  0
LINE
  5
1B7
330
1F
100
AcDbEntity
  8
101
  6
Continuous
 62
     7
370
    30
100
AcDbLine
 10
52.04857534849723
 20
133.7910434136016
 30
0.0
 11
49.93152934849727
 21
134.5887704136016
 31
0.0
  0
LINE
  5
1B8
330
1F
100
AcDbEntity
  8
101
  6
Continuous
 62
     7
370
    30
100
AcDbLine
 10
51.92584734849729
 20
132.1955884136016
 30
0.0
 11
52.04857534849723
 21
133.7910434136016
 31
0.0
  0
LINE
  5
1B9
330
1F
100
AcDbEntity
  8
101
  6
Continuous
 62
     7
370
    30
100
AcDbLine
 10
51.4349383484973
 20
113.6637704136016
 30
0.0
 11
51.92584734849729
 21
132.1955884136016
 31
0.0
  0
LINE
  5
1BA
330
1F
100
AcDbEntity
  8
101
  6
Continuous
 62
     7
370
    30
100
AcDbLine
 10
50.82130234849726
 20
95.74558841360158
 30
0.0
 11
51.4349383484973
 21
113.6637704136016
 31
0.0
  0
LINE
  5
1BB
330
1F
100
AcDbEntity
  8
101
  6
Continuous
 62
     7
370
    30
100
AcDbLine
 10
50.69857534849721
 20
73.77740641360157
 30
0.0
 11
50.82130234849726
 21
95.74558841360158
 31
0.0
  0
LINE
  5
1BC
330
1F
100
AcDbEntity
  8
101
  6
Continuous
 62
     7
370
    30
100
AcDbLine
 10
46.40312034849726
 20
98.93649741360156
 30
0.0
 11
46.40312034849726
 21
72.30467941360158
 31
0.0
  0
LINE
  5
1BD
330
1F
100
AcDbEntity
  8
101
  6
Continuous
 62
     7
370
    30
100
AcDbLine
 10
47.13948434849724
 20
126.1819524136016
 30
0.0
 11
46.40312034849726
 21
98.93649741360156
 31
0.0
  0
LINE
  5
1BE
330
1F
100
AcDbEntity
  8
101
  6
Continuous
 62
     7
370
    30
100
AcDbLine
 10
47.07812034849722
 20
133.1160434136016
 30
0.0
 11
47.13948434849724
 21
126.1819524136016
 31
0.0
  0
LINE
  5
1BF
330
1F
100
AcDbEntity
  8
101
  6
Continuous
 62
     7
370
    30
100
AcDbLine
 10
161.1531203484973
 20
135.1717254136016
 30
0.0
 11
159.6190293484973
 21
134.0978614136016
 31
0.0
  0
LINE
  5
1C0
330
1F
100
AcDbEntity
  8
101
  6
Continuous
 62
     7
370
    30
100
AcDbLine
 10
162.4110753484973
 20
136.5524064136015
 30
0.0
 11
161.1531203484973
 21
135.1717254136016
 31
0.0
  0
LINE
  5
1C1
330
1F
100
AcDbEntity
  8
101
  6
Continuous
 62
     7
370
    30
100
AcDbLine
 10
163.3008473484973
 20
138.3933164136016
 30
0.0
 11
162.4110753484973
 21
136.5524064136015
 31
0.0
  0
LINE
  5
1C2
330
1F
100
AcDbEntity
  8
101
  6
Continuous
 62
     7
370
    30
100
AcDbLine
 10
163.3928933484973
 20
139.7433164136016
 30
0.0
 11
163.3008473484973
 21
138.3933164136016
 31
0.0
  0
LINE
  5
1C3
330
1F
100
AcDbEntity
  8
101
  6
Continuous
 62
     7
370
    30
100
AcDbLine
 10
163.0860753484972
 20
141.1546794136016
 30
0.0
 11
163.3928933484973
 21
139.7433164136016
 31
0.0
  0
LINE
  5
1C4
330
1F
100
AcDbEntity
  8
101
  6
Continuous
 62
     7
370
    30
100
AcDbLine
 10
162.2269843484973
 20
142.5967254136016
 30
0.0
 11
163.0860753484972
 21
141.1546794136016
 31
0.0
  0
LINE
  5
1C5
330
1F
100
AcDbEntity
  8
101
  6
Continuous
 62
     7
370
    30
100
AcDbLine
 10
160.7235753484973
 20
144.0080884136016
 30
0.0
 11
162.2269843484973
 21
142.5967254136016
 31
0.0
  0
LINE
  5
1C6
330
1F
100
AcDbEntity
  8
101
  6
Continuous
 62
     7
370
    30
100
AcDbLine
 10
157.8088023484973
 20
146.1251344136016
 30
0.0
 11
160.7235753484973
 21
144.0080884136016
 31
0.0
  0
LINE
  5
1C7
330
1F
100
AcDbEntity
  8
101
  6
Continuous
 62
     7
370
    30
100
AcDbLine
 10
154.1269843484973
 20
147.7512704136016
 30
0.0
 11
157.8088023484973
 21
146.1251344136016
 31
0.0
  0
LINE
  5
1C8
330
1F
100
AcDbEntity
  8
101
  6
Continuous
 62
     7
370
    30
100
AcDbLine
 10
149.1258473484972
 20
149.4080884136015
 30
0.0
 11
154.1269843484973
 21
147.7512704136016
 31
0.0
  0
LINE
  5
1C9
330
1F
100
AcDbEntity
  8
101
  6
Continuous
 62
     7
370
    30
100
AcDbLine
 10
143.6031203484973
 20
150.8194524136016
 30
0.0
 11
149.1258473484972
 21
149.4080884136015
 31
0.0
  0
LINE
  5
1CA
330
1F
100
AcDbEntity
  8
101
  6
Continuous
 62
     7
370
    30
100
AcDbLine
 10
137.5894843484973
 20
151.8933164136016
 30
0.0
 11
143.6031203484973
 21
150.8194524136016
 31
0.0
  0
LINE
  5
1CB
330
1F
100
AcDbEntity
  8
101
  6
Continuous
 62
     7
370
    30
100
AcDbLine
 10
132.5883473484972
 20
152.7524064136016
 30
0.0
 11
137.5894843484973
 21
151.8933164136016
 31
0.0
  0
LINE
  5
1CC
330
1F
100
AcDbEntity
  8
101
  6
Continuous
 62
     7
370
    30
100
AcDbLine
 10
128.4769843484972
 20
152.9058164136016
 30
0.0
 11
132.5883473484972
 21
152.7524064136016
 31
0.0
  0
LINE
  5
1CD
330
1F
100
AcDbEntity
  8
101
  6
Continuous
 62
     7
370
    30
100
AcDbLine
 10
121.1440293484972
 20
153.1512704136016
 30
0.0
 11
128.4769843484972
 21
152.9058164136016
 31
0.0
  0
LINE
  5
1CE
330
1F
100
AcDbEntity
  8
101
  6
Continuous
 62
     7
370
    30
100
AcDbLine
 10
114.4553933484973
 20
153.3353614136016
 30
0.0
 11
121.1440293484972
 21
153.1512704136016
 31
0.0
  0
LINE
  5
1CF
330
1F
100
AcDbEntity
  8
101
  6
Continuous
 62
     7
370
    30
100
AcDbLine
 10
106.7849383484972
 20
153.1512704136016
 30
0.0
 11
114.4553933484973
 21
153.3353614136016
 31
0.0
  0
LINE
  5
1D0
330
1F
100
AcDbEntity
  8
101
  6
Continuous
 62
     7
370
    30
100
AcDbLine
 10
102.0599383484973
 20
153.1205884136016
 30
0.0
 11
106.7849383484972
 21
153.1512704136016
 31
0.0
  0
LINE
  5
1D1
330
1F
100
AcDbEntity
  8
101
  6
Continuous
 62
     7
370
    30
100
AcDbLine
 10
95.92357534849722
 20
153.0285434136015
 30
0.0
 11
96.56789334849722
 21
153.0285434136015
 31
0.0
  0
LINE
  5
1D2
330
1F
100
AcDbEntity
  8
101
  6
Continuous
 62
     7
370
    30
100
AcDbLine
 10
91.62812034849728
 20
152.8751344136016
 30
0.0
 11
95.92357534849722
 21
153.0285434136015
 31
0.0
  0
LINE
  5
1D3
330
1F
100
AcDbEntity
  8
101
  6
Continuous
 62
     7
370
    30
100
AcDbLine
 10
86.28948434849721
 20
152.5069524136016
 30
0.0
 11
91.62812034849728
 21
152.8751344136016
 31
0.0
  0
LINE
  5
1D4
330
1F
100
AcDbEntity
  8
101
  6
Continuous
 62
     7
370
    30
100
AcDbLine
 10
80.79743834849725
 20
151.8319524136016
 30
0.0
 11
86.28948434849721
 21
152.5069524136016
 31
0.0
  0
LINE
  5
1D5
330
1F
100
AcDbEntity
  8
101
  6
Continuous
 62
     7
370
    30
100
AcDbLine
 10
74.99857534849727
 20
150.6967254136015
 30
0.0
 11
80.79743834849725
 21
151.8319524136016
 31
0.0
  0
LINE
  5
1D6
330
1F
100
AcDbEntity
  8
101
  6
Continuous
 62
     7
370
    30
100
AcDbLine
 10
70.61107534849722
 20
149.7455884136016
 30
0.0
 11
74.99857534849727
 21
150.6967254136015
 31
0.0
  0
LINE
  5
1D7
330
1F
100
AcDbEntity
  8
101
  6
Continuous
 62
     7
370
    30
100
AcDbLine
 10
66.07016634849728
 20
148.5183164136016
 30
0.0
 11
70.61107534849722
 21
149.7455884136016
 31
0.0
  0
LINE
  5
1D8
330
1F
100
AcDbEntity
  8
101
  6
Continuous
 62
     7
370
    30
100
AcDbLine
 10
62.66448434849722
 20
147.1376344136016
 30
0.0
 11
66.07016634849728
 21
148.5183164136016
 31
0.0
  0
LINE
  5
1D9
330
1F
100
AcDbEntity
  8
101
  6
Continuous
 62
     7
370
    30
100
AcDbLine
 10
58.24630234849722
 20
145.0819524136016
 30
0.0
 11
62.66448434849722
 21
147.1376344136016
 31
0.0
  0
LINE
  5
1DA
330
1F
100
AcDbEntity
  8
101
  6
Continuous
 62
     7
370
    30
100
AcDbLine
 10
54.8099383484973
 20
143.0876344136016
 30
0.0
 11
58.24630234849722
 21
145.0819524136016
 31
0.0
  0
LINE
  5
1DB
330
1F
100
AcDbEntity
  8
101
  6
Continuous
 62
     7
370
    30
100
AcDbLine
 10
53.33721134849723
 20
141.4921794136016
 30
0.0
 11
54.8099383484973
 21
143.0876344136016
 31
0.0
  0
LINE
  5
1DC
330
1F
100
AcDbEntity
  8
101
  6
Continuous
 62
     7
370
    30
100
AcDbLine
 10
52.29402934849723
 20
139.8967254136016
 30
0.0
 11
53.33721134849723
 21
141.4921794136016
 31
0.0
  0
LINE
  5
1DD
330
1F
100
AcDbEntity
  8
101
  6
Continuous
 62
     7
370
    30
100
AcDbLine
 10
52.20198434849724
 20
138.0251344136016
 30
0.0
 11
52.29402934849723
 21
139.8967254136016
 31
0.0
  0
LINE
  5
1DE
330
1F
100
AcDbEntity
  8
101
  6
Continuous
 62
     7
370
    30
100
AcDbLine
 10
52.50880234849726
 20
136.3683164136016
 30
0.0
 11
52.20198434849724
 21
138.0251344136016
 31
0.0
  0
LINE
  5
1DF
330
1F
100
AcDbEntity
  8
101
  6
Continuous
 62
     7
370
    30
100
AcDbLine
 10
53.52130234849731
 20
135.2024064136016
 30
0.0
 11
52.50880234849726
 21
136.3683164136016
 31
0.0
  0
LINE
  5
1E0
330
1F
100
AcDbEntity
  8
101
  6
Continuous
 62
     7
370
    30
100
AcDbLine
 10
51.86448434849726
 20
129.0046794136015
 30
0.0
 11
53.55198434849726
 21
128.2989974136016
 31
0.0
  0
LINE
  5
1E1
330
1F
100
AcDbEntity
  8
101
  6
Continuous
 62
     7
370
    30
100
AcDbLine
 10
51.80312034849724
 20
130.2626344136016
 30
0.0
 11
53.55198434849726
 21
129.4955884136016
 31
0.0
  0
LINE
  5
1E2
330
1F
100
AcDbEntity
  8
101
  6
Continuous
 62
     7
370
    30
100
AcDbLine
 10
88.83607534849725
 20
156.4955884136016
 30
0.0
 11
80.98152934849722
 21
156.0660434136016
 31
0.0
  0
LINE
  5
1E3
330
1F
100
AcDbEntity
  8
101
  6
Continuous
 62
     7
370
    30
100
AcDbLine
 10
96.81334734849722
 20
156.9864974136016
 30
0.0
 11
88.83607534849725
 21
156.4955884136016
 31
0.0
  0
LINE
  5
1E4
330
1F
100
AcDbEntity
  8
101
  6
Continuous
 62
     7
370
    30
100
AcDbLine
 10
106.5701663484973
 20
157.1092254136016
 30
0.0
 11
96.81334734849722
 21
156.9864974136016
 31
0.0
  0
LINE
  5
1E5
330
1F
100
AcDbEntity
  8
101
  6
Continuous
 62
     7
370
    30
100
AcDbLine
 10
114.1178933484973
 20
156.8637704136016
 30
0.0
 11
106.5701663484973
 21
157.1092254136016
 31
0.0
  0
LINE
  5
1E6
330
1F
100
AcDbEntity
  8
101
  6
Continuous
 62
     7
370
    30
100
AcDbLine
 10
126.7588023484973
 20
156.3114974136016
 30
0.0
 11
117.4315293484973
 21
156.8024064136015
 31
0.0
  0
LINE
  5
1E7
330
1F
100
AcDbEntity
  8
101
  6
Continuous
 62
     7
370
    30
100
AcDbLine
 10
134.4906203484972
 20
155.9433164136016
 30
0.0
 11
126.7588023484973
 21
156.3114974136016
 31
0.0
  0
LINE
  5
1E8
330
1F
100
AcDbEntity
  8
101
  6
Continuous
 62
     7
370
    30
100
AcDbLine
 10
141.6088023484973
 20
154.7774064136016
 30
0.0
 11
134.4906203484972
 21
155.9433164136016
 31
0.0
  0
LINE
  5
1E9
330
1F
100
AcDbEntity
  8
101
  6
Continuous
 62
     7
370
    30
100
AcDbLine
 10
150.0769843484972
 20
153.1819524136016
 30
0.0
 11
141.6088023484973
 21
154.7774064136016
 31
0.0
  0
LINE
  5
1EA
330
1F
100
AcDbEntity
  8
101
  6
Continuous
 62
     7
370
    30
100
AcDbLine
 10
158.1156203484972
 20
151.2183164136016
 30
0.0
 11
150.0769843484972
 21
153.1819524136016
 31
0.0
  0
LINE
  5
1EB
330
1F
100
AcDbEntity
  8
101
  6
Continuous
 62
     7
370
    30
100
AcDbLine
 10
163.3928933484973
 20
149.2546794136015
 30
0.0
 11
158.1156203484972
 21
151.2183164136016
 31
0.0
  0
LINE
  5
1EC
330
1F
100
AcDbEntity
  8
101
  6
Continuous
 62
     7
370
    30
100
AcDbLine
 10
168.2406203484972
 20
146.6774064136015
 30
0.0
 11
163.3928933484973
 21
149.2546794136015
 31
0.0
  0
LINE
  5
1ED
330
1F
100
AcDbEntity
  8
101
  6
Continuous
 62
     7
370
    30
100
AcDbLine
 10
171.1247113484972
 20
143.8546794136016
 30
0.0
 11
168.2406203484972
 21
146.6774064136015
 31
0.0
  0
LINE
  5
1EE
330
1F
100
AcDbEntity
  8
101
  6
Continuous
 62
     7
370
    30
100
AcDbLine
 10
171.4008473484973
 20
145.2660434136016
 30
0.0
 11
169.3144843484972
 21
146.9228614136015
 31
0.0
  0
LINE
  5
1EF
330
1F
100
AcDbEntity
  8
101
  6
Continuous
 62
     7
370
    30
100
AcDbLine
 10
172.7815293484973
 20
143.5478614136015
 30
0.0
 11
171.4008473484973
 21
145.2660434136016
 31
0.0
  0
LINE
  5
1F0
330
1F
100
AcDbEntity
  8
101
  6
Continuous
 62
     7
370
    30
100
AcDbLine
 10
173.0269843484973
 20
141.5535434136016
 30
0.0
 11
172.7815293484973
 21
143.5478614136015
 31
0.0
  0
LINE
  5
1F1
330
1F
100
AcDbEntity
  8
101
  6
Continuous
 62
     7
370
    30
100
AcDbLine
 10
172.5360753484973
 20
139.4058164136016
 30
0.0
 11
173.0269843484973
 21
141.5535434136016
 31
0.0
  0
LINE
  5
1F2
330
1F
100
AcDbEntity
  8
101
  6
Continuous
 62
     7
370
    30
100
AcDbLine
 10
171.9531203484973
 20
137.3808164136016
 30
0.0
 11
172.5360753484973
 21
139.4058164136016
 31
0.0
  0
LINE
  5
1F3
330
1F
100
AcDbEntity
  8
101
  6
Continuous
 62
     7
370
    30
100
AcDbLine
 10
170.8178933484972
 20
135.6933164136016
 30
0.0
 11
171.9531203484973
 21
137.3808164136016
 31
0.0
  0
LINE
  5
1F4
330
1F
100
AcDbEntity
  8
101
  6
Continuous
 62
     7
370
    30
100
AcDbLine
 10
172.0144843484972
 20
135.3864974136016
 30
0.0
 11
170.4803933484972
 21
134.7728614136016
 31
0.0
  0
LINE
  5
1F5
330
1F
100
AcDbEntity
  8
101
  6
Continuous
 62
     7
370
    30
100
AcDbLine
 10
173.7326663484972
 20
136.6137704136016
 30
0.0
 11
172.0144843484972
 21
135.3864974136016
 31
0.0
  0
LINE
  5
1F6
330
1F
100
AcDbEntity
  8
101
  6
Continuous
 62
     7
370
    30
100
AcDbLine
 10
175.0826663484972
 20
137.7796794136016
 30
0.0
 11
173.7326663484972
 21
136.6137704136016
 31
0.0
  0
LINE
  5
1F7
330
1F
100
AcDbEntity
  8
101
  6
Continuous
 62
     7
370
    30
100
AcDbLine
 10
175.5735753484973
 20
139.3137704136016
 30
0.0
 11
175.0826663484972
 21
137.7796794136016
 31
0.0
  0
LINE
  5
1F8
330
1F
100
AcDbEntity
  8
101
  6
Continuous
 62
     7
370
    30
100
AcDbLine
 10
175.6349383484972
 20
141.4001344136016
 30
0.0
 11
175.5735753484973
 21
139.3137704136016
 31
0.0
  0
LINE
  5
1F9
330
1F
100
AcDbEntity
  8
101
  6
Continuous
 62
     7
370
    30
100
AcDbLine
 10
175.2667573484973
 20
143.9160434136016
 30
0.0
 11
175.6349383484972
 21
141.4001344136016
 31
0.0
  0
LINE
  5
1FA
330
1F
100
AcDbEntity
  8
101
  6
Continuous
 62
     7
370
    30
100
AcDbLine
 10
172.2599383484972
 20
136.3683164136016
 30
0.0
 11
170.4803933484972
 21
134.7728614136016
 31
0.0
  0
LINE
  5
1FB
330
1F
100
AcDbEntity
  8
101
  6
Continuous
 62
     7
370
    30
100
AcDbLine
 10
173.7326663484972
 20
138.5160434136016
 30
0.0
 11
172.2599383484972
 21
136.3683164136016
 31
0.0
  0
LINE
  5
1FC
330
1F
100
AcDbEntity
  8
101
  6
Continuous
 62
     7
370
    30
100
AcDbLine
 10
174.2849383484973
 20
140.9092254136016
 30
0.0
 11
173.7326663484972
 21
138.5160434136016
 31
0.0
  0
LINE
  5
1FD
330
1F
100
AcDbEntity
  8
101
  6
Continuous
 62
     7
370
    30
100
AcDbLine
 10
173.4872113484973
 20
143.7933164136015
 30
0.0
 11
174.2849383484973
 21
140.9092254136016
 31
0.0
  0
LINE
  5
1FE
330
1F
100
AcDbEntity
  8
101
  6
Continuous
 62
     7
370
    30
100
AcDbLine
 10
171.7690293484972
 20
145.9410434136016
 30
0.0
 11
173.4872113484973
 21
143.7933164136015
 31
0.0
  0
LINE
  5
1FF
330
1F
100
AcDbEntity
  8
101
  6
Continuous
 62
     7
370
    30
100
AcDbLine
 10
169.1917573484972
 20
147.6592254136016
 30
0.0
 11
171.7690293484972
 21
145.9410434136016
 31
0.0
  0
LINE
  5
200
330
1F
100
AcDbEntity
  8
101
  6
Continuous
 62
     7
370
    30
100
AcDbLine
 10
165.7553933484972
 20
149.6228614136016
 30
0.0
 11
169.1917573484972
 21
147.6592254136016
 31
0.0
  0
LINE
  5
201
330
1F
100
AcDbEntity
  8
101
  6
Continuous
 62
     7
370
    30
100
AcDbLine
 10
161.3372113484972
 20
151.6478614136016
 30
0.0
 11
165.7553933484972
 21
149.6228614136016
 31
0.0
  0
LINE
  5
202
330
1F
100
AcDbEntity
  8
101
  6
Continuous
 62
     7
370
    30
100
AcDbLine
 10
154.8940293484972
 20
153.7955884136016
 30
0.0
 11
161.3372113484972
 21
151.6478614136016
 31
0.0
  0
LINE
  5
203
330
1F
100
AcDbEntity
  8
101
  6
Continuous
 62
     7
370
    30
100
AcDbLine
 10
148.8803933484972
 20
155.3910434136016
 30
0.0
 11
154.8940293484972
 21
153.7955884136016
 31
0.0
  0
LINE
  5
204
330
1F
100
AcDbEntity
  8
101
  6
Continuous
 62
     7
370
    30
100
AcDbLine
 10
142.5599383484973
 20
156.8024064136015
 30
0.0
 11
148.8803933484972
 21
155.3910434136016
 31
0.0
  0
LINE
  5
205
330
1F
100
AcDbEntity
  8
101
  6
Continuous
 62
     7
370
    30
100
AcDbLine
 10
135.6872113484972
 20
157.6001344136016
 30
0.0
 11
142.5599383484973
 21
156.8024064136015
 31
0.0
  0
LINE
  5
206
330
1F
100
AcDbEntity
  8
101
  6
Continuous
 62
     7
370
    30
100
AcDbLine
 10
129.9803933484972
 20
157.9683164136016
 30
0.0
 11
135.6872113484972
 21
157.6001344136016
 31
0.0
  0
LINE
  5
207
330
1F
100
AcDbEntity
  8
101
  6
Continuous
 62
     7
370
    30
100
AcDbLine
 10
120.7758473484972
 20
158.5819524136016
 30
0.0
 11
129.9803933484972
 21
157.9683164136016
 31
0.0
  0
LINE
  5
208
330
1F
100
AcDbEntity
  8
101
  6
Continuous
 62
     7
370
    30
100
AcDbLine
 10
112.3076663484972
 20
158.7046794136016
 30
0.0
 11
120.7758473484972
 21
158.5819524136016
 31
0.0
  0
LINE
  5
209
330
1F
100
AcDbEntity
  8
101
  6
Continuous
 62
     7
370
    30
100
AcDbLine
 10
105.4963023484972
 20
158.5819524136016
 30
0.0
 11
112.3076663484972
 21
158.7046794136016
 31
0.0
  0
LINE
  5
20A
330
1F
100
AcDbEntity
  8
101
  6
Continuous
 62
     7
370
    30
100
AcDbLine
 10
99.60539334849724
 20
158.3978614136016
 30
0.0
 11
105.4963023484972
 21
158.5819524136016
 31
0.0
  0
LINE
  5
20B
330
1F
100
AcDbEntity
  8
101
  6
Continuous
 62
     7
370
    30
100
AcDbLine
 10
93.59175734849723
 20
158.1524064136016
 30
0.0
 11
99.60539334849724
 21
158.3978614136016
 31
0.0
  0
LINE
  5
20C
330
1F
100
AcDbEntity
  8
101
  6
Continuous
 62
     7
370
    30
100
AcDbLine
 10
86.04402934849722
 20
157.6001344136016
 30
0.0
 11
93.59175734849723
 21
158.1524064136016
 31
0.0
  0
LINE
  5
20D
330
1F
100
AcDbEntity
  8
101
  6
Continuous
 62
     7
370
    30
100
AcDbLine
 10
81.0735753484972
 20
157.1092254136016
 30
0.0
 11
86.04402934849722
 21
157.6001344136016
 31
0.0
  0
LINE
  5
20E
330
1F
100
AcDbEntity
  8
101
  6
Continuous
 62
     7
370
    30
100
AcDbLine
 10
75.98039334849724
 20
156.3114974136016
 30
0.0
 11
81.0735753484972
 21
157.1092254136016
 31
0.0
  0
LINE
  5
20F
330
1F
100
AcDbEntity
  8
101
  6
Continuous
 62
     7
370
    30
100
AcDbLine
 10
70.88721134849729
 20
155.3910434136016
 30
0.0
 11
75.98039334849724
 21
156.3114974136016
 31
0.0
  0
LINE
  5
210
330
1F
100
AcDbEntity
  8
101
  6
Continuous
 62
     7
370
    30
100
AcDbLine
 10
64.44402934849731
 20
154.0410434136016
 30
0.0
 11
70.88721134849729
 21
155.3910434136016
 31
0.0
  0
LINE
  5
211
330
1F
100
AcDbEntity
  8
101
  6
Continuous
 62
     7
370
    30
100
AcDbLine
 10
58.79857534849723
 20
152.5069524136016
 30
0.0
 11
64.44402934849731
 21
154.0410434136016
 31
0.0
  0
LINE
  5
212
330
1F
100
AcDbEntity
  8
101
  6
Continuous
 62
     7
370
    30
100
AcDbLine
 10
53.95084734849727
 20
150.7887704136016
 30
0.0
 11
58.79857534849723
 21
152.5069524136016
 31
0.0
  0
LINE
  5
213
330
1F
100
AcDbEntity
  8
101
  6
Continuous
 62
     7
370
    30
100
AcDbLine
 10
49.83948434849729
 20
149.0705884136016
 30
0.0
 11
53.95084734849727
 21
150.7887704136016
 31
0.0
  0
LINE
  5
214
330
1F
100
AcDbEntity
  8
101
  6
Continuous
 62
     7
370
    30
100
AcDbLine
 10
46.34175734849723
 20
147.4137704136016
 30
0.0
 11
49.83948434849729
 21
149.0705884136016
 31
0.0
  0
LINE
  5
215
330
1F
100
AcDbEntity
  8
101
  6
Continuous
 62
     7
370
    30
100
AcDbLine
 10
43.6417573484973
 20
145.2046794136016
 30
0.0
 11
46.34175734849723
 21
147.4137704136016
 31
0.0
  0
LINE
  5
216
330
1F
100
AcDbEntity
  8
101
  6
Continuous
 62
     7
370
    30
100
AcDbLine
 10
41.92357534849723
 20
142.2592254136015
 30
0.0
 11
43.6417573484973
 21
145.2046794136016
 31
0.0
  0
LINE
  5
217
330
1F
100
AcDbEntity
  8
101
  6
Continuous
 62
     7
370
    30
100
AcDbLine
 10
41.8622113484972
 20
139.9274064136015
 30
0.0
 11
41.92357534849723
 21
142.2592254136015
 31
0.0
  0
LINE
  5
218
330
1F
100
AcDbEntity
  8
101
  6
Continuous
 62
     7
370
    30
100
AcDbLine
 10
42.72130234849724
 20
137.4728614136016
 30
0.0
 11
41.8622113484972
 21
139.9274064136015
 31
0.0
  0
LINE
  5
219
330
1F
100
AcDbEntity
  8
101
  6
Continuous
 62
     7
370
    30
100
AcDbLine
 10
44.50084734849722
 20
135.2024064136016
 30
0.0
 11
42.72130234849724
 21
137.4728614136016
 31
0.0
  0
LINE
  5
21A
330
1F
100
AcDbEntity
  8
101
  6
Continuous
 62
     7
370
    30
100
AcDbLine
 10
47.07812034849722
 20
133.1160434136016
 30
0.0
 11
44.50084734849722
 21
135.2024064136016
 31
0.0
  0
LINE
  5
21B
330
1F
100
AcDbEntity
  8
101
  6
Continuous
 62
     7
370
    30
100
AcDbLine
 10
38.8247113484973
 20
141.6149064136015
 30
0.0
 11
40.05198434849726
 21
139.5285434136015
 31
0.0
  0
LINE
  5
21C
330
1F
100
AcDbEntity
  8
101
  6
Continuous
 62
     7
370
    30
100
AcDbLine
 10
173.1190293484973
 20
146.9228614136015
 30
0.0
 11
175.2667573484973
 21
143.9160434136016
 31
0.0
  0
LINE
  5
21D
330
1F
100
AcDbEntity
  8
101
  6
Continuous
 62
     7
370
    30
100
AcDbLine
 10
169.2531203484973
 20
149.5001344136016
 30
0.0
 11
173.1190293484973
 21
146.9228614136015
 31
0.0
  0
LINE
  5
21E
330
1F
100
AcDbEntity
  8
101
  6
Continuous
 62
     7
370
    30
100
AcDbLine
 10
164.0372113484973
 20
152.0160434136016
 30
0.0
 11
169.2531203484973
 21
149.5001344136016
 31
0.0
  0
LINE
  5
21F
330
1F
100
AcDbEntity
  8
101
  6
Continuous
 62
     7
370
    30
100
AcDbLine
 10
157.0417573484973
 20
154.2251344136016
 30
0.0
 11
164.0372113484973
 21
152.0160434136016
 31
0.0
  0
LINE
  5
220
330
1F
100
AcDbEntity
  8
101
  6
Continuous
 62
     7
370
    30
100
AcDbLine
 10
150.1690293484972
 20
156.0046794136015
 30
0.0
 11
157.0417573484973
 21
154.2251344136016
 31
0.0
  0
LINE
  5
221
330
1F
100
AcDbEntity
  8
101
  6
Continuous
 62
     7
370
    30
100
AcDbLine
 10
142.4372113484972
 20
157.6614974136016
 30
0.0
 11
150.1690293484972
 21
156.0046794136015
 31
0.0
  0
LINE
  5
222
330
1F
100
AcDbEntity
  8
101
  6
Continuous
 62
     7
370
    30
100
AcDbLine
 10
132.4349383484973
 20
158.7660434136016
 30
0.0
 11
142.4372113484972
 21
157.6614974136016
 31
0.0
  0
LINE
  5
223
330
1F
100
AcDbEntity
  8
101
  6
Continuous
 62
     7
370
    30
100
AcDbLine
 10
122.0644843484973
 20
159.3796794136015
 30
0.0
 11
132.4349383484973
 21
158.7660434136016
 31
0.0
  0
LINE
  5
224
330
1F
100
AcDbEntity
  8
101
  6
Continuous
 62
     7
370
    30
100
AcDbLine
 10
112.3076663484972
 20
159.3183164136016
 30
0.0
 11
122.0644843484973
 21
159.3796794136015
 31
0.0
  0
LINE
  5
225
330
1F
100
AcDbEntity
  8
101
  6
Continuous
 62
     7
370
    30
100
AcDbLine
 10
102.9190293484972
 20
159.4410434136016
 30
0.0
 11
112.3076663484972
 21
159.3183164136016
 31
0.0
  0
LINE
  5
226
330
1F
100
AcDbEntity
  8
101
  6
Continuous
 62
     7
370
    30
100
AcDbLine
 10
96.16902934849722
 20
159.3796794136015
 30
0.0
 11
102.9190293484972
 21
159.4410434136016
 31
0.0
  0
LINE
  5
227
330
1F
100
AcDbEntity
  8
101
  6
Continuous
 62
     7
370
    30
100
AcDbLine
 10
89.97130234849723
 20
159.0114974136016
 30
0.0
 11
96.16902934849722
 21
159.3796794136015
 31
0.0
  0
LINE
  5
228
330
1F
100
AcDbEntity
  8
101
  6
Continuous
 62
     7
370
    30
100
AcDbLine
 10
81.5644843484973
 20
158.0910434136015
 30
0.0
 11
89.97130234849723
 21
159.0114974136016
 31
0.0
  0
LINE
  5
229
330
1F
100
AcDbEntity
  8
101
  6
Continuous
 62
     7
370
    30
100
AcDbLine
 10
70.45766634849721
 20
156.4342254136016
 30
0.0
 11
81.5644843484973
 21
158.0910434136015
 31
0.0
  0
LINE
  5
22A
330
1F
100
AcDbEntity
  8
101
  6
Continuous
 62
     7
370
    30
100
AcDbLine
 10
60.33266634849722
 20
154.2251344136016
 30
0.0
 11
70.45766634849721
 21
156.4342254136016
 31
0.0
  0
LINE
  5
22B
330
1F
100
AcDbEntity
  8
101
  6
Continuous
 62
     7
370
    30
100
AcDbLine
 10
54.25766634849729
 20
152.4455884136016
 30
0.0
 11
60.33266634849722
 21
154.2251344136016
 31
0.0
  0
LINE
  5
22C
330
1F
100
AcDbEntity
  8
101
  6
Continuous
 62
     7
370
    30
100
AcDbLine
 10
47.44630234849726
 20
149.6228614136016
 30
0.0
 11
54.25766634849729
 21
152.4455884136016
 31
0.0
  0
LINE
  5
22D
330
1F
100
AcDbEntity
  8
101
  6
Continuous
 62
     7
370
    30
100
AcDbLine
 10
43.21221134849723
 20
147.2296794136016
 30
0.0
 11
47.44630234849726
 21
149.6228614136016
 31
0.0
  0
LINE
  5
22E
330
1F
100
AcDbEntity
  8
101
  6
Continuous
 62
     7
370
    30
100
AcDbLine
 10
40.63493834849724
 20
144.7751344136016
 30
0.0
 11
43.21221134849723
 21
147.2296794136016
 31
0.0
  0
LINE
  5
22F
330
1F
100
AcDbEntity
  8
101
  6
Continuous
 62
     7
370
    30
100
AcDbLine
 10
39.65312034849726
 20
142.4433164136016
 30
0.0
 11
40.63493834849724
 21
144.7751344136016
 31
0.0
  0
LINE
  5
230
330
1F
100
AcDbEntity
  8
101
  6
Continuous
 62
     7
370
    30
100
AcDbLine
 10
40.05198434849726
 20
139.5285434136015
 30
0.0
 11
39.65312034849726
 21
142.4433164136016
 31
0.0
  0
LINE
  5
231
330
1F
100
AcDbEntity
  8
101
  6
Continuous
 62
     7
370
    30
100
AcDbLine
 10
40.57357534849721
 20
137.5342254136016
 30
0.0
 11
40.05198434849726
 21
139.5285434136015
 31
0.0
  0
LINE
  5
232
330
1F
100
AcDbEntity
  8
101
  6
Continuous
 62
     7
370
    30
100
AcDbLine
 10
42.10766634849731
 20
134.9569524136016
 30
0.0
 11
40.57357534849721
 21
137.5342254136016
 31
0.0
  0
LINE
  5
233
330
1F
100
AcDbEntity
  8
101
  6
Continuous
 62
     7
370
    30
100
AcDbLine
 10
44.74630234849722
 20
132.6864974136016
 30
0.0
 11
42.10766634849731
 21
134.9569524136016
 31
0.0
  0
LINE
  5
234
330
1F
100
AcDbEntity
  8
101
  6
Continuous
 62
     7
370
    30
100
AcDbLine
 10
47.07812034849722
 20
130.8455884136015
 30
0.0
 11
44.74630234849722
 21
132.6864974136016
 31
0.0
  0
LINE
  5
235
330
1F
100
AcDbEntity
  8
101
  6
Continuous
 62
     7
370
    30
100
AcDbLine
 10
174.7758473484973
 20
159.6251344136016
 30
0.0
 11
175.2667573484973
 21
143.9160434136016
 31
0.0
  0
LINE
  5
236
330
1F
100
AcDbEntity
  8
101
  6
Continuous
 62
     7
370
    30
100
AcDbLine
 10
173.6099383484973
 20
161.8342254136016
 30
0.0
 11
174.7758473484973
 21
159.6251344136016
 31
0.0
  0
LINE
  5
237
330
1F
100
AcDbEntity
  8
101
  6
Continuous
 62
     7
370
    30
100
AcDbLine
 10
170.9713023484972
 20
164.4114974136016
 30
0.0
 11
173.6099383484973
 21
161.8342254136016
 31
0.0
  0
LINE
  5
238
330
1F
100
AcDbEntity
  8
101
  6
Continuous
 62
     7
370
    30
100
AcDbLine
 10
166.7372113484973
 20
167.1114974136016
 30
0.0
 11
170.9713023484972
 21
164.4114974136016
 31
0.0
  0
LINE
  5
239
330
1F
100
AcDbEntity
  8
101
  6
Continuous
 62
     7
370
    30
100
AcDbLine
 10
161.5826663484972
 20
169.2592254136015
 30
0.0
 11
166.7372113484973
 21
167.1114974136016
 31
0.0
  0
LINE
  5
23A
330
1F
100
AcDbEntity
  8
101
  6
Continuous
 62
     7
370
    30
100
AcDbLine
 10
153.9735753484973
 20
172.4501344136016
 30
0.0
 11
161.5826663484972
 21
169.2592254136015
 31
0.0
  0
LINE
  5
23B
330
1F
100
AcDbEntity
  8
101
  6
Continuous
 62
     7
370
    30
100
AcDbLine
 10
145.3826663484973
 20
174.7819524136016
 30
0.0
 11
153.9735753484973
 21
172.4501344136016
 31
0.0
  0
LINE
  5
23C
330
1F
100
AcDbEntity
  8
101
  6
Continuous
 62
     7
370
    30
100
AcDbLine
 10
136.3622113484972
 20
176.2546794136015
 30
0.0
 11
145.3826663484973
 21
174.7819524136016
 31
0.0
  0
LINE
  5
23D
330
1F
100
AcDbEntity
  8
101
  6
Continuous
 62
     7
370
    30
100
AcDbLine
 10
127.3417573484972
 20
177.2364974136016
 30
0.0
 11
136.3622113484972
 21
176.2546794136015
 31
0.0
  0
LINE
  5
23E
330
1F
100
AcDbEntity
  8
101
  6
Continuous
 62
     7
370
    30
100
AcDbLine
 10
117.2167573484972
 20
177.7274064136016
 30
0.0
 11
127.3417573484972
 21
177.2364974136016
 31
0.0
  0
LINE
  5
23F
330
1F
100
AcDbEntity
  8
101
  6
Continuous
 62
     7
370
    30
100
AcDbLine
 10
103.2258473484972
 20
177.9728614136016
 30
0.0
 11
117.2167573484972
 21
177.7274064136016
 31
0.0
  0
LINE
  5
240
330
1F
100
AcDbEntity
  8
101
  6
Continuous
 62
     7
370
    30
100
AcDbLine
 10
94.81902934849731
 20
177.5433164136015
 30
0.0
 11
103.2258473484972
 21
177.9728614136016
 31
0.0
  0
LINE
  5
241
330
1F
100
AcDbEntity
  8
101
  6
Continuous
 62
     7
370
    30
100
AcDbLine
 10
85.79857534849722
 20
176.8069524136016
 30
0.0
 11
94.81902934849731
 21
177.5433164136015
 31
0.0
  0
LINE
  5
242
330
1F
100
AcDbEntity
  8
101
  6
Continuous
 62
     7
370
    30
100
AcDbLine
 10
77.3917573484973
 20
175.8251344136016
 30
0.0
 11
85.79857534849722
 21
176.8069524136016
 31
0.0
  0
LINE
  5
243
330
1F
100
AcDbEntity
  8
101
  6
Continuous
 62
     7
370
    30
100
AcDbLine
 10
71.62357534849727
 20
174.9046794136016
 30
0.0
 11
77.3917573484973
 21
175.8251344136016
 31
0.0
  0
LINE
  5
244
330
1F
100
AcDbEntity
  8
101
  6
Continuous
 62
     7
370
    30
100
AcDbLine
 10
65.67130234849728
 20
173.4933164136016
 30
0.0
 11
71.62357534849727
 21
174.9046794136016
 31
0.0
  0
LINE
  5
245
330
1F
100
AcDbEntity
  8
101
  6
Continuous
 62
     7
370
    30
100
AcDbLine
 10
58.67584734849729
 20
171.6524064136016
 30
0.0
 11
65.67130234849728
 21
173.4933164136016
 31
0.0
  0
LINE
  5
246
330
1F
100
AcDbEntity
  8
101
  6
Continuous
 62
     7
370
    30
100
AcDbLine
 10
53.15312034849726
 20
169.3205884136016
 30
0.0
 11
58.67584734849729
 21
171.6524064136016
 31
0.0
  0
LINE
  5
247
330
1F
100
AcDbEntity
  8
101
  6
Continuous
 62
     7
370
    30
100
AcDbLine
 10
48.36675734849721
 20
167.1114974136016
 30
0.0
 11
53.15312034849726
 21
169.3205884136016
 31
0.0
  0
LINE
  5
248
330
1F
100
AcDbEntity
  8
101
  6
Continuous
 62
     7
370
    30
100
AcDbLine
 10
45.2372113484972
 20
165.3319524136016
 30
0.0
 11
48.36675734849721
 21
167.1114974136016
 31
0.0
  0
LINE
  5
249
330
1F
100
AcDbEntity
  8
101
  6
Continuous
 62
     7
370
    30
100
AcDbLine
 10
42.53721134849727
 20
162.7546794136015
 30
0.0
 11
45.2372113484972
 21
165.3319524136016
 31
0.0
  0
LINE
  5
24A
330
1F
100
AcDbEntity
  8
101
  6
Continuous
 62
     7
370
    30
100
AcDbLine
 10
39.28493834849721
 20
158.9501344136016
 30
0.0
 11
42.53721134849727
 21
162.7546794136015
 31
0.0
  0
LINE
  5
24B
330
1F
100
AcDbEntity
  8
101
  6
Continuous
 62
     7
370
    30
100
AcDbLine
 10
38.1803933484973
 20
145.3274064136016
 30
0.0
 11
39.28493834849721
 21
158.9501344136016
 31
0.0
  0
LINE
  5
24C
330
1F
100
AcDbEntity
  8
101
  6
Continuous
 62
     7
370
    30
100
AcDbLine
 10
38.11902934849727
 20
143.5478614136015
 30
0.0
 11
38.1803933484973
 21
145.3274064136016
 31
0.0
  0
LINE
  5
24D
330
1F
100
AcDbEntity
  8
101
  6
Continuous
 62
     7
370
    30
100
AcDbLine
 10
38.8247113484973
 20
141.6149064136015
 30
0.0
 11
38.11902934849727
 21
143.5478614136015
 31
0.0
  0
LINE
  5
24E
330
1F
100
AcDbEntity
  8
101
  6
Continuous
 62
     7
370
    30
100
AcDbLine
 10
160.1713023484973
 20
178.5251344136016
 30
0.0
 11
160.7849383484973
 21
169.6274064136016
 31
0.0
  0
LINE
  5
24F
330
1F
100
AcDbEntity
  8
101
  6
Continuous
 62
     7
370
    30
100
AcDbLine
 10
159.1281203484973
 20
187.1774064136015
 30
0.0
 11
160.1713023484973
 21
178.5251344136016
 31
0.0
  0
LINE
  5
250
330
1F
100
AcDbEntity
  8
101
  6
Continuous
 62
     7
370
    30
100
AcDbLine
 10
158.0235753484972
 20
189.9387704136016
 30
0.0
 11
159.1281203484973
 21
187.1774064136015
 31
0.0
  0
LINE
  5
251
330
1F
100
AcDbEntity
  8
101
  6
Continuous
 62
     7
370
    30
100
AcDbLine
 10
155.9372113484972
 20
192.7001344136016
 30
0.0
 11
158.0235753484972
 21
189.9387704136016
 31
0.0
  0
LINE
  5
252
330
1F
100
AcDbEntity
  8
101
  6
Continuous
 62
     7
370
    30
100
AcDbLine
 10
152.3167573484972
 20
196.0751344136016
 30
0.0
 11
155.9372113484972
 21
192.7001344136016
 31
0.0
  0
LINE
  5
253
330
1F
100
AcDbEntity
  8
101
  6
Continuous
 62
     7
370
    30
100
AcDbLine
 10
147.2849383484973
 20
198.7137704136016
 30
0.0
 11
152.3167573484972
 21
196.0751344136016
 31
0.0
  0
LINE
  5
254
330
1F
100
AcDbEntity
  8
101
  6
Continuous
 62
     7
370
    30
100
AcDbLine
 10
140.4122113484973
 20
201.4751344136016
 30
0.0
 11
147.2849383484973
 21
198.7137704136016
 31
0.0
  0
LINE
  5
255
330
1F
100
AcDbEntity
  8
101
  6
Continuous
 62
     7
370
    30
100
AcDbLine
 10
133.0485753484972
 20
203.4387704136016
 30
0.0
 11
140.4122113484973
 21
201.4751344136016
 31
0.0
  0
LINE
  5
256
330
1F
100
AcDbEntity
  8
101
  6
Continuous
 62
     7
370
    30
100
AcDbLine
 10
124.8872113484973
 20
205.0342254136016
 30
0.0
 11
133.0485753484972
 21
203.4387704136016
 31
0.0
  0
LINE
  5
257
330
1F
100
AcDbEntity
  8
101
  6
Continuous
 62
     7
370
    30
100
AcDbLine
 10
118.6281203484973
 20
206.0774064136016
 30
0.0
 11
124.8872113484973
 21
205.0342254136016
 31
0.0
  0
LINE
  5
258
330
1F
100
AcDbEntity
  8
101
  6
Continuous
 62
     7
370
    30
100
AcDbLine
 10
112.4917573484973
 20
206.2614974136016
 30
0.0
 11
118.6281203484973
 21
206.0774064136016
 31
0.0
  0
LINE
  5
259
330
1F
100
AcDbEntity
  8
101
  6
Continuous
 62
     7
370
    30
100
AcDbLine
 10
107.5826663484972
 20
206.4455884136016
 30
0.0
 11
112.4917573484973
 21
206.2614974136016
 31
0.0
  0
LINE
  5
25A
330
1F
100
AcDbEntity
  8
101
  6
Continuous
 62
     7
370
    30
100
AcDbLine
 10
101.3849383484972
 20
206.3842254136015
 30
0.0
 11
107.5826663484972
 21
206.4455884136016
 31
0.0
  0
LINE
  5
25B
330
1F
100
AcDbEntity
  8
101
  6
Continuous
 62
     7
370
    30
100
AcDbLine
 10
92.67130234849728
 20
205.7705884136016
 30
0.0
 11
101.3849383484972
 21
206.3842254136015
 31
0.0
  0
LINE
  5
25C
330
1F
100
AcDbEntity
  8
101
  6
Continuous
 62
     7
370
    30
100
AcDbLine
 10
83.46675734849723
 20
204.0524064136015
 30
0.0
 11
92.67130234849728
 21
205.7705884136016
 31
0.0
  0
LINE
  5
25D
330
1F
100
AcDbEntity
  8
101
  6
Continuous
 62
     7
370
    30
100
AcDbLine
 10
74.26221134849729
 20
201.8433164136016
 30
0.0
 11
83.46675734849723
 21
204.0524064136015
 31
0.0
  0
LINE
  5
25E
330
1F
100
AcDbEntity
  8
101
  6
Continuous
 62
     7
370
    30
100
AcDbLine
 10
67.0213023484973
 20
198.6524064136016
 30
0.0
 11
74.26221134849729
 21
201.8433164136016
 31
0.0
  0
LINE
  5
25F
330
1F
100
AcDbEntity
  8
101
  6
Continuous
 62
     7
370
    30
100
AcDbLine
 10
60.63948434849724
 20
193.8660434136016
 30
0.0
 11
67.0213023484973
 21
198.6524064136016
 31
0.0
  0
LINE
  5
260
330
1F
100
AcDbEntity
  8
101
  6
Continuous
 62
     7
370
    30
100
AcDbLine
 10
57.20312034849722
 20
190.5524064136015
 30
0.0
 11
60.63948434849724
 21
193.8660434136016
 31
0.0
  0
LINE
  5
261
330
1F
100
AcDbEntity
  8
101
  6
Continuous
 62
     7
370
    30
100
AcDbLine
 10
55.73039334849725
 20
188.2205884136015
 30
0.0
 11
57.20312034849722
 21
190.5524064136015
 31
0.0
  0
LINE
  5
262
330
1F
100
AcDbEntity
  8
101
  6
Continuous
 62
     7
370
    30
100
AcDbLine
 10
53.15312034849726
 20
169.3205884136016
 30
0.0
 11
55.73039334849725
 21
188.2205884136015
 31
0.0
  0
LINE
  5
263
330
1F
100
AcDbEntity
  8
101
  6
Continuous
 62
     7
370
    30
100
AcDbLine
 10
19.70993834849728
 20
183.6796794136016
 30
0.0
 11
18.70318034849729
 21
183.6145774136016
 31
0.0
  0
LINE
  5
264
330
1F
100
AcDbEntity
  8
101
  6
Continuous
 62
     7
370
    30
100
AcDbLine
 10
20.35425734849727
 20
183.8330884136016
 30
0.0
 11
19.70993834849728
 21
183.6796794136016
 31
0.0
  0
LINE
  5
265
330
1F
100
AcDbEntity
  8
101
  6
Continuous
 62
     7
370
    30
100
AcDbLine
 10
20.78380234849724
 20
184.3853614136016
 30
0.0
 11
20.35425734849727
 21
183.8330884136016
 31
0.0
  0
LINE
  5
266
330
1F
100
AcDbEntity
  8
101
  6
Continuous
 62
     7
370
    30
100
AcDbLine
 10
21.24402934849727
 20
184.9376344136016
 30
0.0
 11
20.78380234849724
 21
184.3853614136016
 31
0.0
  0
LINE
  5
267
330
1F
100
AcDbEntity
  8
101
  6
Continuous
 62
     7
370
    30
100
AcDbLine
 10
21.24402934849727
 20
185.8274064136016
 30
0.0
 11
21.24402934849727
 21
184.9376344136016
 31
0.0
  0
LINE
  5
268
330
1F
100
AcDbEntity
  8
101
  6
Continuous
 62
     7
370
    30
100
AcDbLine
 10
20.72243834849721
 20
186.8092254136016
 30
0.0
 11
21.24402934849727
 21
185.8274064136016
 31
0.0
  0
LINE
  5
269
330
1F
100
AcDbEntity
  8
101
  6
Continuous
 62
     7
370
    30
100
AcDbLine
 10
20.0167573484973
 20
187.9444524136016
 30
0.0
 11
20.72243834849721
 21
186.8092254136016
 31
0.0
  0
LINE
  5
26A
330
1F
100
AcDbEntity
  8
101
  6
Continuous
 62
     7
370
    30
100
AcDbLine
 10
19.18280634849723
 20
188.9674324136016
 30
0.0
 11
20.0167573484973
 21
187.9444524136016
 31
0.0
  0
LINE
  5
26B
330
1F
100
AcDbEntity
  8
101
  6
Continuous
 62
     7
370
    30
100
AcDbLine
 10
17.74630234849721
 20
188.6194524136016
 30
0.0
 11
18.42130234849728
 21
188.9262704136016
 31
0.0
  0
LINE
  5
26C
330
1F
100
AcDbEntity
  8
101
  6
Continuous
 62
     7
370
    30
100
AcDbLine
 10
17.53152934849729
 20
188.0364974136016
 30
0.0
 11
17.74630234849721
 21
188.6194524136016
 31
0.0
  0
LINE
  5
26D
330
1F
100
AcDbEntity
  8
101
  6
Continuous
 62
     7
370
    30
100
AcDbLine
 10
17.47016634849726
 20
187.0853614136016
 30
0.0
 11
17.53152934849729
 21
188.0364974136016
 31
0.0
  0
LINE
  5
26E
330
1F
100
AcDbEntity
  8
101
  6
Continuous
 62
     7
370
    30
100
AcDbLine
 10
17.65425734849723
 20
185.7660434136016
 30
0.0
 11
17.47016634849726
 21
187.0853614136016
 31
0.0
  0
LINE
  5
26F
330
1F
100
AcDbEntity
  8
101
  6
Continuous
 62
     7
370
    30
100
AcDbLine
 10
18.0838023484973
 20
184.5694524136016
 30
0.0
 11
17.65425734849723
 21
185.7660434136016
 31
0.0
  0
LINE
  5
270
330
1F
100
AcDbEntity
  8
101
  6
Continuous
 62
     7
370
    30
100
AcDbLine
 10
18.82016634849728
 20
183.4342254136016
 30
0.0
 11
18.0838023484973
 21
184.5694524136016
 31
0.0
  0
LINE
  5
271
330
1F
100
AcDbEntity
  8
101
  6
Continuous
 62
     7
370
    30
100
AcDbLine
 10
19.86334734849729
 20
182.4217254136016
 30
0.0
 11
18.82016634849728
 21
183.4342254136016
 31
0.0
  0
LINE
  5
272
330
1F
100
AcDbEntity
  8
101
  6
Continuous
 62
     7
370
    30
100
AcDbLine
 10
20.69175734849725
 20
182.2989974136016
 30
0.0
 11
19.86334734849729
 21
182.4217254136016
 31
0.0
  0
LINE
  5
273
330
1F
100
AcDbEntity
  8
101
  6
Continuous
 62
     7
370
    30
100
AcDbLine
 10
21.73493834849726
 20
182.7592254136015
 30
0.0
 11
20.69175734849725
 21
182.2989974136016
 31
0.0
  0
LINE
  5
274
330
1F
100
AcDbEntity
  8
101
  6
Continuous
 62
     7
370
    30
100
AcDbLine
 10
22.40993834849721
 20
183.8637704136016
 30
0.0
 11
21.73493834849726
 21
182.7592254136015
 31
0.0
  0
LINE
  5
275
330
1F
100
AcDbEntity
  8
101
  6
Continuous
 62
     7
370
    30
100
AcDbLine
 10
22.40993834849721
 20
184.7842254136016
 30
0.0
 11
22.40993834849721
 21
183.8637704136016
 31
0.0
  0
LINE
  5
276
330
1F
100
AcDbEntity
  8
101
  6
Continuous
 62
     7
370
    30
100
AcDbLine
 10
22.22584734849724
 20
185.9194524136016
 30
0.0
 11
22.40993834849721
 21
184.7842254136016
 31
0.0
  0
LINE
  5
277
330
1F
100
AcDbEntity
  8
101
  6
Continuous
 62
     7
370
    30
100
AcDbLine
 10
21.42812034849723
 20
187.3308164136016
 30
0.0
 11
22.22584734849724
 21
185.9194524136016
 31
0.0
  0
LINE
  5
278
330
1F
100
AcDbEntity
  8
101
  6
Continuous
 62
     7
370
    30
100
AcDbLine
 10
20.44630234849726
 20
188.5274064136016
 30
0.0
 11
21.42812034849723
 21
187.3308164136016
 31
0.0
  0
LINE
  5
279
330
1F
100
AcDbEntity
  8
101
  6
Continuous
 62
     7
370
    30
100
AcDbLine
 10
19.55652934849727
 20
188.9876344136016
 30
0.0
 11
20.44630234849726
 21
188.5274064136016
 31
0.0
  0
LINE
  5
27A
330
1F
100
AcDbEntity
  8
101
  6
Continuous
 62
     7
370
    30
100
AcDbLine
 10
18.42130234849728
 20
188.9262704136016
 30
0.0
 11
19.55652934849727
 21
188.9876344136016
 31
0.0
  0
LINE
  5
27B
330
1F
100
AcDbEntity
  8
101
  6
Continuous
 62
     7
370
    30
100
AcDbLine
 10
34.28380234849723
 20
180.0285434136015
 30
0.0
 11
37.40832334849731
 21
176.3425634136016
 31
0.0
  0
LINE
  5
27C
330
1F
100
AcDbEntity
  8
101
  6
Continuous
 62
     7
370
    30
100
AcDbLine
 10
31.5838023484973
 20
179.9058164136016
 30
0.0
 11
31.1100943484972
 21
175.4841524136016
 31
0.0
  0
LINE
  5
27D
330
1F
100
AcDbEntity
  8
101
  6
Continuous
 62
     7
370
    30
100
AcDbLine
 10
32.68834734849722
 20
180.8876344136016
 30
0.0
 11
36.71827934849725
 21
176.2485144136016
 31
0.0
  0
LINE
  5
27E
330
1F
100
AcDbEntity
  8
101
  6
Continuous
 62
     7
370
    30
100
AcDbLine
 10
23.11562034849723
 20
147.5058164136016
 30
0.0
 11
39.19289334849723
 21
151.8012704136016
 31
0.0
  0
LINE
  5
27F
330
1F
100
AcDbEntity
  8
101
  6
Continuous
 62
     7
370
    30
100
AcDbLine
 10
26.42925734849721
 20
147.7512704136016
 30
0.0
 11
38.8247113484973
 21
141.6149064136015
 31
0.0
  0
LINE
  5
280
330
1F
100
AcDbEntity
  8
101
  6
Continuous
 62
     7
370
    30
100
AcDbLine
 10
25.57016634849728
 20
172.9103614136016
 30
0.0
 11
24.95652934849725
 21
149.1012704136016
 31
0.0
  0
LINE
  5
281
330
1F
100
AcDbEntity
  8
101
  6
Continuous
 62
     7
370
    30
100
AcDbLine
 10
27.53380234849724
 20
174.9967254136016
 30
0.0
 11
47.56902934849732
 21
177.7274064136016
 31
0.0
  0
LINE
  5
282
330
1F
100
AcDbEntity
  8
101
  6
Continuous
 62
     7
370
    30
100
AcDbLine
 10
24.8338023484973
 20
175.1194524136016
 30
0.0
 11
27.53380234849724
 21
174.9967254136016
 31
0.0
  0
LINE
  5
283
330
1F
100
AcDbEntity
  8
101
  6
Continuous
 62
     7
370
    30
100
AcDbLine
 10
23.48380234849728
 20
173.8921794136016
 30
0.0
 11
24.8338023484973
 21
175.1194524136016
 31
0.0
  0
LINE
  5
284
330
1F
100
AcDbEntity
  8
101
  6
Continuous
 62
     7
370
    30
100
AcDbLine
 10
23.11562034849723
 20
147.5058164136016
 30
0.0
 11
23.48380234849728
 21
173.8921794136016
 31
0.0
  0
LINE
  5
285
330
1F
100
AcDbEntity
  8
101
  6
Continuous
 62
     7
370
    30
100
AcDbLine
 10
23.11562034849723
 20
147.5058164136016
 30
0.0
 11
40.05198434849726
 21
139.5285434136015
 31
0.0
  0
LINE
  5
286
330
1F
100
AcDbEntity
  8
101
  6
Continuous
 62
     7
370
    30
100
AcDbLine
 10
42.32243834849724
 20
107.4046794136016
 30
0.0
 11
41.75852834849727
 21
107.5104794136016
 31
0.0
  0
LINE
  5
287
330
1F
100
AcDbEntity
  8
101
  6
Continuous
 62
     7
370
    30
100
AcDbLine
 10
42.87471134849725
 20
107.4353614136016
 30
0.0
 11
42.32243834849724
 21
107.4046794136016
 31
0.0
  0
LINE
  5
288
330
1F
100
AcDbEntity
  8
101
  6
Continuous
 62
     7
370
    30
100
AcDbLine
 10
43.48834734849729
 20
107.6808164136016
 30
0.0
 11
42.87471134849725
 21
107.4353614136016
 31
0.0
  0
LINE
  5
289
330
1F
100
AcDbEntity
  8
101
  6
Continuous
 62
     7
370
    30
100
AcDbLine
 10
43.94857534849721
 20
108.2024064136016
 30
0.0
 11
43.48834734849729
 21
107.6808164136016
 31
0.0
  0
LINE
  5
28A
330
1F
100
AcDbEntity
  8
101
  6
Continuous
 62
     7
370
    30
100
AcDbLine
 10
44.19402934849732
 20
109.0614974136016
 30
0.0
 11
43.94857534849721
 21
108.2024064136016
 31
0.0
  0
LINE
  5
28B
330
1F
100
AcDbEntity
  8
101
  6
Continuous
 62
     7
370
    30
100
AcDbLine
 10
44.16334734849725
 20
110.1046794136016
 30
0.0
 11
44.19402934849732
 21
109.0614974136016
 31
0.0
  0
LINE
  5
28C
330
1F
100
AcDbEntity
  8
101
  6
Continuous
 62
     7
370
    30
100
AcDbLine
 10
44.10198434849722
 20
111.3626344136016
 30
0.0
 11
44.16334734849725
 21
110.1046794136016
 31
0.0
  0
LINE
  5
28D
330
1F
100
AcDbEntity
  8
101
  6
Continuous
 62
     7
370
    30
100
AcDbLine
 10
43.73380234849729
 20
112.1910434136016
 30
0.0
 11
44.10198434849722
 21
111.3626344136016
 31
0.0
  0
LINE
  5
28E
330
1F
100
AcDbEntity
  8
101
  6
Continuous
 62
     7
370
    30
100
AcDbLine
 10
43.15084734849732
 20
112.7433164136016
 30
0.0
 11
43.73380234849729
 21
112.1910434136016
 31
0.0
  0
LINE
  5
28F
330
1F
100
AcDbEntity
  8
101
  6
Continuous
 62
     7
370
    30
100
AcDbLine
 10
42.29175734849728
 20
113.0501344136016
 30
0.0
 11
43.15084734849732
 21
112.7433164136016
 31
0.0
  0
LINE
  5
290
330
1F
100
AcDbEntity
  8
101
  6
Continuous
 62
     7
370
    30
100
AcDbLine
 10
41.51948734849723
 20
112.8040694136016
 30
0.0
 11
42.29175734849728
 21
113.0501344136016
 31
0.0
  0
LINE
  5
291
330
1F
100
AcDbEntity
  8
101
  6
Continuous
 62
     7
370
    30
100
AcDbLine
 10
42.72130234849724
 20
106.4535434136016
 30
0.0
 11
41.92357534849723
 21
107.0978614136016
 31
0.0
  0
LINE
  5
292
330
1F
100
AcDbEntity
  8
101
  6
Continuous
 62
     7
370
    30
100
AcDbLine
 10
43.76448434849724
 20
106.3921794136016
 30
0.0
 11
42.72130234849724
 21
106.4535434136016
 31
0.0
  0
LINE
  5
293
330
1F
100
AcDbEntity
  8
101
  6
Continuous
 62
     7
370
    30
100
AcDbLine
 10
44.53152934849729
 20
107.1899064136016
 30
0.0
 11
43.76448434849724
 21
106.3921794136016
 31
0.0
  0
LINE
  5
294
330
1F
100
AcDbEntity
  8
101
  6
Continuous
 62
     7
370
    30
100
AcDbLine
 10
45.08380234849731
 20
108.0489974136016
 30
0.0
 11
44.53152934849729
 21
107.1899064136016
 31
0.0
  0
LINE
  5
295
330
1F
100
AcDbEntity
  8
101
  6
Continuous
 62
     7
370
    30
100
AcDbLine
 10
45.20652934849725
 20
109.1842254136016
 30
0.0
 11
45.08380234849731
 21
108.0489974136016
 31
0.0
  0
LINE
  5
296
330
1F
100
AcDbEntity
  8
101
  6
Continuous
 62
     7
370
    30
100
AcDbLine
 10
45.17584734849729
 20
110.4728614136016
 30
0.0
 11
45.20652934849725
 21
109.1842254136016
 31
0.0
  0
LINE
  5
297
330
1F
100
AcDbEntity
  8
101
  6
Continuous
 62
     7
370
    30
100
AcDbLine
 10
44.9303933484973
 20
111.9455884136016
 30
0.0
 11
45.17584734849729
 21
110.4728614136016
 31
0.0
  0
LINE
  5
298
330
1F
100
AcDbEntity
  8
101
  6
Continuous
 62
     7
370
    30
100
AcDbLine
 10
44.19402934849732
 20
112.8660434136016
 30
0.0
 11
44.9303933484973
 21
111.9455884136016
 31
0.0
  0
LINE
  5
299
330
1F
100
AcDbEntity
  8
101
  6
Continuous
 62
     7
370
    30
100
AcDbLine
 10
43.45766634849722
 20
113.4796794136016
 30
0.0
 11
44.19402934849732
 21
112.8660434136016
 31
0.0
  0
LINE
  5
29A
330
1F
100
AcDbEntity
  8
101
  6
Continuous
 62
     7
370
    30
100
AcDbLine
 10
42.32243834849724
 20
113.6024064136016
 30
0.0
 11
43.45766634849722
 21
113.4796794136016
 31
0.0
  0
LINE
  5
29B
330
1F
100
AcDbEntity
  8
101
  6
Continuous
 62
     7
370
    30
100
AcDbLine
 10
41.61675734849721
 20
113.0194524136016
 30
0.0
 11
42.32243834849724
 21
113.6024064136016
 31
0.0
  0
LINE
  5
29C
330
1F
100
AcDbEntity
  8
101
  6
Continuous
 62
     7
370
    30
100
AcDbLine
 10
41.18721134849725
 20
112.0683164136016
 30
0.0
 11
41.61675734849721
 21
113.0194524136016
 31
0.0
  0
LINE
  5
29D
330
1F
100
AcDbEntity
  8
101
  6
Continuous
 62
     7
370
    30
100
AcDbLine
 10
41.06448434849731
 20
110.9637704136016
 30
0.0
 11
41.18721134849725
 21
112.0683164136016
 31
0.0
  0
LINE
  5
29E
330
1F
100
AcDbEntity
  8
101
  6
Continuous
 62
     7
370
    30
100
AcDbLine
 10
41.06448434849731
 20
109.6444524136016
 30
0.0
 11
41.06448434849731
 21
110.9637704136016
 31
0.0
  0
LINE
  5
29F
330
1F
100
AcDbEntity
  8
101
  6
Continuous
 62
     7
370
    30
100
AcDbLine
 10
41.43266634849724
 20
108.3251344136016
 30
0.0
 11
41.06448434849731
 21
109.6444524136016
 31
0.0
  0
LINE
  5
2A0
330
1F
100
AcDbEntity
  8
101
  6
Continuous
 62
     7
370
    30
100
AcDbLine
 10
41.92357534849723
 20
107.0978614136016
 30
0.0
 11
41.43266634849724
 21
108.3251344136016
 31
0.0
  0
LINE
  5
2A1
330
1F
100
AcDbEntity
  8
101
  6
Continuous
 62
     7
370
    30
100
AcDbLine
 10
17.96107534849725
 20
116.3330884136016
 30
0.0
 11
17.00993834849723
 21
116.1183164136016
 31
0.0
  0
LINE
  5
2A2
330
1F
100
AcDbEntity
  8
101
  6
Continuous
 62
     7
370
    30
100
AcDbLine
 10
18.51334734849727
 20
116.7933164136016
 30
0.0
 11
17.96107534849725
 21
116.3330884136016
 31
0.0
  0
LINE
  5
2A3
330
1F
100
AcDbEntity
  8
101
  6
Continuous
 62
     7
370
    30
100
AcDbLine
 10
18.88152934849731
 20
117.4683164136016
 30
0.0
 11
18.51334734849727
 21
116.7933164136016
 31
0.0
  0
LINE
  5
2A4
330
1F
100
AcDbEntity
  8
101
  6
Continuous
 62
     7
370
    30
100
AcDbLine
 10
19.03493834849721
 20
118.6035434136016
 30
0.0
 11
18.88152934849731
 21
117.4683164136016
 31
0.0
  0
LINE
  5
2A5
330
1F
100
AcDbEntity
  8
101
  6
Continuous
 62
     7
370
    30
100
AcDbLine
 10
19.00425734849725
 20
119.6160434136016
 30
0.0
 11
19.03493834849721
 21
118.6035434136016
 31
0.0
  0
LINE
  5
2A6
330
1F
100
AcDbEntity
  8
101
  6
Continuous
 62
     7
370
    30
100
AcDbLine
 10
18.88152934849731
 20
120.8739974136016
 30
0.0
 11
19.00425734849725
 21
119.6160434136016
 31
0.0
  0
LINE
  5
2A7
330
1F
100
AcDbEntity
  8
101
  6
Continuous
 62
     7
370
    30
100
AcDbLine
 10
18.45198434849724
 20
121.7637704136016
 30
0.0
 11
18.88152934849731
 21
120.8739974136016
 31
0.0
  0
LINE
  5
2A8
330
1F
100
AcDbEntity
  8
101
  6
Continuous
 62
     7
370
    30
100
AcDbLine
 10
17.6849383484973
 20
122.1012704136016
 30
0.0
 11
18.45198434849724
 21
121.7637704136016
 31
0.0
  0
LINE
  5
2A9
330
1F
100
AcDbEntity
  8
101
  6
Continuous
 62
     7
370
    30
100
AcDbLine
 10
16.85652934849722
 20
122.1319524136016
 30
0.0
 11
17.6849383484973
 21
122.1012704136016
 31
0.0
  0
LINE
  5
2AA
330
1F
100
AcDbEntity
  8
101
  6
Continuous
 62
     7
370
    30
100
AcDbLine
 10
16.09959134849723
 20
121.7785704136016
 30
0.0
 11
16.85652934849722
 21
122.1319524136016
 31
0.0
  0
LINE
  5
2AB
330
1F
100
AcDbEntity
  8
101
  6
Continuous
 62
     7
370
    30
100
AcDbLine
 10
16.00568434849729
 20
121.1540684136016
 30
0.0
 11
16.09959134849723
 21
121.7785704136016
 31
0.0
  0
LINE
  5
2AC
330
1F
100
AcDbEntity
  8
101
  6
Continuous
 62
     7
370
    30
100
AcDbLine
 10
18.42130234849728
 20
115.6274064136016
 30
0.0
 11
17.00993834849723
 21
116.1183164136016
 31
0.0
  0
LINE
  5
2AD
330
1F
100
AcDbEntity
  8
101
  6
Continuous
 62
     7
370
    30
100
AcDbLine
 10
19.7713023484973
 20
116.4864974136016
 30
0.0
 11
18.42130234849728
 21
115.6274064136016
 31
0.0
  0
LINE
  5
2AE
330
1F
100
AcDbEntity
  8
101
  6
Continuous
 62
     7
370
    30
100
AcDbLine
 10
20.20084734849727
 20
118.8796794136016
 30
0.0
 11
19.7713023484973
 21
116.4864974136016
 31
0.0
  0
LINE
  5
2AF
330
1F
100
AcDbEntity
  8
101
  6
Continuous
 62
     7
370
    30
100
AcDbLine
 10
20.0167573484973
 20
121.1501344136016
 30
0.0
 11
20.20084734849727
 21
118.8796794136016
 31
0.0
  0
LINE
  5
2B0
330
1F
100
AcDbEntity
  8
101
  6
Continuous
 62
     7
370
    30
100
AcDbLine
 10
19.15766634849726
 20
122.6228614136016
 30
0.0
 11
20.0167573484973
 21
121.1501344136016
 31
0.0
  0
LINE
  5
2B1
330
1F
100
AcDbEntity
  8
101
  6
Continuous
 62
     7
370
    30
100
AcDbLine
 10
17.56221134849725
 20
123.2978614136016
 30
0.0
 11
19.15766634849726
 21
122.6228614136016
 31
0.0
  0
LINE
  5
2B2
330
1F
100
AcDbEntity
  8
101
  6
Continuous
 62
     7
370
    30
100
AcDbLine
 10
16.27357534849725
 20
122.5614974136016
 30
0.0
 11
17.56221134849725
 21
123.2978614136016
 31
0.0
  0
LINE
  5
2B3
330
1F
100
AcDbEntity
  8
101
  6
Continuous
 62
     7
370
    30
100
AcDbLine
 10
16.02812034849726
 20
121.4569524136016
 30
0.0
 11
16.27357534849725
 21
122.5614974136016
 31
0.0
  0
LINE
  5
2B4
330
1F
100
AcDbEntity
  8
101
  6
Continuous
 62
     7
370
    30
100
AcDbLine
 10
15.90539334849732
 20
119.8001344136016
 30
0.0
 11
16.02812034849726
 21
121.4569524136016
 31
0.0
  0
LINE
  5
2B5
330
1F
100
AcDbEntity
  8
101
  6
Continuous
 62
     7
370
    30
100
AcDbLine
 10
16.15084734849731
 20
117.7751344136016
 30
0.0
 11
15.90539334849732
 21
119.8001344136016
 31
0.0
  0
LINE
  5
2B6
330
1F
100
AcDbEntity
  8
101
  6
Continuous
 62
     7
370
    30
100
AcDbLine
 10
17.00993834849723
 20
116.1183164136016
 30
0.0
 11
16.15084734849731
 21
117.7751344136016
 31
0.0
  0
LINE
  5
2B7
330
1F
100
AcDbEntity
  8
101
  6
Continuous
 62
     7
370
    30
100
AcDbLine
 10
43.27357534849725
 20
99.30467941360158
 30
0.0
 11
46.40312034849726
 21
98.93649741360156
 31
0.0
  0
LINE
  5
2B8
330
1F
100
AcDbEntity
  8
101
  6
Continuous
 62
     7
370
    30
100
AcDbLine
 10
40.2667573484973
 20
99.73422541360156
 30
0.0
 11
43.27357534849725
 21
99.30467941360158
 31
0.0
  0
LINE
  5
2B9
330
1F
100
AcDbEntity
  8
101
  6
Continuous
 62
     7
370
    30
100
AcDbLine
 10
30.32584734849727
 20
103.2933164136016
 30
0.0
 11
40.2667573484973
 21
99.73422541360156
 31
0.0
  0
LINE
  5
2BA
330
1F
100
AcDbEntity
  8
101
  6
Continuous
 62
     7
370
    30
100
AcDbLine
 10
19.95539334849727
 20
106.8524064136016
 30
0.0
 11
30.32584734849727
 21
103.2933164136016
 31
0.0
  0
LINE
  5
2BB
330
1F
100
AcDbEntity
  8
101
  6
Continuous
 62
     7
370
    30
100
AcDbLine
 10
13.63493834849723
 20
109.1842254136016
 30
0.0
 11
19.95539334849727
 21
106.8524064136016
 31
0.0
  0
LINE
  5
2BC
330
1F
100
AcDbEntity
  8
101
  6
Continuous
 62
     7
370
    30
100
AcDbLine
 10
12.28493834849721
 20
110.2887704136016
 30
0.0
 11
13.63493834849723
 21
109.1842254136016
 31
0.0
  0
LINE
  5
2BD
330
1F
100
AcDbEntity
  8
101
  6
Continuous
 62
     7
370
    30
100
AcDbLine
 10
11.54857534849723
 20
111.2705884136016
 30
0.0
 11
12.28493834849721
 21
110.2887704136016
 31
0.0
  0
LINE
  5
2BE
330
1F
100
AcDbEntity
  8
101
  6
Continuous
 62
     7
370
    30
100
AcDbLine
 10
11.42584734849729
 20
113.2955884136016
 30
0.0
 11
11.54857534849723
 21
111.2705884136016
 31
0.0
  0
LINE
  5
2BF
330
1F
100
AcDbEntity
  8
101
  6
Continuous
 62
     7
370
    30
100
AcDbLine
 10
12.59175734849723
 20
133.8524064136016
 30
0.0
 11
11.42584734849729
 21
113.2955884136016
 31
0.0
  0
LINE
  5
2C0
330
1F
100
AcDbEntity
  8
101
  6
Continuous
 62
     7
370
    30
100
AcDbLine
 10
13.5735753484972
 20
150.6660434136016
 30
0.0
 11
12.59175734849723
 21
133.8524064136016
 31
0.0
  0
LINE
  5
2C1
330
1F
100
AcDbEntity
  8
101
  6
Continuous
 62
     7
370
    30
100
AcDbLine
 10
14.24857534849727
 20
161.9569524136016
 30
0.0
 11
13.5735753484972
 21
150.6660434136016
 31
0.0
  0
LINE
  5
2C2
330
1F
100
AcDbEntity
  8
101
  6
Continuous
 62
     7
370
    30
100
AcDbLine
 10
14.18721134849725
 20
173.2478614136016
 30
0.0
 11
14.24857534849727
 21
161.9569524136016
 31
0.0
  0
LINE
  5
2C3
330
1F
100
AcDbEntity
  8
101
  6
Continuous
 62
     7
370
    30
100
AcDbLine
 10
13.81902934849731
 20
193.9274064136015
 30
0.0
 11
14.18721134849725
 21
173.2478614136016
 31
0.0
  0
LINE
  5
2C4
330
1F
100
AcDbEntity
  8
101
  6
Continuous
 62
     7
370
    30
100
AcDbLine
 10
14.3099383484973
 20
196.8728614136016
 30
0.0
 11
13.81902934849731
 21
193.9274064136015
 31
0.0
  0
LINE
  5
2C5
330
1F
100
AcDbEntity
  8
101
  6
Continuous
 62
     7
370
    30
100
AcDbLine
 10
15.41176934849725
 20
198.5503154136016
 30
0.0
 11
14.3099383484973
 21
196.8728614136016
 31
0.0
  0
LINE
  5
2C6
330
1F
100
AcDbEntity
  8
101
  6
Continuous
 62
     7
370
    30
100
AcDbLine
 10
8.173575348497227
 20
197.1796794136016
 30
0.0
 11
9.584938348497278
 21
198.8364974136015
 31
0.0
  0
LINE
  5
2C7
330
1F
100
AcDbEntity
  8
101
  6
Continuous
 62
     7
370
    30
100
AcDbLine
 10
7.437211348497247
 20
195.2774064136016
 30
0.0
 11
8.173575348497227
 21
197.1796794136016
 31
0.0
  0
LINE
  5
2C8
330
1F
100
AcDbEntity
  8
101
  6
Continuous
 62
     7
370
    30
100
AcDbLine
 10
7.130393348497226
 20
192.3319524136016
 30
0.0
 11
7.437211348497247
 21
195.2774064136016
 31
0.0
  0
LINE
  5
2C9
330
1F
100
AcDbEntity
  8
101
  6
Continuous
 62
     7
370
    30
100
AcDbLine
 10
6.578120348497212
 20
172.6342254136015
 30
0.0
 11
7.130393348497226
 21
192.3319524136016
 31
0.0
  0
LINE
  5
2CA
330
1F
100
AcDbEntity
  8
101
  6
Continuous
 62
     7
370
    30
100
AcDbLine
 10
5.71902934849729
 20
150.6046794136016
 30
0.0
 11
6.578120348497212
 21
172.6342254136015
 31
0.0
  0
LINE
  5
2CB
330
1F
100
AcDbEntity
  8
101
  6
Continuous
 62
     7
370
    30
100
AcDbLine
 10
5.289484348497215
 20
129.8024064136015
 30
0.0
 11
5.71902934849729
 21
150.6046794136016
 31
0.0
  0
LINE
  5
2CC
330
1F
100
AcDbEntity
  8
101
  6
Continuous
 62
     7
370
    30
100
AcDbLine
 10
5.228120348497303
 20
115.9955884136016
 30
0.0
 11
5.289484348497215
 21
129.8024064136015
 31
0.0
  0
LINE
  5
2CD
330
1F
100
AcDbEntity
  8
101
  6
Continuous
 62
     7
370
    30
100
AcDbLine
 10
5.53493834849721
 20
112.6205884136016
 30
0.0
 11
5.228120348497303
 21
115.9955884136016
 31
0.0
  0
LINE
  5
2CE
330
1F
100
AcDbEntity
  8
101
  6
Continuous
 62
     7
370
    30
100
AcDbLine
 10
5.780393348497203
 20
110.4728614136016
 30
0.0
 11
5.53493834849721
 21
112.6205884136016
 31
0.0
  0
LINE
  5
2CF
330
1F
100
AcDbEntity
  8
101
  6
Continuous
 62
     7
370
    30
100
AcDbLine
 10
7.682666348497239
 20
107.7114974136016
 30
0.0
 11
5.780393348497203
 21
110.4728614136016
 31
0.0
  0
LINE
  5
2D0
330
1F
100
AcDbEntity
  8
101
  6
Continuous
 62
     7
370
    30
100
AcDbLine
 10
37.99630234849722
 20
97.70922541360159
 30
0.0
 11
7.682666348497239
 21
107.7114974136016
 31
0.0
  0
LINE
  5
2D1
330
1F
100
AcDbEntity
  8
101
  6
Continuous
 62
     7
370
    30
100
AcDbLine
 10
40.47502834849727
 20
97.37214041360158
 30
0.0
 11
37.99630234849722
 21
97.70922541360159
 31
0.0
  0
LINE
  5
2D2
330
1F
100
AcDbEntity
  8
101
  6
Continuous
 62
     7
370
    30
100
AcDbLine
 10
37.56675734849726
 20
96.60467941360156
 30
0.0
 11
46.40312034849726
 21
98.93649741360156
 31
0.0
  0
LINE
  5
2D3
330
1F
100
AcDbEntity
  8
101
  6
Continuous
 62
     7
370
    30
100
AcDbLine
 10
16.02812034849726
 20
103.0478614136016
 30
0.0
 11
37.56675734849726
 21
96.60467941360156
 31
0.0
  0
LINE
  5
2D4
330
1F
100
AcDbEntity
  8
101
  6
Continuous
 62
     7
370
    30
100
AcDbLine
 10
3.019029348497245
 20
107.5274064136016
 30
0.0
 11
16.02812034849726
 21
103.0478614136016
 31
0.0
  0
LINE
  5
2D5
330
1F
100
AcDbEntity
  8
101
  6
Continuous
 62
     7
370
    30
100
AcDbLine
 10
1.853120348497303
 20
108.2024064136016
 30
0.0
 11
3.019029348497245
 21
107.5274064136016
 31
0.0
  0
LINE
  5
2D6
330
1F
100
AcDbEntity
  8
101
  6
Continuous
 62
     7
370
    30
100
AcDbLine
 10
0.9326663484972393
 20
109.4910434136016
 30
0.0
 11
1.853120348497303
 21
108.2024064136016
 31
0.0
  0
LINE
  5
2D7
330
1F
100
AcDbEntity
  8
101
  6
Continuous
 62
     7
370
    30
100
AcDbLine
 10
0.7485753484972726
 20
110.9024064136016
 30
0.0
 11
0.9326663484972393
 21
109.4910434136016
 31
0.0
  0
LINE
  5
2D8
330
1F
100
AcDbEntity
  8
101
  6
Continuous
 62
     7
370
    30
100
AcDbLine
 10
3.141757348497297
 20
197.2410434136016
 30
0.0
 11
0.7485753484972726
 21
110.9024064136016
 31
0.0
  0
LINE
  5
2D9
330
1F
100
AcDbEntity
  8
101
  6
Continuous
 62
     7
370
    30
100
AcDbLine
 10
4.123575348497273
 20
198.8364974136015
 30
0.0
 11
3.141757348497297
 21
197.2410434136016
 31
0.0
  0
LINE
  5
2DA
330
1F
100
AcDbEntity
  8
101
  6
Continuous
 62
     7
370
    30
100
AcDbLine
 10
14.92357534849723
 20
198.8364974136015
 30
0.0
 11
4.123575348497273
 21
198.8364974136015
 31
0.0
  0
LINE
  5
2DB
330
1F
100
AcDbEntity
  8
101
  6
Continuous
 62
     7
370
    30
100
AcDbLine
 10
43.39630234849731
 20
182.1455884136016
 30
0.0
 11
14.92357534849723
 21
198.8364974136015
 31
0.0
  0
LINE
  5
2DC
330
1F
100
AcDbEntity
  8
101
  6
Continuous
 62
     7
370
    30
100
AcDbLine
 10
47.56902934849732
 20
177.7274064136016
 30
0.0
 11
43.39630234849731
 21
182.1455884136016
 31
0.0
  0
LINE
  5
2DD
330
1F
100
AcDbEntity
  8
101
  6
Continuous
 62
     7
370
    30
100
AcDbLine
 10
53.21448434849729
 20
178.7092254136016
 30
0.0
 11
47.56902934849732
 21
177.7274064136016
 31
0.0
  0
LINE
  5
2DE
330
1F
100
AcDbEntity
  8
1
  6
Continuous
 62
     7
370
    30
100
AcDbLine
 10
96.41448434849721
 20
73.74672541360155
 30
0.0
 11
102.2440293484973
 21
73.80808841360158
 31
0.0
  0
LINE
  5
2DF
330
1F
100
AcDbEntity
  8
1
  6
Continuous
 62
     7
370
    30
100
AcDbLine
 10
102.2440293484973
 20
73.80808841360158
 30
0.0
 11
111.7745392969066
 21
73.91201699789008
 31
0.0
  0
LINE
  5
2E0
330
1F
100
AcDbEntity
  8
101
  6
Continuous
 62
     7
370
    30
100
AcDbLine
 10
115.9894843484973
 20
73.74672541360155
 30
0.0
 11
111.7745392969067
 21
73.91201699789008
 31
0.0
  0
LINE
  5
2E1
330
1F
100
AcDbEntity
  8
1
  6
Continuous
 62
     7
370
    30
100
AcDbLine
 10
125.2553933484972
 20
73.68536141360158
 30
0.0
 11
136.6076663484972
 21
73.19445241360157
 31
0.0
  0
LINE
  5
2E2
330
1F
100
AcDbEntity
  8
101
  6
Continuous
 62
     7
370
    30
100
AcDbLine
 10
96.59857534849729
 20
69.88081641360156
 30
0.0
 11
96.54802191436224
 21
73.74813105772202
 31
0.0
  0
LINE
  5
2E3
330
1F
100
AcDbEntity
  8
101
  6
Continuous
 62
     7
370
    30
100
AcDbLine
 10
45.69743834849724
 20
63.40695241360157
 30
0.0
 11
45.69743834849724
 21
51.87058841360158
 31
0.0
  0
LINE
  5
2E4
330
1F
100
AcDbEntity
  8
1
  6
Continuous
 62
     7
370
    30
100
AcDbLine
 10
50.42243834849726
 20
59.05013441360157
 30
0.0
 11
50.43293139101295
 21
66.50191159301716
 31
0.0
  0
LINE
  5
2E5
330
1F
100
AcDbEntity
  8
1
  6
Continuous
 62
     7
370
    30
100
AcDbLine
 10
51.01372139335647
 20
60.40737739390116
 30
0.0
 11
50.42489400532336
 21
60.79405258316336
 31
0.0
  0
LINE
  5
2E6
330
1F
100
AcDbEntity
  8
1
  6
Continuous
 62
     7
370
    30
100
AcDbLine
 10
54.01174799510498
 20
63.63410761369065
 30
0.0
 11
50.43121207981753
 21
65.28091931057284
 31
0.0
  0
LINE
  5
2E7
330
1F
100
AcDbEntity
  8
1
  6
Continuous
 62
     7
370
    30
100
AcDbLine
 10
45.69743834849724
 20
63.40695241360157
 30
0.0
 11
45.705642146827
 21
65.72738397673811
 31
0.0
  0
LINE
  5
2E8
330
1F
100
AcDbEntity
  8
1
  6
Continuous
 62
     7
370
    30
100
AcDbLine
 10
45.705642146827
 20
65.72738397673811
 30
0.0
 11
45.85825842589677
 21
66.15470955813345
 31
0.0
  0
LINE
  5
2E9
330
1F
100
AcDbEntity
  8
1
  6
Continuous
 62
     7
370
    30
100
AcDbLine
 10
45.85825842589677
 20
66.15470955813345
 30
0.0
 11
46.89604912357115
 21
66.61255839534272
 31
0.0
  0
LINE
  5
2EA
330
1F
100
AcDbEntity
  8
1
  6
Continuous
 62
     7
370
    30
100
AcDbLine
 10
46.89604912357115
 20
66.61255839534272
 30
0.0
 11
48.94110726310598
 21
67.46720955813342
 31
0.0
  0
LINE
  5
2EB
330
1F
100
AcDbEntity
  8
1
  6
Continuous
 62
     7
370
    30
100
AcDbLine
 10
48.94110726310598
 20
67.46720955813342
 30
0.0
 11
50.74197935612924
 21
67.98610490697061
 31
0.0
  0
LINE
  5
2EC
330
1F
100
AcDbEntity
  8
1
  6
Continuous
 62
     7
370
    30
100
AcDbLine
 10
50.74197935612924
 20
67.98610490697061
 30
0.0
 11
52.39023517008273
 21
68.41343048836598
 31
0.0
  0
LINE
  5
2ED
330
1F
100
AcDbEntity
  8
1
  6
Continuous
 62
     7
370
    30
100
AcDbLine
 10
52.39023517008273
 20
68.41343048836598
 30
0.0
 11
54.25215377473385
 21
68.84075606976131
 31
0.0
  0
LINE
  5
2EE
330
1F
100
AcDbEntity
  8
1
  6
Continuous
 62
     7
370
    30
100
AcDbLine
 10
54.25215377473385
 20
68.84075606976131
 30
0.0
 11
55.91448434849722
 21
69.32854341360155
 31
0.0
  0
LINE
  5
2EF
330
1F
100
AcDbEntity
  8
1
  6
Continuous
 62
     7
370
    30
100
AcDbLine
 10
50.43293139101295
 20
66.50191159301716
 30
0.0
 11
50.34311246019443
 21
67.87117715729448
 31
0.0
  0
LINE
  5
2F0
330
1F
100
AcDbEntity
  8
1
  6
Continuous
 62
     7
370
    30
100
AcDbLine
 10
53.73607534849723
 20
68.19331641360156
 30
0.0
 11
53.71477849197706
 21
68.71742403765319
 31
0.0
  0
LINE
  5
2F1
330
1F
100
AcDbEntity
  8
101
  6
Continuous
 62
     7
370
    30
100
AcDbLine
 10
167.6283398412979
 20
62.14190027952216
 30
0.0
 11
167.7190293484973
 21
60.98308841360156
 31
0.0
  0
LINE
  5
2F2
330
1F
100
AcDbEntity
  8
1
  6
Continuous
 62
     7
370
    30
100
AcDbLine
 10
160.6561833484973
 20
69.62448141360159
 30
0.0
 11
165.2499735421737
 21
68.62709327906362
 31
0.0
  0
LINE
  5
2F3
330
1F
100
AcDbEntity
  8
1
  6
Continuous
 62
     7
370
    30
100
AcDbLine
 10
165.2499735421737
 20
68.62709327906362
 30
0.0
 11
167.5697409840342
 21
68.19976769766828
 31
0.0
  0
LINE
  5
2F4
330
1F
100
AcDbEntity
  8
1
  6
Continuous
 62
     7
370
    30
100
AcDbLine
 10
167.3866014491504
 20
65.51372118604041
 30
0.0
 11
163.9679967979878
 21
64.53697699999393
 31
0.0
  0
LINE
  5
2F5
330
1F
100
AcDbEntity
  8
1
  6
Continuous
 62
     7
370
    30
100
AcDbLine
 10
167.6283398412979
 20
62.14190027952216
 30
0.0
 11
167.5697409840342
 21
68.19976769766828
 31
0.0
  0
LINE
  5
2F6
330
1F
100
AcDbEntity
  8
1
  6
Continuous
 62
     7
370
    30
100
AcDbLine
 10
167.5697409840342
 20
68.19976769766828
 30
0.0
 11
169.1874735421737
 21
67.89453513952873
 31
0.0
  0
LINE
  5
2F7
330
1F
100
AcDbEntity
  8
1
  6
Continuous
 62
     7
370
    30
100
AcDbLine
 10
169.1874735421737
 20
67.89453513952873
 30
0.0
 11
171.0799154026388
 21
67.55877932557524
 31
0.0
  0
LINE
  5
2F8
330
1F
100
AcDbEntity
  8
1
  6
Continuous
 62
     7
370
    30
100
AcDbLine
 10
171.0799154026388
 20
67.55877932557524
 30
0.0
 11
172.1172312451208
 21
67.25401458655907
 31
0.0
  0
LINE
  5
2F9
330
1F
100
AcDbEntity
  8
1
  6
Continuous
 62
     7
370
    30
100
AcDbLine
 10
172.1172312451208
 20
67.2540145865591
 30
0.0
 11
172.1065293484972
 21
64.45013441360157
 31
0.0
  0
LINE
  5
2FA
330
1F
100
AcDbEntity
  8
1
  6
Continuous
 62
     7
370
    30
100
AcDbLine
 10
163.9679967979878
 20
64.53697699999393
 30
0.0
 11
160.5850187093489
 21
64.1696619558927
 31
0.0
  0
LINE
  5
2FB
330
1F
100
AcDbEntity
  8
1
  6
Continuous
 62
     7
370
    30
100
AcDbLine
 10
167.3866014491504
 20
65.51372118604041
 30
0.0
 11
167.5951321403445
 21
65.57486568244548
 31
0.0
  0
LINE
  5
2FC
330
1F
100
AcDbEntity
  8
1
  6
Continuous
 62
     7
370
    30
100
AcDbLine
 10
160.6561833484973
 20
69.62448141360159
 30
0.0
 11
160.0485753484972
 21
69.88081641360156
 31
0.0
  0
LINE
  5
2FD
330
1F
100
AcDbEntity
  8
1
  6
Continuous
 62
     7
370
    30
100
AcDbLine
 10
68.92357534849722
 20
76.44672541360157
 30
0.0
 11
79.01414505380316
 21
77.37200606976114
 31
0.0
  0
LINE
  5
2FE
330
1F
100
AcDbEntity
  8
1
  6
Continuous
 62
     7
370
    30
100
AcDbLine
 10
79.01414505380316
 20
77.37200606976114
 30
0.0
 11
87.55223264250364
 21
77.73828513952856
 31
0.0
  0
LINE
  5
2FF
330
1F
100
AcDbEntity
  8
1
  6
Continuous
 62
     7
370
    30
100
AcDbLine
 10
87.55223264250364
 20
77.73828513952856
 30
0.0
 11
95.92402877473316
 21
78.04351769766811
 31
0.0
  0
LINE
  5
300
330
1F
100
AcDbEntity
  8
1
  6
Continuous
 62
     7
370
    30
100
AcDbLine
 10
95.92402877473316
 20
78.04351769766811
 30
0.0
 11
103.3717031933377
 21
78.22665723255182
 31
0.0
  0
LINE
  5
301
330
1F
100
AcDbEntity
  8
1
  6
Continuous
 62
     7
370
    30
100
AcDbLine
 10
103.3717031933377
 20
78.22665723255182
 30
0.0
 11
113.2612380770584
 21
78.1656107209239
 31
0.0
  0
LINE
  5
302
330
1F
100
AcDbEntity
  8
1
  6
Continuous
 62
     7
370
    30
100
AcDbLine
 10
113.2612380770584
 20
78.1656107209239
 30
0.0
 11
122.1740287747327
 21
78.04351769766811
 31
0.0
  0
LINE
  5
303
330
1F
100
AcDbEntity
  8
1
  6
Continuous
 62
     7
370
    30
100
AcDbLine
 10
122.1740287747327
 20
78.04351769766811
 30
0.0
 11
130.0490287747326
 21
77.86037816278437
 31
0.0
  0
LINE
  5
304
330
1F
100
AcDbEntity
  8
1
  6
Continuous
 62
     7
370
    30
100
AcDbLine
 10
130.0490287747326
 20
77.86037816278437
 30
0.0
 11
135.2576663484973
 21
77.79672541360156
 31
0.0
  0
LINE
  5
305
330
1F
100
AcDbEntity
  8
101
  6
Continuous
 62
     7
370
    30
100
AcDbLine
 10
102.0599383484973
 20
79.45354341360155
 30
0.0
 11
102.0668009804232
 21
78.19456947321785
 31
0.0
  0
LINE
  5
306
330
1F
100
AcDbEntity
  8
1
  6
Continuous
 62
     7
370
    30
100
AcDbLine
 10
97.1508473484972
 20
78.71717941360157
 30
0.0
 11
97.14478377474094
 21
78.07353626324206
 31
0.0
  0
ENDSEC
  0
SECTION
  2
OBJECTS
  0
DICTIONARY
  5
C
330
0
100
AcDbDictionary
281
     1
  3
ACAD_DETAILVIEWSTYLE
350
30E
  3
ACAD_GROUP
350
D
  3
ACAD_LAYOUT
350
1A
  3
ACAD_MATERIAL
350
43
  3
ACAD_MLEADERSTYLE
350
6B
  3
ACAD_MLINESTYLE
350
17
  3
ACAD_PLOTSETTINGS
350
19
  3
ACAD_PLOTSTYLENAME
350
E
  3
ACAD_SCALELIST
350
47
  3
ACAD_SECTIONVIEWSTYLE
350
30F
  3
ACAD_TABLESTYLE
350
69
  3
ACAD_VISUALSTYLE
350
2A
  3
ACDB_RECOMPOSE_DATA
350
30B
  3
AcDbVariableDictionary
350
307
  0
SUN
  5
6D
330
29
100
AcDbSun
 90
        1
290
     0
 63
     7
421
 16777215
 40
1.0
291
     1
 91
  2455826
 92
 54000000
292
     0
 70
     2
 71
   256
280
     1
  0
DICTIONARY
  5
30E
102
{ACAD_REACTORS
330
C
102
}
330
C
100
AcDbDictionary
281
     1
  0
DICTIONARY
  5
D
102
{ACAD_REACTORS
330
C
102
}
330
C
100
AcDbDictionary
281
     1
  0
DICTIONARY
  5
1A
102
{ACAD_REACTORS
330
C
102
}
330
C
100
AcDbDictionary
281
     1
  3
Layout1
350
1E
  3
Layout2
350
26
  3
Model
350
22
  0
DICTIONARY
  5
43
102
{ACAD_REACTORS
330
C
102
}
330
C
100
AcDbDictionary
281
     1
  3
ByBlock
350
45
  3
ByLayer
350
44
  3
Global
350
46
  0
DICTIONARY
  5
6B
102
{ACAD_REACTORS
330
C
102
}
330
C
100
AcDbDictionary
281
     1
  3
Standard
350
6C
  0
DICTIONARY
  5
17
102
{ACAD_REACTORS
330
C
102
}
330
C
100
AcDbDictionary
281
     1
  3
Standard
350
18
  0
DICTIONARY
  5
19
102
{ACAD_REACTORS
330
C
102
}
330
C
100
AcDbDictionary
281
     1
  0
ACDBDICTIONARYWDFLT
  5
E
102
{ACAD_REACTORS
330
C
102
}
330
C
100
AcDbDictionary
281
     1
  3
Normal
350
F
100
AcDbDictionaryWithDefault
340
F
  0
DICTIONARY
  5
47
102
{ACAD_REACTORS
330
C
102
}
330
C
100
AcDbDictionary
281
     1
  3
A0
350
48
  3
A1
350
49
  3
A2
350
4A
  3
A3
350
4B
  3
A4
350
4C
  3
A5
350
4D
  3
A6
350
4E
  3
A7
350
4F
  3
A8
350
50
  3
A9
350
51
  3
B0
350
52
  3
B1
350
53
  3
B2
350
54
  3
B3
350
55
  3
B4
350
56
  3
B5
350
57
  3
B6
350
58
  3
B7
350
59
  3
B8
350
5A
  3
B9
350
5B
  3
C0
350
5C
  3
C1
350
5D
  3
C2
350
5E
  3
C3
350
5F
  3
C4
350
60
  3
C5
350
61
  3
C6
350
62
  3
C7
350
63
  3
C8
350
64
  3
C9
350
65
  3
D0
350
66
  3
D1
350
67
  3
D2
350
68
  0
DICTIONARY
  5
30F
102
{ACAD_REACTORS
330
C
102
}
330
C
100
AcDbDictionary
281
     1
  0
DICTIONARY
  5
69
102
{ACAD_REACTORS
330
C
102
}
330
C
100
AcDbDictionary
281
     1
  3
Standard
350
6A
  0
DICTIONARY
  5
2A
102
{ACAD_REACTORS
330
C
102
}
330
C
100
AcDbDictionary
281
     1
  3
2dWireframe
350
2F
  3
Basic
350
32
  3
Brighten
350
36
  3
ColorChange
350
3A
  3
Conceptual
350
34
  3
Dim
350
35
  3
EdgeColorOff
350
3D
  3
Facepattern
350
39
  3
Flat
350
2B
  3
FlatWithEdges
350
2C
  3
Gouraud
350
2D
  3
GouraudWithEdges
350
2E
  3
Hidden
350
31
  3
JitterOff
350
3B
  3
Linepattern
350
38
  3
OverhangOff
350
3C
  3
Realistic
350
33
  3
Shaded
350
42
  3
Shaded with edges
350
41
  3
Shades of Gray
350
3E
  3
Sketchy
350
3F
  3
Thicken
350
37
  3
Wireframe
350
30
  3
X-Ray
350
40
  0
XRECORD
  5
30B
102
{ACAD_REACTORS
330
C
102
}
330
C
100
AcDbXrecord
280
     1
 90
        1
330
6A
  0
DICTIONARY
  5
307
102
{ACAD_REACTORS
330
C
102
}
330
C
100
AcDbDictionary
281
     1
  3
CANNOSCALE
350
308
  3
CMLEADERSTYLE
350
30D
  3
CTABLESTYLE
350
30C
  0
LAYOUT
  5
1E
102
{ACAD_REACTORS
330
1A
102
}
330
1A
100
AcDbPlotSettings
  1

  2
none_device
  4

  6

 40
0.0
 41
0.0
 42
0.0
 43
0.0
 44
0.0
 45
0.0
 46
0.0
 47
0.0
 48
0.0
 49
0.0
140
0.0
141
0.0
142
1.0
143
1.0
 70
   688
 72
     0
 73
     0
 74
     5
  7

 75
    16
 76
     0
 77
     2
 78
   300
147
1.0
148
0.0
149
0.0
100
AcDbLayout
  1
Layout1
 70
     1
 71
     1
 10
0.0
 20
0.0
 11
297.0
 21
210.0
 12
0.0
 22
0.0
 32
0.0
 14
0.0
 24
0.0
 34
0.0
 15
297.0
 25
210.0
 35
0.0
146
0.0
 13
0.0
 23
0.0
 33
0.0
 16
1.0
 26
0.0
 36
0.0
 17
0.0
 27
1.0
 37
0.0
 76
     0
330
1B
  0
LAYOUT
  5
26
102
{ACAD_REACTORS
330
1A
102
}
330
1A
100
AcDbPlotSettings
  1

  2
none_device
  4

  6

 40
0.0
 41
0.0
 42
0.0
 43
0.0
 44
0.0
 45
0.0
 46
0.0
 47
0.0
 48
0.0
 49
0.0
140
0.0
141
0.0
142
1.0
143
1.0
 70
   688
 72
     0
 73
     0
 74
     5
  7

 75
    16
 76
     0
 77
     2
 78
   300
147
1.0
148
0.0
149
0.0
100
AcDbLayout
  1
Layout2
 70
     1
 71
     2
 10
0.0
 20
0.0
 11
0.0
 21
0.0
 12
0.0
 22
0.0
 32
0.0
 14
0.0
 24
0.0
 34
0.0
 15
0.0
 25
0.0
 35
0.0
146
0.0
 13
0.0
 23
0.0
 33
0.0
 16
1.0
 26
0.0
 36
0.0
 17
0.0
 27
1.0
 37
0.0
 76
     0
330
23
  0
LAYOUT
  5
22
102
{ACAD_REACTORS
330
1A
102
}
330
1A
100
AcDbPlotSettings
  1

  2
none_device
  4
Letter_(8.50_x_11.00_Inches)
  6

 40
6.35
 41
6.35
 42
6.35000508
 43
6.35000508
 44
215.9
 45
279.4
 46
0.0
 47
0.0
 48
0.0
 49
0.0
140
0.0
141
0.0
142
1.0
143
1.0
 70
  1712
 72
     0
 73
     0
 74
     0
  7

 75
     0
 76
     0
 77
     2
 78
   300
147
1.0
148
0.0
149
0.0
100
AcDbLayout
  1
Model
 70
     1
 71
     0
 10
0.0
 20
0.0
 11
297.0
 21
210.0
 12
0.0
 22
0.0
 32
0.0
 14
-101.0038116472918
 24
-99.654545
 34
0.0
 15
286.4961883527082
 25
371.0434806060605
 35
0.0
146
0.0
 13
0.0
 23
0.0
 33
0.0
 16
1.0
 26
0.0
 36
0.0
 17
0.0
 27
1.0
 37
0.0
 76
     0
330
1F
331
29
  0
MATERIAL
  5
45
102
{ACAD_REACTORS
330
43
102
}
330
43
100
AcDbMaterial
  1
ByBlock
 72
     1
 94
      127
  0
MATERIAL
  5
44
102
{ACAD_REACTORS
330
43
102
}
330
43
100
AcDbMaterial
  1
ByLayer
 72
     1
 94
      127
  0
MATERIAL
  5
46
102
{ACAD_REACTORS
330
43
102
}
330
43
100
AcDbMaterial
  1
Global
 72
     1
 94
      127
  0
MLEADERSTYLE
  5
6C
102
{ACAD_REACTORS
330
6B
102
}
330
6B
100
AcDbMLeaderStyle
179
     2
170
     2
171
     1
172
     0
 90
        2
 40
0.0
 41
0.0
173
     1
 91
-1056964608
340
14
 92
       -2
290
     1
 42
0.09
291
     1
 43
0.36
  3
Standard
341
0
 44
0.18
300

342
11
174
     1
178
     6
175
     1
176
     0
 93
-1056964608
 45
0.18
292
     0
297
     0
 46
0.18
343
0
 94
-1056964608
 47
1.0
 49
1.0
140
1.0
293
     1
141
0.0
294
     1
177
     0
142
1.0
295
     0
296
     0
143
0.125
271
     0
272
     9
273
     9
298
     0
  0
MLINESTYLE
  5
18
102
{ACAD_REACTORS
330
17
102
}
330
17
100
AcDbMlineStyle
  2
Standard
 70
     0
  3

 62
   256
 51
90.0
 52
90.0
 71
     2
 49
0.5
 62
   256
  6
BYLAYER
 49
-0.5
 62
   256
  6
BYLAYER
  0
ACDBPLACEHOLDER
  5
F
102
{ACAD_REACTORS
330
E
102
}
330
E
  0
SCALE
  5
48
102
{ACAD_REACTORS
330
47
102
}
330
47
100
AcDbScale
 70
     0
300
1:1
140
1.0
141
1.0
290
     1
  0
SCALE
  5
49
102
{ACAD_REACTORS
330
47
102
}
330
47
100
AcDbScale
 70
     0
300
1:2
140
1.0
141
2.0
290
     0
  0
SCALE
  5
4A
102
{ACAD_REACTORS
330
47
102
}
330
47
100
AcDbScale
 70
     0
300
1:4
140
1.0
141
4.0
290
     0
  0
SCALE
  5
4B
102
{ACAD_REACTORS
330
47
102
}
330
47
100
AcDbScale
 70
     0
300
1:5
140
1.0
141
5.0
290
     0
  0
SCALE
  5
4C
102
{ACAD_REACTORS
330
47
102
}
330
47
100
AcDbScale
 70
     0
300
1:8
140
1.0
141
8.0
290
     0
  0
SCALE
  5
4D
102
{ACAD_REACTORS
330
47
102
}
330
47
100
AcDbScale
 70
     0
300
1:10
140
1.0
141
10.0
290
     0
  0
SCALE
  5
4E
102
{ACAD_REACTORS
330
47
102
}
330
47
100
AcDbScale
 70
     0
300
1:16
140
1.0
141
16.0
290
     0
  0
SCALE
  5
4F
102
{ACAD_REACTORS
330
47
102
}
330
47
100
AcDbScale
 70
     0
300
1:20
140
1.0
141
20.0
290
     0
  0
SCALE
  5
50
102
{ACAD_REACTORS
330
47
102
}
330
47
100
AcDbScale
 70
     0
300
1:30
140
1.0
141
30.0
290
     0
  0
SCALE
  5
51
102
{ACAD_REACTORS
330
47
102
}
330
47
100
AcDbScale
 70
     0
300
1:40
140
1.0
141
40.0
290
     0
  0
SCALE
  5
52
102
{ACAD_REACTORS
330
47
102
}
330
47
100
AcDbScale
 70
     0
300
1:50
140
1.0
141
50.0
290
     0
  0
SCALE
  5
53
102
{ACAD_REACTORS
330
47
102
}
330
47
100
AcDbScale
 70
     0
300
1:100
140
1.0
141
100.0
290
     0
  0
SCALE
  5
54
102
{ACAD_REACTORS
330
47
102
}
330
47
100
AcDbScale
 70
     0
300
2:1
140
2.0
141
1.0
290
     0
  0
SCALE
  5
55
102
{ACAD_REACTORS
330
47
102
}
330
47
100
AcDbScale
 70
     0
300
4:1
140
4.0
141
1.0
290
     0
  0
SCALE
  5
56
102
{ACAD_REACTORS
330
47
102
}
330
47
100
AcDbScale
 70
     0
300
8:1
140
8.0
141
1.0
290
     0
  0
SCALE
  5
57
102
{ACAD_REACTORS
330
47
102
}
330
47
100
AcDbScale
 70
     0
300
10:1
140
10.0
141
1.0
290
     0
  0
SCALE
  5
58
102
{ACAD_REACTORS
330
47
102
}
330
47
100
AcDbScale
 70
     0
300
100:1
140
100.0
141
1.0
290
     0
  0
SCALE
  5
59
102
{ACAD_REACTORS
330
47
102
}
330
47
100
AcDbScale
 70
     0
300
1/128" = 1'-0"
140
0.0078125
141
12.0
290
     0
  0
SCALE
  5
5A
102
{ACAD_REACTORS
330
47
102
}
330
47
100
AcDbScale
 70
     0
300
1/64" = 1'-0"
140
0.015625
141
12.0
290
     0
  0
SCALE
  5
5B
102
{ACAD_REACTORS
330
47
102
}
330
47
100
AcDbScale
 70
     0
300
1/32" = 1'-0"
140
0.03125
141
12.0
290
     0
  0
SCALE
  5
5C
102
{ACAD_REACTORS
330
47
102
}
330
47
100
AcDbScale
 70
     0
300
1/16" = 1'-0"
140
0.0625
141
12.0
290
     0
  0
SCALE
  5
5D
102
{ACAD_REACTORS
330
47
102
}
330
47
100
AcDbScale
 70
     0
300
3/32" = 1'-0"
140
0.09375
141
12.0
290
     0
  0
SCALE
  5
5E
102
{ACAD_REACTORS
330
47
102
}
330
47
100
AcDbScale
 70
     0
300
1/8" = 1'-0"
140
0.125
141
12.0
290
     0
  0
SCALE
  5
5F
102
{ACAD_REACTORS
330
47
102
}
330
47
100
AcDbScale
 70
     0
300
3/16" = 1'-0"
140
0.1875
141
12.0
290
     0
  0
SCALE
  5
60
102
{ACAD_REACTORS
330
47
102
}
330
47
100
AcDbScale
 70
     0
300
1/4" = 1'-0"
140
0.25
141
12.0
290
     0
  0
SCALE
  5
61
102
{ACAD_REACTORS
330
47
102
}
330
47
100
AcDbScale
 70
     0
300
3/8" = 1'-0"
140
0.375
141
12.0
290
     0
  0
SCALE
  5
62
102
{ACAD_REACTORS
330
47
102
}
330
47
100
AcDbScale
 70
     0
300
1/2" = 1'-0"
140
0.5
141
12.0
290
     0
  0
SCALE
  5
63
102
{ACAD_REACTORS
330
47
102
}
330
47
100
AcDbScale
 70
     0
300
3/4" = 1'-0"
140
0.75
141
12.0
290
     0
  0
SCALE
  5
64
102
{ACAD_REACTORS
330
47
102
}
330
47
100
AcDbScale
 70
     0
300
1" = 1'-0"
140
1.0
141
12.0
290
     0
  0
SCALE
  5
65
102
{ACAD_REACTORS
330
47
102
}
330
47
100
AcDbScale
 70
     0
300
1-1/2" = 1'-0"
140
1.5
141
12.0
290
     0
  0
SCALE
  5
66
102
{ACAD_REACTORS
330
47
102
}
330
47
100
AcDbScale
 70
     0
300
3" = 1'-0"
140
3.0
141
12.0
290
     0
  0
SCALE
  5
67
102
{ACAD_REACTORS
330
47
102
}
330
47
100
AcDbScale
 70
     0
300
6" = 1'-0"
140
6.0
141
12.0
290
     0
  0
SCALE
  5
68
102
{ACAD_REACTORS
330
47
102
}
330
47
100
AcDbScale
 70
     0
300
1'-0" = 1'-0"
140
12.0
141
12.0
290
     0
  0
TABLESTYLE
  5
6A
102
{ACAD_REACTORS
330
69
102
}
102
{ACAD_XDICTIONARY
360
309
102
}
330
69
100
AcDbTableStyle
  3
Standard
 70
     0
 71
     0
 40
0.06
 41
0.06
280
     0
281
     0
  7
Standard
140
0.18
170
     2
 62
     0
 63
   257
283
     0
 90
        4
 91
        0
  1

274
    -2
284
     1
 64
     0
275
    -2
285
     1
 65
     0
276
    -2
286
     1
 66
     0
277
    -2
287
     1
 67
     0
278
    -2
288
     1
 68
     0
279
    -2
289
     1
 69
     0
  7
Standard
140
0.25
170
     5
 62
     0
 63
   257
283
     0
 90
        4
 91
        0
  1

274
    -2
284
     1
 64
     0
275
    -2
285
     1
 65
     0
276
    -2
286
     1
 66
     0
277
    -2
287
     1
 67
     0
278
    -2
288
     1
 68
     0
279
    -2
289
     1
 69
     0
  7
Standard
140
0.18
170
     5
 62
     0
 63
   257
283
     0
 90
        4
 91
        0
  1

274
    -2
284
     1
 64
     0
275
    -2
285
     1
 65
     0
276
    -2
286
     1
 66
     0
277
    -2
287
     1
 67
     0
278
    -2
288
     1
 68
     0
279
    -2
289
     1
 69
     0
  0
VISUALSTYLE
  5
2F
102
{ACAD_REACTORS
330
2A
102
}
330
2A
100
AcDbVisualStyle
  2
2dWireframe
 70
     4
177
     3
291
     0
 70
    58
 90
        0
176
     1
 90
        2
176
     1
 90
        0
176
     1
 90
        0
176
     1
 40
0.6
176
     1
 40
30.0
176
     1
 62
     7
420
 16777215
176
     1
 90
        1
176
     1
 90
        4
176
     1
 62
     7
176
     1
 62
   257
176
     1
 90
        1
176
     1
 90
        1
176
     1
 40
1.0
176
     1
 90
        0
176
     1
 62
   257
176
     1
 40
1.0
176
     1
 90
        1
176
     1
 90
        6
176
     1
 90
        2
176
     1
 62
     7
176
     1
 90
        5
176
     1
 90
        0
176
     1
 90
        0
176
     1
290
     0
176
     1
 90
        1
176
     1
 40
0.0
176
     1
 90
        0
176
     1
290
     1
176
     1
290
     1
176
     1
290
     0
176
     1
290
     0
176
     1
290
     0
176
     1
290
     0
176
     1
290
     0
176
     1
290
     0
176
     1
290
     0
176
     1
 90
       50
176
     1
 40
0.0
176
     1
 40
1.0
176
     1
 90
        0
176
     1
 62
    18
420
        0
176
     1
 90
       50
176
     1
 90
        3
176
     1
 62
     5
420
      255
176
     1
290
     0
176
     1
 90
       50
176
     1
 90
       50
176
     1
 90
       50
176
     1
290
     0
176
     1
 90
       50
176
     1
 62
   256
176
     0
 40
1.0
176
     0
 90
        2
176
     1
  1
strokes_ogs.tif
176
     1
290
     0
176
     1
 40
1.0
176
     1
 40
1.0
176
     1
  0
VISUALSTYLE
  5
32
102
{ACAD_REACTORS
330
2A
102
}
330
2A
100
AcDbVisualStyle
  2
Basic
 70
     7
177
     3
291
     1
 70
    58
 90
        1
176
     1
 90
        0
176
     1
 90
        1
176
     1
 90
        0
176
     1
 40
0.6
176
     1
 40
30.0
176
     1
 62
     7
420
 16777215
176
     1
 90
        0
176
     1
 90
        4
176
     1
 62
     7
176
     1
 62
   257
176
     1
 90
        1
176
     1
 90
        1
176
     1
 40
1.0
176
     1
 90
        8
176
     1
 62
     7
176
     1
 40
1.0
176
     1
 90
        1
176
     1
 90
        6
176
     1
 90
        2
176
     1
 62
     7
176
     1
 90
        5
176
     1
 90
        0
176
     1
 90
        0
176
     1
290
     0
176
     1
 90
        1
176
     1
 40
0.0
176
     1
 90
        0
176
     1
290
     0
176
     1
290
     1
176
     1
290
     1
176
     1
290
     0
176
     1
290
     0
176
     1
290
     0
176
     1
290
     0
176
     1
290
     0
176
     1
290
     0
176
     1
 90
       50
176
     1
 40
0.0
176
     1
 40
1.0
176
     1
 90
        0
176
     1
 62
    18
420
        0
176
     1
 90
       50
176
     1
 90
        3
176
     1
 62
     5
420
      255
176
     1
290
     0
176
     1
 90
       50
176
     1
 90
       50
176
     1
 90
       50
176
     1
290
     0
176
     1
 90
       50
176
     1
 62
   256
176
     0
 40
1.0
176
     0
 90
        2
176
     1
  1
strokes_ogs.tif
176
     1
290
     0
176
     1
 40
1.0
176
     1
 40
1.0
176
     1
  0
VISUALSTYLE
  5
36
102
{ACAD_REACTORS
330
2A
102
}
330
2A
100
AcDbVisualStyle
  2
Brighten
 70
    12
177
     3
291
     1
 70
    58
 90
        2
176
     1
 90
        2
176
     1
 90
        0
176
     1
 90
        0
176
     1
 40
0.6
176
     1
 40
30.0
176
     1
 62
     7
420
 16777215
176
     1
 90
        1
176
     1
 90
        4
176
     1
 62
     7
176
     1
 62
   257
176
     1
 90
        1
176
     1
 90
        1
176
     1
 40
1.0
176
     1
 90
        8
176
     1
 62
     7
176
     1
 40
1.0
176
     1
 90
        1
176
     1
 90
        6
176
     1
 90
        2
176
     1
 62
     7
176
     1
 90
        5
176
     1
 90
        0
176
     1
 90
        0
176
     1
290
     0
176
     1
 90
        1
176
     1
 40
50.0
176
     1
 90
        0
176
     1
290
     0
176
     1
290
     1
176
     1
290
     1
176
     1
290
     0
176
     1
290
     0
176
     1
290
     0
176
     1
290
     0
176
     1
290
     0
176
     1
290
     0
176
     1
 90
       50
176
     1
 40
0.0
176
     1
 40
1.0
176
     1
 90
        0
176
     1
 62
    18
420
        0
176
     1
 90
       50
176
     1
 90
        3
176
     1
 62
     5
420
      255
176
     1
290
     0
176
     1
 90
       50
176
     1
 90
       50
176
     1
 90
       50
176
     1
290
     0
176
     1
 90
       50
176
     1
 62
   256
176
     0
 40
1.0
176
     0
 90
        2
176
     1
  1
strokes_ogs.tif
176
     1
290
     0
176
     1
 40
1.0
176
     1
 40
1.0
176
     1
  0
VISUALSTYLE
  5
3A
102
{ACAD_REACTORS
330
2A
102
}
330
2A
100
AcDbVisualStyle
  2
ColorChange
 70
    16
177
     3
291
     1
 70
    58
 90
        2
176
     1
 90
        2
176
     1
 90
        3
176
     1
 90
        0
176
     1
 40
0.6
176
     1
 40
30.0
176
     1
 62
     8
420
  8421504
176
     1
 90
        1
176
     1
 90
        4
176
     1
 62
     7
176
     1
 62
   257
176
     1
 90
        1
176
     1
 90
        1
176
     1
 40
1.0
176
     1
 90
        8
176
     1
 62
     8
420
  8421504
176
     1
 40
1.0
176
     1
 90
        1
176
     1
 90
        6
176
     1
 90
        2
176
     1
 62
     7
176
     1
 90
        5
176
     1
 90
        0
176
     1
 90
        0
176
     1
290
     0
176
     1
 90
        1
176
     1
 40
0.0
176
     1
 90
        0
176
     1
290
     0
176
     1
290
     1
176
     1
290
     1
176
     1
290
     0
176
     1
290
     0
176
     1
290
     0
176
     1
290
     0
176
     1
290
     0
176
     1
290
     0
176
     1
 90
       50
176
     1
 40
0.0
176
     1
 40
1.0
176
     1
 90
        0
176
     1
 62
    18
420
        0
176
     1
 90
       50
176
     1
 90
        3
176
     1
 62
     5
420
      255
176
     1
290
     0
176
     1
 90
       50
176
     1
 90
       50
176
     1
 90
       50
176
     1
290
     0
176
     1
 90
       50
176
     1
 62
   256
176
     0
 40
1.0
176
     0
 90
        2
176
     1
  1
strokes_ogs.tif
176
     1
290
     0
176
     1
 40
1.0
176
     1
 40
1.0
176
     1
  0
VISUALSTYLE
  5
34
102
{ACAD_REACTORS
330
2A
102
}
330
2A
100
AcDbVisualStyle
  2
Conceptual
 70
     9
177
     3
291
     0
 70
    58
 90
        3
176
     1
 90
        2
176
     1
 90
        0
176
     1
 90
        0
176
     1
 40
0.6
176
     1
 40
30.0
176
     1
 62
     7
420
 16777215
176
     1
 90
        2
176
     1
 90
        2
176
     1
 62
     7
176
     1
 62
   257
176
     1
 90
        1
176
     1
 90
        1
176
     1
 40
179.0
176
     1
 90
        8
176
     1
 62
     7
176
     1
 40
1.0
176
     1
 90
        1
176
     1
 90
        6
176
     1
 90
        2
176
     1
 62
     7
176
     1
 90
        3
176
     1
 90
        0
176
     1
 90
        0
176
     1
290
     0
176
     1
 90
        1
176
     1
 40
0.0
176
     1
 90
        0
176
     1
290
     0
176
     1
290
     1
176
     1
290
     1
176
     1
290
     0
176
     1
290
     0
176
     1
290
     0
176
     1
290
     0
176
     1
290
     0
176
     1
290
     0
176
     1
 90
       50
176
     1
 40
0.0
176
     1
 40
1.0
176
     1
 90
        0
176
     1
 62
    18
420
        0
176
     1
 90
       50
176
     1
 90
        3
176
     1
 62
     5
420
      255
176
     1
290
     0
176
     1
 90
       50
176
     1
 90
       50
176
     1
 90
       50
176
     1
290
     0
176
     1
 90
       50
176
     1
 62
   256
176
     0
 40
1.0
176
     0
 90
        2
176
     1
  1
strokes_ogs.tif
176
     1
290
     0
176
     1
 40
1.0
176
     1
 40
1.0
176
     1
  0
VISUALSTYLE
  5
35
102
{ACAD_REACTORS
330
2A
102
}
330
2A
100
AcDbVisualStyle
  2
Dim
 70
    11
177
     3
291
     1
 70
    58
 90
        2
176
     1
 90
        2
176
     1
 90
        0
176
     1
 90
        0
176
     1
 40
0.6
176
     1
 40
30.0
176
     1
 62
     7
420
 16777215
176
     1
 90
        1
176
     1
 90
        4
176
     1
 62
     7
176
     1
 62
   257
176
     1
 90
        1
176
     1
 90
        1
176
     1
 40
1.0
176
     1
 90
        8
176
     1
 62
     7
176
     1
 40
1.0
176
     1
 90
        1
176
     1
 90
        6
176
     1
 90
        2
176
     1
 62
     7
176
     1
 90
        5
176
     1
 90
        0
176
     1
 90
        0
176
     1
290
     0
176
     1
 90
        1
176
     1
 40
-50.0
176
     1
 90
        0
176
     1
290
     0
176
     1
290
     1
176
     1
290
     1
176
     1
290
     0
176
     1
290
     0
176
     1
290
     0
176
     1
290
     0
176
     1
290
     0
176
     1
290
     0
176
     1
 90
       50
176
     1
 40
0.0
176
     1
 40
1.0
176
     1
 90
        0
176
     1
 62
    18
420
        0
176
     1
 90
       50
176
     1
 90
        3
176
     1
 62
     5
420
      255
176
     1
290
     0
176
     1
 90
       50
176
     1
 90
       50
176
     1
 90
       50
176
     1
290
     0
176
     1
 90
       50
176
     1
 62
   256
176
     0
 40
1.0
176
     0
 90
        2
176
     1
  1
strokes_ogs.tif
176
     1
290
     0
176
     1
 40
1.0
176
     1
 40
1.0
176
     1
  0
VISUALSTYLE
  5
3D
102
{ACAD_REACTORS
330
2A
102
}
330
2A
100
AcDbVisualStyle
  2
EdgeColorOff
 70
    22
177
     3
291
     1
 70
    58
 90
        2
176
     0
 90
        2
176
     0
 90
        0
176
     0
 90
        0
176
     0
 40
0.6
176
     0
 40
30.0
176
     0
 62
     7
420
 16777215
176
     0
 90
        1
176
     0
 90
        4
176
     0
 62
     7
176
     0
 62
   257
176
     0
 90
        1
176
     0
 90
        1
176
     0
 40
1.0
176
     0
 90
        8
176
     2
 62
     7
176
     0
 40
1.0
176
     0
 90
        1
176
     0
 90
        6
176
     0
 90
        2
176
     0
 62
     7
176
     0
 90
        5
176
     0
 90
        0
176
     0
 90
        0
176
     0
290
     0
176
     0
 90
        1
176
     0
 40
0.0
176
     0
 90
        0
176
     0
290
     0
176
     0
290
     1
176
     0
290
     1
176
     0
290
     0
176
     0
290
     0
176
     0
290
     0
176
     0
290
     0
176
     0
290
     0
176
     0
290
     0
176
     0
 90
       50
176
     0
 40
0.0
176
     0
 40
1.0
176
     0
 90
        0
176
     0
 62
    18
420
        0
176
     0
 90
       50
176
     0
 90
        3
176
     0
 62
     5
420
      255
176
     0
290
     0
176
     0
 90
       50
176
     0
 90
       50
176
     0
 90
       50
176
     0
290
     0
176
     0
 90
       50
176
     0
 62
   256
176
     0
 40
1.0
176
     0
 90
        2
176
     0
  1
strokes_ogs.tif
176
     0
290
     0
176
     0
 40
1.0
176
     0
 40
1.0
176
     0
  0
VISUALSTYLE
  5
39
102
{ACAD_REACTORS
330
2A
102
}
330
2A
100
AcDbVisualStyle
  2
Facepattern
 70
    15
177
     3
291
     1
 70
    58
 90
        2
176
     1
 90
        2
176
     1
 90
        0
176
     1
 90
        0
176
     1
 40
0.6
176
     1
 40
30.0
176
     1
 62
     7
420
 16777215
176
     1
 90
        1
176
     1
 90
        4
176
     1
 62
     7
176
     1
 62
   257
176
     1
 90
        1
176
     1
 90
        1
176
     1
 40
1.0
176
     1
 90
        8
176
     1
 62
     7
176
     1
 40
1.0
176
     1
 90
        1
176
     1
 90
        6
176
     1
 90
        2
176
     1
 62
     7
176
     1
 90
        5
176
     1
 90
        0
176
     1
 90
        0
176
     1
290
     0
176
     1
 90
        1
176
     1
 40
0.0
176
     1
 90
        0
176
     1
290
     0
176
     1
290
     1
176
     1
290
     1
176
     1
290
     0
176
     1
290
     0
176
     1
290
     0
176
     1
290
     0
176
     1
290
     0
176
     1
290
     0
176
     1
 90
       50
176
     1
 40
0.0
176
     1
 40
1.0
176
     1
 90
        0
176
     1
 62
    18
420
        0
176
     1
 90
       50
176
     1
 90
        3
176
     1
 62
     5
420
      255
176
     1
290
     0
176
     1
 90
       50
176
     1
 90
       50
176
     1
 90
       50
176
     1
290
     0
176
     1
 90
       50
176
     1
 62
   256
176
     0
 40
1.0
176
     0
 90
        2
176
     1
  1
strokes_ogs.tif
176
     1
290
     0
176
     1
 40
1.0
176
     1
 40
1.0
176
     1
  0
VISUALSTYLE
  5
2B
102
{ACAD_REACTORS
330
2A
102
}
330
2A
100
AcDbVisualStyle
  2
Flat
 70
     0
177
     3
291
     1
 70
    58
 90
        2
176
     1
 90
        1
176
     1
 90
        1
176
     1
 90
        2
176
     1
 40
0.6
176
     1
 40
30.0
176
     1
 62
     7
420
 16777215
176
     1
 90
        0
176
     1
 90
        0
176
     1
 62
     7
176
     1
 62
   257
176
     1
 90
        1
176
     1
 90
        1
176
     1
 40
1.0
176
     1
 90
        8
176
     1
 62
     7
176
     1
 40
1.0
176
     1
 90
        1
176
     1
 90
        6
176
     1
 90
        2
176
     1
 62
     7
176
     1
 90
        5
176
     1
 90
        0
176
     1
 90
        0
176
     1
290
     0
176
     1
 90
       13
176
     1
 40
0.0
176
     1
 90
        0
176
     1
290
     0
176
     1
290
     1
176
     1
290
     1
176
     1
290
     0
176
     1
290
     0
176
     1
290
     0
176
     1
290
     0
176
     1
290
     0
176
     1
290
     0
176
     1
 90
       50
176
     1
 40
0.0
176
     1
 40
1.0
176
     1
 90
        0
176
     1
 62
    18
420
        0
176
     1
 90
       50
176
     1
 90
        3
176
     1
 62
     5
420
      255
176
     1
290
     0
176
     1
 90
       50
176
     1
 90
       50
176
     1
 90
       50
176
     1
290
     0
176
     1
 90
       50
176
     1
 62
   256
176
     0
 40
1.0
176
     0
 90
        2
176
     1
  1
strokes_ogs.tif
176
     1
290
     0
176
     1
 40
1.0
176
     1
 40
1.0
176
     1
  0
VISUALSTYLE
  5
2C
102
{ACAD_REACTORS
330
2A
102
}
330
2A
100
AcDbVisualStyle
  2
FlatWithEdges
 70
     1
177
     3
291
     1
 70
    58
 90
        2
176
     1
 90
        1
176
     1
 90
        1
176
     1
 90
        2
176
     1
 40
0.6
176
     1
 40
30.0
176
     1
 62
     7
420
 16777215
176
     1
 90
        1
176
     1
 90
        0
176
     1
 62
     7
176
     1
 62
   257
176
     1
 90
        1
176
     1
 90
        1
176
     1
 40
1.0
176
     1
 90
        0
176
     1
 62
   257
176
     1
 40
1.0
176
     1
 90
        1
176
     1
 90
        6
176
     1
 90
        2
176
     1
 62
     7
176
     1
 90
        5
176
     1
 90
        0
176
     1
 90
        0
176
     1
290
     0
176
     1
 90
       13
176
     1
 40
0.0
176
     1
 90
        0
176
     1
290
     0
176
     1
290
     1
176
     1
290
     1
176
     1
290
     0
176
     1
290
     0
176
     1
290
     0
176
     1
290
     0
176
     1
290
     0
176
     1
290
     0
176
     1
 90
       50
176
     1
 40
0.0
176
     1
 40
1.0
176
     1
 90
        0
176
     1
 62
    18
420
        0
176
     1
 90
       50
176
     1
 90
        3
176
     1
 62
     5
420
      255
176
     1
290
     0
176
     1
 90
       50
176
     1
 90
       50
176
     1
 90
       50
176
     1
290
     0
176
     1
 90
       50
176
     1
 62
   256
176
     0
 40
1.0
176
     0
 90
        2
176
     1
  1
strokes_ogs.tif
176
     1
290
     0
176
     1
 40
1.0
176
     1
 40
1.0
176
     1
  0
VISUALSTYLE
  5
2D
102
{ACAD_REACTORS
330
2A
102
}
330
2A
100
AcDbVisualStyle
  2
Gouraud
 70
     2
177
     3
291
     1
 70
    58
 90
        2
176
     1
 90
        2
176
     1
 90
        1
176
     1
 90
        2
176
     1
 40
0.6
176
     1
 40
30.0
176
     1
 62
     7
420
 16777215
176
     1
 90
        0
176
     1
 90
        0
176
     1
 62
     7
176
     1
 62
   257
176
     1
 90
        1
176
     1
 90
        1
176
     1
 40
1.0
176
     1
 90
        0
176
     1
 62
     7
176
     1
 40
1.0
176
     1
 90
        1
176
     1
 90
        6
176
     1
 90
        2
176
     1
 62
     7
176
     1
 90
        5
176
     1
 90
        0
176
     1
 90
        0
176
     1
290
     0
176
     1
 90
       13
176
     1
 40
0.0
176
     1
 90
        0
176
     1
290
     0
176
     1
290
     1
176
     1
290
     1
176
     1
290
     0
176
     1
290
     0
176
     1
290
     0
176
     1
290
     0
176
     1
290
     0
176
     1
290
     0
176
     1
 90
       50
176
     1
 40
0.0
176
     1
 40
1.0
176
     1
 90
        0
176
     1
 62
    18
420
        0
176
     1
 90
       50
176
     1
 90
        3
176
     1
 62
     5
420
      255
176
     1
290
     0
176
     1
 90
       50
176
     1
 90
       50
176
     1
 90
       50
176
     1
290
     0
176
     1
 90
       50
176
     1
 62
   256
176
     0
 40
1.0
176
     0
 90
        2
176
     1
  1
strokes_ogs.tif
176
     1
290
     0
176
     1
 40
1.0
176
     1
 40
1.0
176
     1
  0
VISUALSTYLE
  5
2E
102
{ACAD_REACTORS
330
2A
102
}
330
2A
100
AcDbVisualStyle
  2
GouraudWithEdges
 70
     3
177
     3
291
     1
 70
    58
 90
        2
176
     1
 90
        2
176
     1
 90
        1
176
     1
 90
        2
176
     1
 40
0.6
176
     1
 40
30.0
176
     1
 62
     7
420
 16777215
176
     1
 90
        1
176
     1
 90
        0
176
     1
 62
     7
176
     1
 62
   257
176
     1
 90
        1
176
     1
 90
        1
176
     1
 40
1.0
176
     1
 90
        0
176
     1
 62
   257
176
     1
 40
1.0
176
     1
 90
        1
176
     1
 90
        6
176
     1
 90
        2
176
     1
 62
     7
176
     1
 90
        5
176
     1
 90
        0
176
     1
 90
        0
176
     1
290
     0
176
     1
 90
       13
176
     1
 40
0.0
176
     1
 90
        0
176
     1
290
     0
176
     1
290
     1
176
     1
290
     1
176
     1
290
     0
176
     1
290
     0
176
     1
290
     0
176
     1
290
     0
176
     1
290
     0
176
     1
290
     0
176
     1
 90
       50
176
     1
 40
0.0
176
     1
 40
1.0
176
     1
 90
        0
176
     1
 62
    18
420
        0
176
     1
 90
       50
176
     1
 90
        3
176
     1
 62
     5
420
      255
176
     1
290
     0
176
     1
 90
       50
176
     1
 90
       50
176
     1
 90
       50
176
     1
290
     0
176
     1
 90
       50
176
     1
 62
   256
176
     0
 40
1.0
176
     0
 90
        2
176
     1
  1
strokes_ogs.tif
176
     1
290
     0
176
     1
 40
1.0
176
     1
 40
1.0
176
     1
  0
VISUALSTYLE
  5
31
102
{ACAD_REACTORS
330
2A
102
}
330
2A
100
AcDbVisualStyle
  2
Hidden
 70
     6
177
     3
291
     0
 70
    58
 90
        1
176
     1
 90
        2
176
     1
 90
        2
176
     1
 90
        0
176
     1
 40
0.6
176
     1
 40
30.0
176
     1
 62
     7
420
 16777215
176
     1
 90
        2
176
     1
 90
        2
176
     1
 62
     7
176
     1
 62
   257
176
     1
 90
        2
176
     1
 90
        1
176
     1
 40
40.0
176
     1
 90
        0
176
     1
 62
   257
176
     1
 40
1.0
176
     1
 90
        1
176
     1
 90
        6
176
     1
 90
        2
176
     1
 62
     7
176
     1
 90
        3
176
     1
 90
        0
176
     1
 90
        0
176
     1
290
     0
176
     1
 90
        1
176
     1
 40
0.0
176
     1
 90
        0
176
     1
290
     0
176
     1
290
     1
176
     1
290
     1
176
     1
290
     0
176
     1
290
     0
176
     1
290
     0
176
     1
290
     0
176
     1
290
     0
176
     1
290
     0
176
     1
 90
       50
176
     1
 40
0.0
176
     1
 40
1.0
176
     1
 90
        0
176
     1
 62
    18
420
        0
176
     1
 90
       50
176
     1
 90
        3
176
     1
 62
     5
420
      255
176
     1
290
     0
176
     1
 90
       50
176
     1
 90
       50
176
     1
 90
       50
176
     1
290
     0
176
     1
 90
       50
176
     1
 62
   256
176
     0
 40
1.0
176
     0
 90
        2
176
     1
  1
strokes_ogs.tif
176
     1
290
     0
176
     1
 40
1.0
176
     1
 40
1.0
176
     1
  0
VISUALSTYLE
  5
3B
102
{ACAD_REACTORS
330
2A
102
}
330
2A
100
AcDbVisualStyle
  2
JitterOff
 70
    20
177
     3
291
     1
 70
    58
 90
        2
176
     0
 90
        2
176
     0
 90
        0
176
     0
 90
        0
176
     0
 40
0.6
176
     0
 40
30.0
176
     0
 62
     7
420
 16777215
176
     0
 90
        1
176
     0
 90
        4
176
     0
 62
     7
176
     0
 62
   257
176
     0
 90
        1
176
     0
 90
        1
176
     0
 40
1.0
176
     0
 90
       10
176
     2
 62
     7
176
     0
 40
1.0
176
     0
 90
        1
176
     0
 90
        6
176
     0
 90
        2
176
     0
 62
     7
176
     0
 90
        5
176
     0
 90
        0
176
     0
 90
        0
176
     0
290
     0
176
     0
 90
        1
176
     0
 40
0.0
176
     0
 90
        0
176
     0
290
     0
176
     0
290
     1
176
     0
290
     1
176
     0
290
     0
176
     0
290
     0
176
     0
290
     0
176
     0
290
     0
176
     0
290
     0
176
     0
290
     0
176
     0
 90
       50
176
     0
 40
0.0
176
     0
 40
1.0
176
     0
 90
        0
176
     0
 62
    18
420
        0
176
     0
 90
       50
176
     0
 90
        3
176
     0
 62
     5
420
      255
176
     0
290
     0
176
     0
 90
       50
176
     0
 90
       50
176
     0
 90
       50
176
     0
290
     0
176
     0
 90
       50
176
     0
 62
   256
176
     0
 40
1.0
176
     0
 90
        2
176
     0
  1
strokes_ogs.tif
176
     0
290
     0
176
     0
 40
1.0
176
     0
 40
1.0
176
     0
  0
VISUALSTYLE
  5
38
102
{ACAD_REACTORS
330
2A
102
}
330
2A
100
AcDbVisualStyle
  2
Linepattern
 70
    14
177
     3
291
     1
 70
    58
 90
        2
176
     1
 90
        2
176
     1
 90
        0
176
     1
 90
        0
176
     1
 40
0.6
176
     1
 40
30.0
176
     1
 62
     7
420
 16777215
176
     1
 90
        1
176
     1
 90
        4
176
     1
 62
     7
176
     1
 62
   257
176
     1
 90
        7
176
     1
 90
        7
176
     1
 40
1.0
176
     1
 90
        8
176
     1
 62
     7
176
     1
 40
1.0
176
     1
 90
        1
176
     1
 90
        6
176
     1
 90
        2
176
     1
 62
     7
176
     1
 90
        5
176
     1
 90
        0
176
     1
 90
        0
176
     1
290
     0
176
     1
 90
        1
176
     1
 40
0.0
176
     1
 90
        0
176
     1
290
     0
176
     1
290
     1
176
     1
290
     1
176
     1
290
     0
176
     1
290
     0
176
     1
290
     0
176
     1
290
     0
176
     1
290
     0
176
     1
290
     0
176
     1
 90
       50
176
     1
 40
0.0
176
     1
 40
1.0
176
     1
 90
        0
176
     1
 62
    18
420
        0
176
     1
 90
       50
176
     1
 90
        3
176
     1
 62
     5
420
      255
176
     1
290
     0
176
     1
 90
       50
176
     1
 90
       50
176
     1
 90
       50
176
     1
290
     0
176
     1
 90
       50
176
     1
 62
   256
176
     0
 40
1.0
176
     0
 90
        2
176
     1
  1
strokes_ogs.tif
176
     1
290
     0
176
     1
 40
1.0
176
     1
 40
1.0
176
     1
  0
VISUALSTYLE
  5
3C
102
{ACAD_REACTORS
330
2A
102
}
330
2A
100
AcDbVisualStyle
  2
OverhangOff
 70
    21
177
     3
291
     1
 70
    58
 90
        2
176
     0
 90
        2
176
     0
 90
        0
176
     0
 90
        0
176
     0
 40
0.6
176
     0
 40
30.0
176
     0
 62
     7
420
 16777215
176
     0
 90
        1
176
     0
 90
        4
176
     0
 62
     7
176
     0
 62
   257
176
     0
 90
        1
176
     0
 90
        1
176
     0
 40
1.0
176
     0
 90
        9
176
     2
 62
     7
176
     0
 40
1.0
176
     0
 90
        1
176
     0
 90
        6
176
     0
 90
        2
176
     0
 62
     7
176
     0
 90
        5
176
     0
 90
        0
176
     0
 90
        0
176
     0
290
     0
176
     0
 90
        1
176
     0
 40
0.0
176
     0
 90
        0
176
     0
290
     0
176
     0
290
     1
176
     0
290
     1
176
     0
290
     0
176
     0
290
     0
176
     0
290
     0
176
     0
290
     0
176
     0
290
     0
176
     0
290
     0
176
     0
 90
       50
176
     0
 40
0.0
176
     0
 40
1.0
176
     0
 90
        0
176
     0
 62
    18
420
        0
176
     0
 90
       50
176
     0
 90
        3
176
     0
 62
     5
420
      255
176
     0
290
     0
176
     0
 90
       50
176
     0
 90
       50
176
     0
 90
       50
176
     0
290
     0
176
     0
 90
       50
176
     0
 62
   256
176
     0
 40
1.0
176
     0
 90
        2
176
     0
  1
strokes_ogs.tif
176
     0
290
     0
176
     0
 40
1.0
176
     0
 40
1.0
176
     0
  0
VISUALSTYLE
  5
33
102
{ACAD_REACTORS
330
2A
102
}
330
2A
100
AcDbVisualStyle
  2
Realistic
 70
     8
177
     3
291
     0
 70
    58
 90
        2
176
     1
 90
        3
176
     1
 90
        0
176
     1
 90
        2
176
     1
 40
0.6
176
     1
 40
30.0
176
     1
 62
     7
420
 16777215
176
     1
 90
        0
176
     1
 90
        0
176
     1
 62
     7
176
     1
 62
   257
176
     1
 90
        1
176
     1
 90
        1
176
     1
 40
1.0
176
     1
 90
        8
176
     1
 62
   257
176
     1
 40
1.0
176
     1
 90
        1
176
     1
 90
        6
176
     1
 90
        2
176
     1
 62
     7
176
     1
 90
        3
176
     1
 90
        0
176
     1
 90
        0
176
     1
290
     0
176
     1
 90
       13
176
     1
 40
0.0
176
     1
 90
        0
176
     1
290
     0
176
     1
290
     1
176
     1
290
     1
176
     1
290
     0
176
     1
290
     0
176
     1
290
     0
176
     1
290
     0
176
     1
290
     0
176
     1
290
     0
176
     1
 90
       50
176
     1
 40
0.0
176
     1
 40
1.0
176
     1
 90
        0
176
     1
 62
    18
420
        0
176
     1
 90
       50
176
     1
 90
        3
176
     1
 62
     5
420
      255
176
     1
290
     0
176
     1
 90
       50
176
     1
 90
       50
176
     1
 90
       50
176
     1
290
     0
176
     1
 90
       50
176
     1
 62
   256
176
     0
 40
1.0
176
     0
 90
        2
176
     1
  1
strokes_ogs.tif
176
     1
290
     0
176
     1
 40
1.0
176
     1
 40
1.0
176
     1
  0
VISUALSTYLE
  5
42
102
{ACAD_REACTORS
330
2A
102
}
330
2A
100
AcDbVisualStyle
  2
Shaded
 70
    27
177
     3
291
     0
 70
    58
 90
        2
176
     1
 90
        2
176
     1
 90
        1
176
     1
 90
        2
176
     1
 40
0.6
176
     1
 40
30.0
176
     1
 62
     7
420
 16777215
176
     1
 90
        0
176
     1
 90
        4
176
     1
 62
     7
176
     1
 62
   257
176
     1
 90
        1
176
     1
 90
        1
176
     1
 40
1.0
176
     1
 90
        8
176
     1
 62
   257
176
     1
 40
1.0
176
     1
 90
        1
176
     1
 90
        6
176
     1
 90
        2
176
     1
 62
     8
420
  7895160
176
     1
 90
        3
176
     1
 90
        0
176
     1
 90
        0
176
     1
290
     0
176
     1
 90
        5
176
     1
 40
0.0
176
     1
 90
        0
176
     1
290
     0
176
     1
290
     1
176
     1
290
     1
176
     1
290
     0
176
     1
290
     0
176
     1
290
     0
176
     1
290
     0
176
     1
290
     0
176
     1
290
     0
176
     1
 90
       50
176
     1
 40
0.0
176
     1
 40
1.0
176
     1
 90
        0
176
     1
 62
    18
420
        0
176
     1
 90
       50
176
     1
 90
        3
176
     1
 62
     5
420
      255
176
     1
290
     0
176
     1
 90
       50
176
     1
 90
       50
176
     1
 90
       50
176
     1
290
     0
176
     1
 90
       50
176
     1
 62
   256
176
     0
 40
1.0
176
     0
 90
        2
176
     1
  1
strokes_ogs.tif
176
     1
290
     0
176
     1
 40
1.0
176
     1
 40
1.0
176
     1
  0
VISUALSTYLE
  5
41
102
{ACAD_REACTORS
330
2A
102
}
330
2A
100
AcDbVisualStyle
  2
Shaded with edges
 70
    26
177
     3
291
     0
 70
    58
 90
        2
176
     1
 90
        2
176
     1
 90
        1
176
     1
 90
        2
176
     1
 40
0.6
176
     1
 40
30.0
176
     1
 62
     7
420
 16777215
176
     1
 90
        1
176
     1
 90
       10
176
     1
 62
     7
176
     1
 62
   257
176
     1
 90
        2
176
     1
 90
        1
176
     1
 40
1.0
176
     1
 90
        8
176
     1
 62
   257
176
     1
 40
1.0
176
     1
 90
        1
176
     1
 90
        6
176
     1
 90
        2
176
     1
 62
     7
176
     1
 90
        3
176
     1
 90
        0
176
     1
 90
        0
176
     1
290
     0
176
     1
 90
        5
176
     1
 40
0.0
176
     1
 90
        0
176
     1
290
     0
176
     1
290
     1
176
     1
290
     1
176
     1
290
     0
176
     1
290
     0
176
     1
290
     0
176
     1
290
     0
176
     1
290
     0
176
     1
290
     0
176
     1
 90
       50
176
     1
 40
0.0
176
     1
 40
1.0
176
     1
 90
        0
176
     1
 62
    18
420
        0
176
     1
 90
       50
176
     1
 90
        3
176
     1
 62
     5
420
      255
176
     1
290
     0
176
     1
 90
       50
176
     1
 90
       50
176
     1
 90
       50
176
     1
290
     0
176
     1
 90
       50
176
     1
 62
   256
176
     0
 40
1.0
176
     0
 90
        2
176
     1
  1
strokes_ogs.tif
176
     1
290
     0
176
     1
 40
1.0
176
     1
 40
1.0
176
     1
  0
VISUALSTYLE
  5
3E
102
{ACAD_REACTORS
330
2A
102
}
330
2A
100
AcDbVisualStyle
  2
Shades of Gray
 70
    23
177
     3
291
     0
 70
    58
 90
        2
176
     1
 90
        2
176
     1
 90
        3
176
     1
 90
        0
176
     1
 40
0.6
176
     1
 40
30.0
176
     1
 62
     7
420
 16777215
176
     1
 90
        2
176
     1
 90
        2
176
     1
 62
     7
176
     1
 62
     7
176
     1
 90
        1
176
     1
 90
        1
176
     1
 40
40.0
176
     1
 90
        8
176
     1
 62
     7
176
     1
 40
1.0
176
     1
 90
        1
176
     1
 90
        6
176
     1
 90
        2
176
     1
 62
     7
176
     1
 90
        3
176
     1
 90
        0
176
     1
 90
        0
176
     1
290
     0
176
     1
 90
        1
176
     1
 40
0.0
176
     1
 90
        0
176
     1
290
     0
176
     1
290
     1
176
     1
290
     1
176
     1
290
     0
176
     1
290
     0
176
     1
290
     0
176
     1
290
     0
176
     1
290
     0
176
     1
290
     0
176
     1
 90
       50
176
     1
 40
0.0
176
     1
 40
1.0
176
     1
 90
        0
176
     1
 62
    18
420
        0
176
     1
 90
       50
176
     1
 90
        3
176
     1
 62
     5
420
      255
176
     1
290
     0
176
     1
 90
       50
176
     1
 90
       50
176
     1
 90
       50
176
     1
290
     0
176
     1
 90
       50
176
     1
 62
   256
176
     0
 40
1.0
176
     0
 90
        2
176
     1
  1
strokes_ogs.tif
176
     1
290
     0
176
     1
 40
1.0
176
     1
 40
1.0
176
     1
  0
VISUALSTYLE
  5
3F
102
{ACAD_REACTORS
330
2A
102
}
330
2A
100
AcDbVisualStyle
  2
Sketchy
 70
    24
177
     3
291
     0
 70
    58
 90
        1
176
     1
 90
        2
176
     1
 90
        2
176
     1
 90
        0
176
     1
 40
0.6
176
     1
 40
30.0
176
     1
 62
     7
420
 16777215
176
     1
 90
        2
176
     1
 90
        2
176
     1
 62
     7
176
     1
 62
     7
176
     1
 90
        1
176
     1
 90
        1
176
     1
 40
40.0
176
     1
 90
       11
176
     1
 62
     7
176
     1
 40
1.0
176
     1
 90
        1
176
     1
 90
        6
176
     1
 90
        2
176
     1
 62
     7
176
     1
 90
        6
176
     1
 90
        0
176
     1
 90
        0
176
     1
290
     0
176
     1
 90
        1
176
     1
 40
0.0
176
     1
 90
        0
176
     1
290
     0
176
     1
290
     1
176
     1
290
     1
176
     1
290
     0
176
     1
290
     0
176
     1
290
     0
176
     1
290
     0
176
     1
290
     0
176
     1
290
     0
176
     1
 90
       50
176
     1
 40
0.0
176
     1
 40
1.0
176
     1
 90
        0
176
     1
 62
    18
420
        0
176
     1
 90
       50
176
     1
 90
        3
176
     1
 62
     5
420
      255
176
     1
290
     0
176
     1
 90
       50
176
     1
 90
       50
176
     1
 90
       50
176
     1
290
     0
176
     1
 90
       50
176
     1
 62
   256
176
     0
 40
1.0
176
     0
 90
        2
176
     1
  1
strokes_ogs.tif
176
     1
290
     0
176
     1
 40
1.0
176
     1
 40
1.0
176
     1
  0
VISUALSTYLE
  5
37
102
{ACAD_REACTORS
330
2A
102
}
330
2A
100
AcDbVisualStyle
  2
Thicken
 70
    13
177
     3
291
     1
 70
    58
 90
        2
176
     1
 90
        2
176
     1
 90
        0
176
     1
 90
        0
176
     1
 40
0.6
176
     1
 40
30.0
176
     1
 62
     7
420
 16777215
176
     1
 90
        1
176
     1
 90
        4
176
     1
 62
     7
176
     1
 62
   257
176
     1
 90
        1
176
     1
 90
        1
176
     1
 40
1.0
176
     1
 90
       12
176
     1
 62
     7
176
     1
 40
1.0
176
     1
 90
        1
176
     1
 90
        6
176
     1
 90
        2
176
     1
 62
     7
176
     1
 90
        5
176
     1
 90
        0
176
     1
 90
        0
176
     1
290
     0
176
     1
 90
        1
176
     1
 40
0.0
176
     1
 90
        0
176
     1
290
     0
176
     1
290
     1
176
     1
290
     1
176
     1
290
     0
176
     1
290
     0
176
     1
290
     0
176
     1
290
     0
176
     1
290
     0
176
     1
290
     0
176
     1
 90
       50
176
     1
 40
0.0
176
     1
 40
1.0
176
     1
 90
        0
176
     1
 62
    18
420
        0
176
     1
 90
       50
176
     1
 90
        3
176
     1
 62
     5
420
      255
176
     1
290
     0
176
     1
 90
       50
176
     1
 90
       50
176
     1
 90
       50
176
     1
290
     0
176
     1
 90
       50
176
     1
 62
   256
176
     0
 40
1.0
176
     0
 90
        2
176
     1
  1
strokes_ogs.tif
176
     1
290
     0
176
     1
 40
1.0
176
     1
 40
1.0
176
     1
  0
VISUALSTYLE
  5
30
102
{ACAD_REACTORS
330
2A
102
}
330
2A
100
AcDbVisualStyle
  2
Wireframe
 70
     5
177
     3
291
     0
 70
    58
 90
        0
176
     1
 90
        2
176
     1
 90
        0
176
     1
 90
        0
176
     1
 40
0.6
176
     1
 40
30.0
176
     1
 62
     7
420
 16777215
176
     1
 90
        1
176
     1
 90
        4
176
     1
 62
     7
176
     1
 62
   257
176
     1
 90
        1
176
     1
 90
        1
176
     1
 40
1.0
176
     1
 90
        0
176
     1
 62
   257
176
     1
 40
1.0
176
     1
 90
        1
176
     1
 90
        6
176
     1
 90
        2
176
     1
 62
     7
176
     1
 90
        3
176
     1
 90
        0
176
     1
 90
        0
176
     1
290
     0
176
     1
 90
        1
176
     1
 40
0.0
176
     1
 90
        0
176
     1
290
     0
176
     1
290
     1
176
     1
290
     1
176
     1
290
     0
176
     1
290
     0
176
     1
290
     0
176
     1
290
     0
176
     1
290
     0
176
     1
290
     0
176
     1
 90
       50
176
     1
 40
0.0
176
     1
 40
1.0
176
     1
 90
        0
176
     1
 62
    18
420
        0
176
     1
 90
       50
176
     1
 90
        3
176
     1
 62
     5
420
      255
176
     1
290
     0
176
     1
 90
       50
176
     1
 90
       50
176
     1
 90
       50
176
     1
290
     0
176
     1
 90
       50
176
     1
 62
   256
176
     0
 40
1.0
176
     0
 90
        2
176
     1
  1
strokes_ogs.tif
176
     1
290
     0
176
     1
 40
1.0
176
     1
 40
1.0
176
     1
  0
VISUALSTYLE
  5
40
102
{ACAD_REACTORS
330
2A
102
}
330
2A
100
AcDbVisualStyle
  2
X-Ray
 70
    25
177
     3
291
     0
 70
    58
 90
        2
176
     1
 90
        2
176
     1
 90
        1
176
     1
 90
        1
176
     1
 40
0.5
176
     1
 40
30.0
176
     1
 62
     7
420
 16777215
176
     1
 90
        1
176
     1
 90
        0
176
     1
 62
     7
176
     1
 62
   257
176
     1
 90
        1
176
     1
 90
        1
176
     1
 40
1.0
176
     1
 90
        8
176
     1
 62
     7
176
     1
 40
1.0
176
     1
 90
        1
176
     1
 90
        6
176
     1
 90
        2
176
     1
 62
     7
176
     1
 90
        3
176
     1
 90
        0
176
     1
 90
        0
176
     1
290
     0
176
     1
 90
       13
176
     1
 40
0.0
176
     1
 90
        0
176
     1
290
     0
176
     1
290
     1
176
     1
290
     1
176
     1
290
     0
176
     1
290
     0
176
     1
290
     0
176
     1
290
     0
176
     1
290
     0
176
     1
290
     0
176
     1
 90
       50
176
     1
 40
0.0
176
     1
 40
1.0
176
     1
 90
        0
176
     1
 62
    18
420
        0
176
     1
 90
       50
176
     1
 90
        3
176
     1
 62
     5
420
      255
176
     1
290
     0
176
     1
 90
       50
176
     1
 90
       50
176
     1
 90
       50
176
     1
290
     0
176
     1
 90
       50
176
     1
 62
   256
176
     0
 40
1.0
176
     0
 90
        2
176
     1
  1
strokes_ogs.tif
176
     1
290
     0
176
     1
 40
1.0
176
     1
 40
1.0
176
     1
  0
DICTIONARYVAR
  5
308
102
{ACAD_REACTORS
330
307
102
}
330
307
100
DictionaryVariables
280
     0
  1
1:1
  0
DICTIONARYVAR
  5
30D
102
{ACAD_REACTORS
330
307
102
}
330
307
100
DictionaryVariables
280
     0
  1
Standard
  0
DICTIONARYVAR
  5
30C
102
{ACAD_REACTORS
330
307
102
}
330
307
100
DictionaryVariables
280
     0
  1
Standard
  0
DICTIONARY
  5
309
330
6A
100
AcDbDictionary
280
     1
281
     1
  3
ACAD_ROUNDTRIP_2008_TABLESTYLE_CELLSTYLEMAP
360
30A
  0
CELLSTYLEMAP
  5
30A
102
{ACAD_REACTORS
330
309
102
}
330
309
100
AcDbCellStyleMap
 90
        3
300
CELLSTYLE
  1
TABLEFORMAT_BEGIN
 90
        5
170
     1
 91
        0
 92
    32768
 62
   257
 93
        1
300
CONTENTFORMAT
  1
CONTENTFORMAT_BEGIN
 90
        0
 91
        0
 92
        4
 93
        0
300

 40
0.0
140
1.0
 94
        5
 62
     0
340
11
144
0.25
309
CONTENTFORMAT_END
171
     1
301
MARGIN
  1
CELLMARGIN_BEGIN
 40
0.06
 40
0.06
 40
0.06
 40
0.06
 40
0.06
 40
0.06
309
CELLMARGIN_END
 94
        6
 95
        1
302
GRIDFORMAT
  1
GRIDFORMAT_BEGIN
 90
        0
 91
        1
 62
     0
 92
       -2
340
14
 93
        0
 40
0.045
309
GRIDFORMAT_END
 95
        2
302
GRIDFORMAT
  1
GRIDFORMAT_BEGIN
 90
        0
 91
        1
 62
     0
 92
       -2
340
14
 93
        0
 40
0.045
309
GRIDFORMAT_END
 95
        4
302
GRIDFORMAT
  1
GRIDFORMAT_BEGIN
 90
        0
 91
        1
 62
     0
 92
       -2
340
14
 93
        0
 40
0.045
309
GRIDFORMAT_END
 95
        8
302
GRIDFORMAT
  1
GRIDFORMAT_BEGIN
 90
        0
 91
        1
 62
     0
 92
       -2
340
14
 93
        0
 40
0.045
309
GRIDFORMAT_END
 95
       16
302
GRIDFORMAT
  1
GRIDFORMAT_BEGIN
 90
        0
 91
        1
 62
     0
 92
       -2
340
14
 93
        0
 40
0.045
309
GRIDFORMAT_END
 95
       32
302
GRIDFORMAT
  1
GRIDFORMAT_BEGIN
 90
        0
 91
        1
 62
     0
 92
       -2
340
14
 93
        0
 40
0.045
309
GRIDFORMAT_END
309
TABLEFORMAT_END
  1
CELLSTYLE_BEGIN
 90
        1
 91
        1
300
_TITLE
309
CELLSTYLE_END
300
CELLSTYLE
  1
TABLEFORMAT_BEGIN
 90
        5
170
     1
 91
        0
 92
        0
 62
   257
 93
        1
300
CONTENTFORMAT
  1
CONTENTFORMAT_BEGIN
 90
        0
 91
        0
 92
        4
 93
        0
300

 40
0.0
140
1.0
 94
        5
 62
     0
340
11
144
0.18
309
CONTENTFORMAT_END
171
     1
301
MARGIN
  1
CELLMARGIN_BEGIN
 40
0.06
 40
0.06
 40
0.06
 40
0.06
 40
0.06
 40
0.06
309
CELLMARGIN_END
 94
        6
 95
        1
302
GRIDFORMAT
  1
GRIDFORMAT_BEGIN
 90
        0
 91
        1
 62
     0
 92
       -2
340
14
 93
        0
 40
0.045
309
GRIDFORMAT_END
 95
        2
302
GRIDFORMAT
  1
GRIDFORMAT_BEGIN
 90
        0
 91
        1
 62
     0
 92
       -2
340
14
 93
        0
 40
0.045
309
GRIDFORMAT_END
 95
        4
302
GRIDFORMAT
  1
GRIDFORMAT_BEGIN
 90
        0
 91
        1
 62
     0
 92
       -2
340
14
 93
        0
 40
0.045
309
GRIDFORMAT_END
 95
        8
302
GRIDFORMAT
  1
GRIDFORMAT_BEGIN
 90
        0
 91
        1
 62
     0
 92
       -2
340
14
 93
        0
 40
0.045
309
GRIDFORMAT_END
 95
       16
302
GRIDFORMAT
  1
GRIDFORMAT_BEGIN
 90
        0
 91
        1
 62
     0
 92
       -2
340
14
 93
        0
 40
0.045
309
GRIDFORMAT_END
 95
       32
302
GRIDFORMAT
  1
GRIDFORMAT_BEGIN
 90
        0
 91
        1
 62
     0
 92
       -2
340
14
 93
        0
 40
0.045
309
GRIDFORMAT_END
309
TABLEFORMAT_END
  1
CELLSTYLE_BEGIN
 90
        2
 91
        1
300
_HEADER
309
CELLSTYLE_END
300
CELLSTYLE
  1
TABLEFORMAT_BEGIN
 90
        5
170
     1
 91
        0
 92
        0
 62
   257
 93
        1
300
CONTENTFORMAT
  1
CONTENTFORMAT_BEGIN
 90
        0
 91
        0
 92
        4
 93
        0
300

 40
0.0
140
1.0
 94
        2
 62
     0
340
11
144
0.18
309
CONTENTFORMAT_END
171
     1
301
MARGIN
  1
CELLMARGIN_BEGIN
 40
0.06
 40
0.06
 40
0.06
 40
0.06
 40
0.06
 40
0.06
309
CELLMARGIN_END
 94
        6
 95
        1
302
GRIDFORMAT
  1
GRIDFORMAT_BEGIN
 90
        0
 91
        1
 62
     0
 92
       -2
340
14
 93
        0
 40
0.045
309
GRIDFORMAT_END
 95
        2
302
GRIDFORMAT
  1
GRIDFORMAT_BEGIN
 90
        0
 91
        1
 62
     0
 92
       -2
340
14
 93
        0
 40
0.045
309
GRIDFORMAT_END
 95
        4
302
GRIDFORMAT
  1
GRIDFORMAT_BEGIN
 90
        0
 91
        1
 62
     0
 92
       -2
340
14
 93
        0
 40
0.045
309
GRIDFORMAT_END
 95
        8
302
GRIDFORMAT
  1
GRIDFORMAT_BEGIN
 90
        0
 91
        1
 62
     0
 92
       -2
340
14
 93
        0
 40
0.045
309
GRIDFORMAT_END
 95
       16
302
GRIDFORMAT
  1
GRIDFORMAT_BEGIN
 90
        0
 91
        1
 62
     0
 92
       -2
340
14
 93
        0
 40
0.045
309
GRIDFORMAT_END
 95
       32
302
GRIDFORMAT
  1
GRIDFORMAT_BEGIN
 90
        0
 91
        1
 62
     0
 92
       -2
340
14
 93
        0
 40
0.045
309
GRIDFORMAT_END
309
TABLEFORMAT_END
  1
CELLSTYLE_BEGIN
 90
        3
 91
        2
300
_DATA
309
CELLSTYLE_END
  0
ENDSEC
  0
EOF
