  0
SECTION
  2
HEADER
  9
$ACADVER
  1
AC1032
  9
$ACADMAINTVER
 90
       55
  9
$DWGCODEPAGE
  3
ANSI_932
  9
$LASTSAVEDBY
  1
client05
  9
$REQUIREDVERSIONS
160
                 0
  9
$INSBASE
 10
0.0
 20
0.0
 30
0.0
  9
$EXTMIN
 10
-2.821927136534242
 20
-56.13688885182199
 30
0.0
  9
$EXTMAX
 10
297.1780728634658
 20
323.9840269923337
 30
0.0
  9
$LIMMIN
 10
0.0
 20
0.0
  9
$LIMMAX
 10
297.0
 20
210.0
  9
$ORTHOMODE
 70
     0
  9
$REGENMODE
 70
     1
  9
$FILLMODE
 70
     1
  9
$QTEXTMODE
 70
     0
  9
$MIRRTEXT
 70
     1
  9
$LTSCALE
 40
0.25
  9
$ATTMODE
 70
     1
  9
$TEXTSIZE
 40
5.0
  9
$TRACEWID
 40
0.05
  9
$TEXTSTYLE
  7
Standard
  9
$CLAYER
  8
0
  9
$CELTYPE
  6
ByLayer
  9
$CECOLOR
 62
   256
  9
$CELTSCALE
 40
1.0
  9
$DISPSILH
 70
     0
  9
$DIMSCALE
 40
1.0
  9
$DIMASZ
 40
4.0
  9
$DIMEXO
 40
2.0
  9
$DIMDLI
 40
10.0
  9
$DIMRND
 40
0.0
  9
$DIMDLE
 40
0.0
  9
$DIMEXE
 40
2.0
  9
$DIMTP
 40
0.0
  9
$DIMTM
 40
0.0
  9
$DIMTXT
 40
3.5
  9
$DIMCEN
 40
0.09
  9
$DIMTSZ
 40
0.0
  9
$DIMTOL
 70
     0
  9
$DIMLIM
 70
     0
  9
$DIMTIH
 70
     0
  9
$DIMTOH
 70
     0
  9
$DIMSE1
 70
     0
  9
$DIMSE2
 70
     0
  9
$DIMTAD
 70
     3
  9
$DIMZIN
 70
     8
  9
$DIMBLK
  1

  9
$DIMASO
 70
     1
  9
$DIMSHO
 70
     1
  9
$DIMPOST
  1

  9
$DIMAPOST
  1

  9
$DIMALT
 70
     0
  9
$DIMALTD
 70
     2
  9
$DIMALTF
 40
25.4
  9
$DIMLFAC
 40
1.0
  9
$DIMTOFL
 70
     1
  9
$DIMTVP
 40
0.7
  9
$DIMTIX
 70
     0
  9
$DIMSOXD
 70
     0
  9
$DIMSAH
 70
     0
  9
$DIMBLK1
  1

  9
$DIMBLK2
  1

  9
$DIMSTYLE
  2
Standard
  9
$DIMCLRD
 70
     0
  9
$DIMCLRE
 70
     0
  9
$DIMCLRT
 70
     0
  9
$DIMTFAC
 40
0.5
  9
$DIMGAP
 40
0.09
  9
$DIMJUST
 70
     0
  9
$DIMSD1
 70
     0
  9
$DIMSD2
 70
     0
  9
$DIMTOLJ
 70
     1
  9
$DIMTZIN
 70
     8
  9
$DIMALTZ
 70
     0
  9
$DIMALTTZ
 70
     0
  9
$DIMUPT
 70
     1
  9
$DIMDEC
 70
     2
  9
$DIMTDEC
 70
     4
  9
$DIMALTU
 70
     2
  9
$DIMALTTD
 70
     2
  9
$DIMTXSTY
  7
Standard
  9
$DIMAUNIT
 70
     0
  9
$DIMADEC
 70
     0
  9
$DIMALTRND
 40
0.0
  9
$DIMAZIN
 70
     0
  9
$DIMDSEP
 70
    46
  9
$DIMATFIT
 70
     2
  9
$DIMFRAC
 70
     0
  9
$DIMLDRBLK
  1

  9
$DIMLUNIT
 70
     2
  9
$DIMLWD
 70
    -2
  9
$DIMLWE
 70
    -2
  9
$DIMTMOVE
 70
     2
  9
$DIMFXL
 40
1.0
  9
$DIMFXLON
 70
     0
  9
$DIMJOGANG
 40
0.7853981633974483
  9
$DIMTFILL
 70
     0
  9
$DIMTFILLCLR
 70
     0
  9
$DIMARCSYM
 70
     0
  9
$DIMLTYPE
  6

  9
$DIMLTEX1
  6

  9
$DIMLTEX2
  6

  9
$DIMTXTDIRECTION
 70
     0
  9
$LUNITS
 70
     2
  9
$LUPREC
 70
     4
  9
$SKETCHINC
 40
0.1
  9
$FILLETRAD
 40
0.5
  9
$AUNITS
 70
     0
  9
$AUPREC
 70
     0
  9
$MENU
  1
.
  9
$ELEVATION
 40
0.0
  9
$PELEVATION
 40
0.0
  9
$THICKNESS
 40
0.0
  9
$LIMCHECK
 70
     0
  9
$CHAMFERA
 40
0.0
  9
$CHAMFERB
 40
0.0
  9
$CHAMFERC
 40
0.0
  9
$CHAMFERD
 40
0.0
  9
$SKPOLY
 70
     0
  9
$TDCREATE
 40
2459374.913159722
  9
$TDUCREATE
 40
2459374.538159722
  9
$TDUPDATE
 40
2459374.538159977
  9
$TDUUPDATE
 40
2459374.163159977
  9
$TDINDWG
 40
0.0000000116
  9
$TDUSRTIMER
 40
0.0000000116
  9
$USRTIMER
 70
     1
  9
$ANGBASE
 50
0.0
  9
$ANGDIR
 70
     0
  9
$PDMODE
 70
     0
  9
$PDSIZE
 40
0.0
  9
$PLINEWID
 40
0.0
  9
$SPLFRAME
 70
     0
  9
$SPLINETYPE
 70
     6
  9
$SPLINESEGS
 70
     8
  9
$HANDSEED
  5
337
  9
$SURFTAB1
 70
     6
  9
$SURFTAB2
 70
     6
  9
$SURFTYPE
 70
     6
  9
$SURFU
 70
     6
  9
$SURFV
 70
     6
  9
$UCSBASE
  2

  9
$UCSNAME
  2

  9
$UCSORG
 10
0.0
 20
0.0
 30
0.0
  9
$UCSXDIR
 10
1.0
 20
0.0
 30
0.0
  9
$UCSYDIR
 10
0.0
 20
1.0
 30
0.0
  9
$UCSORTHOREF
  2

  9
$UCSORTHOVIEW
 70
     0
  9
$UCSORGTOP
 10
0.0
 20
0.0
 30
0.0
  9
$UCSORGBOTTOM
 10
0.0
 20
0.0
 30
0.0
  9
$UCSORGLEFT
 10
0.0
 20
0.0
 30
0.0
  9
$UCSORGRIGHT
 10
0.0
 20
0.0
 30
0.0
  9
$UCSORGFRONT
 10
0.0
 20
0.0
 30
0.0
  9
$UCSORGBACK
 10
0.0
 20
0.0
 30
0.0
  9
$PUCSBASE
  2

  9
$PUCSNAME
  2

  9
$PUCSORG
 10
0.0
 20
0.0
 30
0.0
  9
$PUCSXDIR
 10
1.0
 20
0.0
 30
0.0
  9
$PUCSYDIR
 10
0.0
 20
1.0
 30
0.0
  9
$PUCSORTHOREF
  2

  9
$PUCSORTHOVIEW
 70
     0
  9
$PUCSORGTOP
 10
0.0
 20
0.0
 30
0.0
  9
$PUCSORGBOTTOM
 10
0.0
 20
0.0
 30
0.0
  9
$PUCSORGLEFT
 10
0.0
 20
0.0
 30
0.0
  9
$PUCSORGRIGHT
 10
0.0
 20
0.0
 30
0.0
  9
$PUCSORGFRONT
 10
0.0
 20
0.0
 30
0.0
  9
$PUCSORGBACK
 10
0.0
 20
0.0
 30
0.0
  9
$USERI1
 70
     0
  9
$USERI2
 70
     0
  9
$USERI3
 70
     0
  9
$USERI4
 70
     0
  9
$USERI5
 70
     0
  9
$USERR1
 40
0.0
  9
$USERR2
 40
0.0
  9
$USERR3
 40
0.0
  9
$USERR4
 40
0.0
  9
$USERR5
 40
0.0
  9
$WORLDVIEW
 70
     1
  9
$SHADEDGE
 70
     3
  9
$SHADEDIF
 70
    70
  9
$TILEMODE
 70
     1
  9
$MAXACTVP
 70
    64
  9
$PINSBASE
 10
0.0
 20
0.0
 30
0.0
  9
$PLIMCHECK
 70
     0
  9
$PEXTMIN
 10
0.0
 20
0.0
 30
0.0
  9
$PEXTMAX
 10
297.0
 20
210.0
 30
0.0
  9
$PLIMMIN
 10
0.0
 20
0.0
  9
$PLIMMAX
 10
297.0
 20
210.0
  9
$UNITMODE
 70
     0
  9
$VISRETAIN
 70
     1
  9
$PLINEGEN
 70
     0
  9
$PSLTSCALE
 70
     1
  9
$TREEDEPTH
 70
  3020
  9
$CMLSTYLE
  2
Standard
  9
$CMLJUST
 70
     0
  9
$CMLSCALE
 40
1.0
  9
$PROXYGRAPHICS
 70
     1
  9
$MEASUREMENT
 70
     1
  9
$CELWEIGHT
370
    -1
  9
$ENDCAPS
280
     0
  9
$JOINSTYLE
280
     0
  9
$LWDISPLAY
290
     0
  9
$INSUNITS
 70
     4
  9
$HYPERLINKBASE
  1

  9
$STYLESHEET
  1

  9
$XEDIT
290
     1
  9
$CEPSNTYPE
380
     0
  9
$PSTYLEMODE
290
     1
  9
$FINGERPRINTGUID
  2
{7fb2611f-d3a2-4408-9034-68f71816b56f}
  9
$VERSIONGUID
  2
{FAEB1C32-E019-11D5-929B-00C0DF256EC4}
  9
$EXTNAMES
290
     1
  9
$PSVPSCALE
 40
0.0
  9
$OLESTARTUP
290
     0
  9
$SORTENTS
280
   127
  9
$INDEXCTL
280
     0
  9
$HIDETEXT
280
     1
  9
$XCLIPFRAME
280
     2
  9
$HALOGAP
280
     0
  9
$OBSCOLOR
 70
   257
  9
$OBSLTYPE
280
     0
  9
$INTERSECTIONDISPLAY
280
     0
  9
$INTERSECTIONCOLOR
 70
   257
  9
$DIMASSOC
280
     1
  9
$PROJECTNAME
  1

  9
$CAMERADISPLAY
290
     0
  9
$LENSLENGTH
 40
50.0
  9
$CAMERAHEIGHT
 40
0.0
  9
$STEPSPERSEC
 40
2.0
  9
$STEPSIZE
 40
6.0
  9
$3DDWFPREC
 40
2.0
  9
$PSOLWIDTH
 40
0.25
  9
$PSOLHEIGHT
 40
4.0
  9
$LOFTANG1
 40
1.570796326794897
  9
$LOFTANG2
 40
1.570796326794897
  9
$LOFTMAG1
 40
0.0
  9
$LOFTMAG2
 40
0.0
  9
$LOFTPARAM
 70
     7
  9
$LOFTNORMALS
280
     1
  9
$LATITUDE
 40
37.795
  9
$LONGITUDE
 40
-122.394
  9
$NORTHDIRECTION
 40
0.0
  9
$TIMEZONE
 70
 -8000
  9
$LIGHTGLYPHDISPLAY
280
     1
  9
$TILEMODELIGHTSYNCH
280
     1
  9
$CMATERIAL
347
44
  9
$SOLIDHIST
280
     0
  9
$SHOWHIST
280
     1
  9
$DWFFRAME
280
     2
  9
$DGNFRAME
280
     2
  9
$REALWORLDSCALE
290
     1
  9
$INTERFERECOLOR
 62
   256
  9
$CSHADOW
280
     0
  9
$SHADOWPLANELOCATION
 40
0.0
  0
ENDSEC
  0
SECTION
  2
CLASSES
  0
CLASS
  1
ACDBDICTIONARYWDFLT
  2
AcDbDictionaryWithDefault
  3
ObjectDBX Classes
 90
        0
 91
        3
280
     0
281
     0
  0
CLASS
  1
VISUALSTYLE
  2
AcDbVisualStyle
  3
ObjectDBX Classes
 90
     4095
 91
        3
280
     0
281
     0
  0
CLASS
  1
MATERIAL
  2
AcDbMaterial
  3
ObjectDBX Classes
 90
     1153
 91
        3
280
     0
281
     0
  0
CLASS
  1
SCALE
  2
AcDbScale
  3
ObjectDBX Classes
 90
     1153
 91
        3
280
     0
281
     0
  0
CLASS
  1
TABLESTYLE
  2
AcDbTableStyle
  3
ObjectDBX Classes
 90
     4095
 91
        3
280
     0
281
     0
  0
CLASS
  1
MLEADERSTYLE
  2
AcDbMLeaderStyle
  3
ACDB_MLEADERSTYLE_CLASS
 90
     4095
 91
        3
280
     0
281
     0
  0
CLASS
  1
SUN
  2
AcDbSun
  3
SCENEOE
 90
     1153
 91
        3
280
     0
281
     0
  0
CLASS
  1
DICTIONARYVAR
  2
AcDbDictionaryVar
  3
ObjectDBX Classes
 90
        0
 91
        3
280
     0
281
     0
  0
CLASS
  1
CELLSTYLEMAP
  2
AcDbCellStyleMap
  3
ObjectDBX Classes
 90
     1152
 91
        3
280
     0
281
     0
  0
ENDSEC
  0
SECTION
  2
TABLES
  0
TABLE
  2
VPORT
  5
8
330
0
100
AcDbSymbolTable
 70
     1
  0
VPORT
  5
29
330
8
100
AcDbSymbolTableRecord
100
AcDbViewportTableRecord
  2
*Active
 70
     0
 10
0.0
 20
0.0
 11
1.0
 21
1.0
 12
10.42990654205607
 22
4.5
 13
0.0
 23
0.0
 14
0.5
 24
0.5
 15
0.5
 25
0.5
 16
0.0
 26
0.0
 36
1.0
 17
0.0
 27
0.0
 37
0.0
 40
9.0
 41
1.972972972850329
 42
50.0
 43
0.0
 44
0.0
 50
0.0
 51
0.0
 71
     0
 72
   100
 73
     1
 74
     3
 75
     0
 76
     0
 77
     0
 78
     0
281
     0
 65
     1
110
0.0
120
0.0
130
0.0
111
1.0
121
0.0
131
0.0
112
0.0
122
1.0
132
0.0
 79
     0
146
0.0
348
2F
 60
     3
 61
     5
292
     1
282
     1
141
0.0
142
0.0
 63
   250
361
6D
  0
ENDTAB
  0
TABLE
  2
LTYPE
  5
5
330
0
100
AcDbSymbolTable
 70
     9
  0
LTYPE
  5
14
330
5
100
AcDbSymbolTableRecord
100
AcDbLinetypeTableRecord
  2
ByBlock
 70
     0
  3

 72
    65
 73
     0
 40
0.0
  0
LTYPE
  5
15
330
5
100
AcDbSymbolTableRecord
100
AcDbLinetypeTableRecord
  2
ByLayer
 70
     0
  3

 72
    65
 73
     0
 40
0.0
  0
LTYPE
  5
16
330
5
100
AcDbSymbolTableRecord
100
AcDbLinetypeTableRecord
  2
Continuous
 70
     0
  3
Solid line
 72
    65
 73
     0
 40
0.0
  0
LTYPE
  5
BC
330
5
100
AcDbSymbolTableRecord
100
AcDbLinetypeTableRecord
  2
DOT
 70
     0
  3
DOT
 72
    65
 73
     2
 40
4.0
 49
6.0
 74
     0
 49
-2.0
 74
     0
  0
LTYPE
  5
BD
330
5
100
AcDbSymbolTableRecord
100
AcDbLinetypeTableRecord
  2
HIDDEN
 70
     0
  3
HIDDEN
 72
    65
 73
     2
 40
4.2
 49
8.4
 74
     0
 49
-4.2
 74
     0
  0
LTYPE
  5
BE
330
5
100
AcDbSymbolTableRecord
100
AcDbLinetypeTableRecord
  2
DASHDOT
 70
     0
  3
DASHDOT
 72
    65
 73
     4
 40
14.5
 49
30.0
 74
     0
 49
-9.0
 74
     0
 49
2.5
 74
     0
 49
-9.0
 74
     0
  0
LTYPE
  5
BF
330
5
100
AcDbSymbolTableRecord
100
AcDbLinetypeTableRecord
  2
PHANTOM
 70
     0
  3
PHANTOM
 72
    65
 73
     6
 40
12.0
 49
30.0
 74
     0
 49
-9.0
 74
     0
 49
2.5
 74
     0
 49
-5.0
 74
     0
 49
2.5
 74
     0
 49
-9.0
 74
     0
  0
LTYPE
  5
C0
330
5
100
AcDbSymbolTableRecord
100
AcDbLinetypeTableRecord
  2
ACAD_ISO14W100
 70
     0
  3
ACAD_ISO14W100
 72
    65
 73
     8
 40
1.5
 49
12.0
 74
     0
 49
-3.0
 74
     0
 49
0.5
 74
     0
 49
-3.0
 74
     0
 49
0.5
 74
     0
 49
-3.0
 74
     0
 49
0.5
 74
     0
 49
-3.0
 74
     0
  0
LTYPE
  5
C1
330
5
100
AcDbSymbolTableRecord
100
AcDbLinetypeTableRecord
  2
ACAD_ISO06W100
 70
     0
  3
ACAD_ISO06W100
 72
    65
 73
     8
 40
13.5
 49
24.0
 74
     0
 49
-3.0
 74
     0
 49
0.5
 74
     0
 49
-3.0
 74
     0
 49
0.5
 74
     0
 49
-3.0
 74
     0
 49
0.5
 74
     0
 49
-3.0
 74
     0
  0
LTYPE
  5
C2
330
5
100
AcDbSymbolTableRecord
100
AcDbLinetypeTableRecord
  2
ACAD_ISO11W100
 70
     0
  3
ACAD_ISO11W100
 72
    65
 73
     6
 40
15.5
 49
12.0
 74
     0
 49
-3.0
 74
     0
 49
12.0
 74
     0
 49
-3.0
 74
     0
 49
0.5
 74
     0
 49
-3.0
 74
     0
  0
LTYPE
  5
C3
330
5
100
AcDbSymbolTableRecord
100
AcDbLinetypeTableRecord
  2
ACAD_ISO13W100
 70
     0
  3
ACAD_ISO13W100
 72
    65
 73
     8
 40
13.0
 49
12.0
 74
     0
 49
-3.0
 74
     0
 49
12.0
 74
     0
 49
-3.0
 74
     0
 49
0.5
 74
     0
 49
-3.0
 74
     0
 49
0.5
 74
     0
 49
-3.0
 74
     0
  0
ENDTAB
  0
TABLE
  2
LAYER
  5
2
330
0
100
AcDbSymbolTable
 70
    25
  0
LAYER
  5
10
330
2
100
AcDbSymbolTableRecord
100
AcDbLayerTableRecord
  2
0
 70
     0
 62
     7
  6
Continuous
370
    -3
390
F
347
46
348
0
  0
LAYER
  5
C4
330
2
100
AcDbSymbolTableRecord
100
AcDbLayerTableRecord
  2
1
 70
     0
 62
     7
  6
Continuous
370
     9
390
F
347
46
348
0
  0
LAYER
  5
C5
330
2
100
AcDbSymbolTableRecord
100
AcDbLayerTableRecord
  2
2
 70
     0
 62
   136
420
    32896
  6
Continuous
370
     9
390
F
347
46
348
0
  0
LAYER
  5
C6
330
2
100
AcDbSymbolTableRecord
100
AcDbLayerTableRecord
  2
3
 70
     0
 62
   216
420
  8388736
  6
Continuous
370
     9
390
F
347
46
348
0
  0
LAYER
  5
C7
330
2
100
AcDbSymbolTableRecord
100
AcDbLayerTableRecord
  2
4
 70
     0
 62
    56
420
  8421376
  6
Continuous
370
     9
390
F
347
46
348
0
  0
LAYER
  5
C8
330
2
100
AcDbSymbolTableRecord
100
AcDbLayerTableRecord
  2
5
 70
     0
 62
    96
420
    32768
  6
Continuous
370
     9
390
F
347
46
348
0
  0
LAYER
  5
C9
330
2
100
AcDbSymbolTableRecord
100
AcDbLayerTableRecord
  2
6
 70
     0
 62
    16
420
  8388608
  6
Continuous
370
     9
390
F
347
46
348
0
  0
LAYER
  5
CA
330
2
100
AcDbSymbolTableRecord
100
AcDbLayerTableRecord
  2
7
 70
     0
 62
     4
  6
Continuous
370
     9
390
F
347
46
348
0
  0
LAYER
  5
CB
330
2
100
AcDbSymbolTableRecord
100
AcDbLayerTableRecord
  2
8
 70
     0
 62
     6
  6
Continuous
370
     9
390
F
347
46
348
0
  0
LAYER
  5
CC
330
2
100
AcDbSymbolTableRecord
100
AcDbLayerTableRecord
  2
9
 70
     0
 62
     2
  6
Continuous
370
     9
390
F
347
46
348
0
  0
LAYER
  5
CD
330
2
100
AcDbSymbolTableRecord
100
AcDbLayerTableRecord
  2
10
 70
     0
 62
     3
  6
Continuous
370
     9
390
F
347
46
348
0
  0
LAYER
  5
CE
330
2
100
AcDbSymbolTableRecord
100
AcDbLayerTableRecord
  2
11
 70
     0
 62
     8
420
  8421504
  6
Continuous
370
     9
390
F
347
46
348
0
  0
LAYER
  5
CF
330
2
100
AcDbSymbolTableRecord
100
AcDbLayerTableRecord
  2
12
 70
     0
 62
   138
420
    20560
  6
Continuous
370
     9
390
F
347
46
348
0
  0
LAYER
  5
D0
330
2
100
AcDbSymbolTableRecord
100
AcDbLayerTableRecord
  2
13
 70
     0
 62
   218
420
  5242960
  6
Continuous
370
     9
390
F
347
46
348
0
  0
LAYER
  5
D1
330
2
100
AcDbSymbolTableRecord
100
AcDbLayerTableRecord
  2
14
 70
     0
 62
    58
420
  5263360
  6
Continuous
370
     9
390
F
347
46
348
0
  0
LAYER
  5
D2
330
2
100
AcDbSymbolTableRecord
100
AcDbLayerTableRecord
  2
15
 70
     0
 62
    98
420
    20480
  6
Continuous
370
     9
390
F
347
46
348
0
  0
LAYER
  5
D3
330
2
100
AcDbSymbolTableRecord
100
AcDbLayerTableRecord
  2
16
 70
     0
 62
    18
420
  5242880
  6
Continuous
370
     9
390
F
347
46
348
0
  0
LAYER
  5
D4
330
2
100
AcDbSymbolTableRecord
100
AcDbLayerTableRecord
  2
17
 70
     0
 62
   132
420
    49344
  6
Continuous
370
     9
390
F
347
46
348
0
  0
LAYER
  5
D5
330
2
100
AcDbSymbolTableRecord
100
AcDbLayerTableRecord
  2
18
 70
     0
 62
   212
420
 12583104
  6
Continuous
370
     9
390
F
347
46
348
0
  0
LAYER
  5
D6
330
2
100
AcDbSymbolTableRecord
100
AcDbLayerTableRecord
  2
19
 70
     0
 62
    52
420
 12632064
  6
Continuous
370
     9
390
F
347
46
348
0
  0
LAYER
  5
D7
330
2
100
AcDbSymbolTableRecord
100
AcDbLayerTableRecord
  2
20
 70
     0
 62
   251
420
  5263440
  6
Continuous
370
     9
390
F
347
46
348
0
  0
LAYER
  5
D8
330
2
100
AcDbSymbolTableRecord
100
AcDbLayerTableRecord
  2
21
 70
     0
 62
     7
  6
Continuous
370
     9
390
F
347
46
348
0
  0
LAYER
  5
D9
330
2
100
AcDbSymbolTableRecord
100
AcDbLayerTableRecord
  2
100
 70
     0
 62
     7
  6
Continuous
370
     9
390
F
347
46
348
0
  0
LAYER
  5
DA
330
2
100
AcDbSymbolTableRecord
100
AcDbLayerTableRecord
  2
101
 70
     0
 62
     7
  6
Continuous
370
     9
390
F
347
46
348
0
  0
LAYER
  5
DB
330
2
100
AcDbSymbolTableRecord
100
AcDbLayerTableRecord
  2
102
 70
     0
 62
     7
  6
Continuous
370
     9
390
F
347
46
348
0
  0
ENDTAB
  0
TABLE
  2
STYLE
  5
3
330
0
100
AcDbSymbolTable
 70
     2
  0
STYLE
  5
11
330
3
100
AcDbSymbolTableRecord
100
AcDbTextStyleTableRecord
  2
Standard
 70
     0
 40
0.0
 41
1.0
 50
0.0
 71
     0
 42
5.0
  3
txt
  4
bigfont
  0
STYLE
  5
6F
330
3
100
AcDbSymbolTableRecord
100
AcDbTextStyleTableRecord
  2
T_STANDARD
 70
     4
 40
10.0
 41
1.0
 50
0.0
 71
     0
 42
5.0
  3
txt
  4
bigfont
1001
ACAD
1000

1071
      256
  0
ENDTAB
  0
TABLE
  2
VIEW
  5
6
330
0
100
AcDbSymbolTable
 70
     0
  0
ENDTAB
  0
TABLE
  2
UCS
  5
7
330
0
100
AcDbSymbolTable
 70
     0
  0
ENDTAB
  0
TABLE
  2
APPID
  5
9
330
0
100
AcDbSymbolTable
 70
     2
  0
APPID
  5
12
330
9
100
AcDbSymbolTableRecord
100
AcDbRegAppTableRecord
  2
ACAD
 70
     0
  0
APPID
  5
6E
330
9
100
AcDbSymbolTableRecord
100
AcDbRegAppTableRecord
  2
ODA
 70
     0
  0
ENDTAB
  0
TABLE
  2
DIMSTYLE
  5
A
330
0
100
AcDbSymbolTable
 70
     1
100
AcDbDimStyleTable
  0
DIMSTYLE
105
27
330
A
100
AcDbSymbolTableRecord
100
AcDbDimStyleTableRecord
  2
Standard
 70
     0
178
     0
340
11
  0
ENDTAB
  0
TABLE
  2
BLOCK_RECORD
  5
1
330
0
100
AcDbSymbolTable
 70
    16
  0
BLOCK_RECORD
  5
1F
330
1
100
AcDbSymbolTableRecord
100
AcDbBlockTableRecord
  2
*Model_Space
340
22
 70
     0
280
     1
281
     0
  0
BLOCK_RECORD
  5
1B
330
1
100
AcDbSymbolTableRecord
100
AcDbBlockTableRecord
  2
*Paper_Space
340
1E
 70
     0
280
     1
281
     0
  0
BLOCK_RECORD
  5
23
330
1
100
AcDbSymbolTableRecord
100
AcDbBlockTableRecord
  2
*Paper_Space0
340
26
 70
     0
280
     1
281
     0
  0
BLOCK_RECORD
  5
70
330
1
100
AcDbSymbolTableRecord
100
AcDbBlockTableRecord
  2
_ORIGIN
340
0
 70
     0
280
     1
281
     0
  0
BLOCK_RECORD
  5
75
330
1
100
AcDbSymbolTableRecord
100
AcDbBlockTableRecord
  2
_DOTBLANK
340
0
 70
     0
280
     1
281
     0
  0
BLOCK_RECORD
  5
7A
330
1
100
AcDbSymbolTableRecord
100
AcDbBlockTableRecord
  2
_DOT
340
0
 70
     0
280
     1
281
     0
  0
BLOCK_RECORD
  5
7F
330
1
100
AcDbSymbolTableRecord
100
AcDbBlockTableRecord
  2
_OPEN
340
0
 70
     0
280
     1
281
     0
  0
BLOCK_RECORD
  5
85
330
1
100
AcDbSymbolTableRecord
100
AcDbBlockTableRecord
  2
_CLOSED
340
0
 70
     0
280
     1
281
     0
  0
BLOCK_RECORD
  5
8C
330
1
100
AcDbSymbolTableRecord
100
AcDbBlockTableRecord
  2
_CLOSEDBLANK
340
0
 70
     0
280
     1
281
     0
  0
BLOCK_RECORD
  5
92
330
1
100
AcDbSymbolTableRecord
100
AcDbBlockTableRecord
  2
_ARROWFILLED
340
0
 70
     0
280
     1
281
     0
  0
BLOCK_RECORD
  5
96
330
1
100
AcDbSymbolTableRecord
100
AcDbBlockTableRecord
  2
_BOXBLANK
340
0
 70
     0
280
     1
281
     0
  0
BLOCK_RECORD
  5
9E
330
1
100
AcDbSymbolTableRecord
100
AcDbBlockTableRecord
  2
_BOXFILLED
340
0
 70
     0
280
     1
281
     0
  0
BLOCK_RECORD
  5
A3
330
1
100
AcDbSymbolTableRecord
100
AcDbBlockTableRecord
  2
_INTEGRAL
340
0
 70
     0
280
     1
281
     0
  0
BLOCK_RECORD
  5
A8
330
1
100
AcDbSymbolTableRecord
100
AcDbBlockTableRecord
  2
_OBLIQUE
340
0
 70
     0
280
     1
281
     0
  0
BLOCK_RECORD
  5
AC
330
1
100
AcDbSymbolTableRecord
100
AcDbBlockTableRecord
  2
_NONE
340
0
 70
     0
280
     1
281
     0
  0
BLOCK_RECORD
  5
AF
330
1
100
AcDbSymbolTableRecord
100
AcDbBlockTableRecord
  2
MARK_OPEN
340
0
 70
     0
280
     1
281
     0
  0
BLOCK_RECORD
  5
B4
330
1
100
AcDbSymbolTableRecord
100
AcDbBlockTableRecord
  2
MARK_ORIGIN
340
0
 70
     0
280
     1
281
     0
  0
BLOCK_RECORD
  5
B8
330
1
100
AcDbSymbolTableRecord
100
AcDbBlockTableRecord
  2
MARK_DOT
340
0
 70
     0
280
     1
281
     0
  0
ENDTAB
  0
ENDSEC
  0
SECTION
  2
BLOCKS
  0
BLOCK
  5
20
330
1F
100
AcDbEntity
  8
0
100
AcDbBlockBegin
  2
*Model_Space
 70
     0
 10
0.0
 20
0.0
 30
0.0
  3
*Model_Space
  1

  0
ENDBLK
  5
21
330
1F
100
AcDbEntity
  8
0
100
AcDbBlockEnd
  0
BLOCK
  5
1C
330
1B
100
AcDbEntity
 67
     1
  8
0
100
AcDbBlockBegin
  2
*Paper_Space
 70
     0
 10
0.0
 20
0.0
 30
0.0
  3
*Paper_Space
  1

  0
ENDBLK
  5
1D
330
1B
100
AcDbEntity
 67
     1
  8
0
100
AcDbBlockEnd
  0
BLOCK
  5
24
330
23
100
AcDbEntity
  8
0
100
AcDbBlockBegin
  2
*Paper_Space0
 70
     0
 10
0.0
 20
0.0
 30
0.0
  3
*Paper_Space0
  1

  0
ENDBLK
  5
25
330
23
100
AcDbEntity
  8
0
100
AcDbBlockEnd
  0
BLOCK
  5
73
330
70
100
AcDbEntity
  8
0
100
AcDbBlockBegin
  2
_ORIGIN
 70
     0
 10
0.0
 20
0.0
 30
0.0
  3
_ORIGIN
  1

  0
CIRCLE
  5
71
330
70
100
AcDbEntity
  8
0
 62
     0
100
AcDbCircle
 10
0.0
 20
0.0
 30
0.0
 40
0.5
  0
LINE
  5
72
330
70
100
AcDbEntity
  8
0
 62
     0
100
AcDbLine
 10
0.0
 20
0.0
 30
0.0
 11
-1.0
 21
0.0
 31
0.0
  0
ENDBLK
  5
74
330
70
100
AcDbEntity
  8
0
100
AcDbBlockEnd
  0
BLOCK
  5
78
330
75
100
AcDbEntity
  8
0
100
AcDbBlockBegin
  2
_DOTBLANK
 70
     0
 10
0.0
 20
0.0
 30
0.0
  3
_DOTBLANK
  1

  0
CIRCLE
  5
76
330
75
100
AcDbEntity
  8
0
 62
     0
100
AcDbCircle
 10
0.0
 20
0.0
 30
0.0
 40
0.5
  0
LINE
  5
77
330
75
100
AcDbEntity
  8
0
 62
     0
100
AcDbLine
 10
-0.5
 20
0.0
 30
0.0
 11
-1.0
 21
0.0
 31
0.0
  0
ENDBLK
  5
79
330
75
100
AcDbEntity
  8
0
100
AcDbBlockEnd
  0
BLOCK
  5
7D
330
7A
100
AcDbEntity
  8
0
100
AcDbBlockBegin
  2
_DOT
 70
     0
 10
0.0
 20
0.0
 30
0.0
  3
_DOT
  1

  0
LWPOLYLINE
  5
7B
330
7A
100
AcDbEntity
  8
0
 62
     0
100
AcDbPolyline
 90
        2
 70
     1
 43
0.5
 10
-0.25
 20
0.0
 42
1.0
 10
0.25
 20
0.0
 42
1.0
  0
LINE
  5
7C
330
7A
100
AcDbEntity
  8
0
 62
     0
100
AcDbLine
 10
-0.5
 20
0.0
 30
0.0
 11
-1.0
 21
0.0
 31
0.0
  0
ENDBLK
  5
7E
330
7A
100
AcDbEntity
  8
0
100
AcDbBlockEnd
  0
BLOCK
  5
83
330
7F
100
AcDbEntity
  8
0
100
AcDbBlockBegin
  2
_OPEN
 70
     0
 10
0.0
 20
0.0
 30
0.0
  3
_OPEN
  1

  0
LINE
  5
80
330
7F
100
AcDbEntity
  8
0
 62
     0
100
AcDbLine
 10
0.0
 20
0.0
 30
0.0
 11
-1.0
 21
0.1666666666666667
 31
0.0
  0
LINE
  5
81
330
7F
100
AcDbEntity
  8
0
 62
     0
100
AcDbLine
 10
0.0
 20
0.0
 30
0.0
 11
-1.0
 21
-0.1666666666666667
 31
0.0
  0
LINE
  5
82
330
7F
100
AcDbEntity
  8
0
 62
     0
100
AcDbLine
 10
0.0
 20
0.0
 30
0.0
 11
-1.0
 21
0.0
 31
0.0
  0
ENDBLK
  5
84
330
7F
100
AcDbEntity
  8
0
100
AcDbBlockEnd
  0
BLOCK
  5
8A
330
85
100
AcDbEntity
  8
0
100
AcDbBlockBegin
  2
_CLOSED
 70
     0
 10
0.0
 20
0.0
 30
0.0
  3
_CLOSED
  1

  0
LINE
  5
86
330
85
100
AcDbEntity
  8
0
 62
     0
100
AcDbLine
 10
0.0
 20
0.0
 30
0.0
 11
-1.0
 21
0.1666666666666667
 31
0.0
  0
LINE
  5
87
330
85
100
AcDbEntity
  8
0
 62
     0
100
AcDbLine
 10
0.0
 20
0.0
 30
0.0
 11
-1.0
 21
-0.1666666666666667
 31
0.0
  0
LINE
  5
88
330
85
100
AcDbEntity
  8
0
 62
     0
100
AcDbLine
 10
-1.0
 20
0.1666666666666667
 30
0.0
 11
-1.0
 21
-0.1666666666666667
 31
0.0
  0
LINE
  5
89
330
85
100
AcDbEntity
  8
0
 62
     0
100
AcDbLine
 10
0.0
 20
0.0
 30
0.0
 11
-1.0
 21
0.0
 31
0.0
  0
ENDBLK
  5
8B
330
85
100
AcDbEntity
  8
0
100
AcDbBlockEnd
  0
BLOCK
  5
90
330
8C
100
AcDbEntity
  8
0
100
AcDbBlockBegin
  2
_CLOSEDBLANK
 70
     0
 10
0.0
 20
0.0
 30
0.0
  3
_CLOSEDBLANK
  1

  0
LINE
  5
8D
330
8C
100
AcDbEntity
  8
0
 62
     0
100
AcDbLine
 10
0.0
 20
0.0
 30
0.0
 11
-1.0
 21
0.1666666666666667
 31
0.0
  0
LINE
  5
8E
330
8C
100
AcDbEntity
  8
0
 62
     0
100
AcDbLine
 10
0.0
 20
0.0
 30
0.0
 11
-1.0
 21
-0.1666666666666667
 31
0.0
  0
LINE
  5
8F
330
8C
100
AcDbEntity
  8
0
 62
     0
100
AcDbLine
 10
-1.0
 20
0.1666666666666667
 30
0.0
 11
-1.0
 21
-0.1666666666666667
 31
0.0
  0
ENDBLK
  5
91
330
8C
100
AcDbEntity
  8
0
100
AcDbBlockEnd
  0
BLOCK
  5
94
330
92
100
AcDbEntity
  8
0
100
AcDbBlockBegin
  2
_ARROWFILLED
 70
     0
 10
0.0
 20
0.0
 30
0.0
  3
_ARROWFILLED
  1

  0
SOLID
  5
93
330
92
100
AcDbEntity
  8
0
 62
     0
100
AcDbTrace
 10
0.0
 20
0.0
 30
0.0
 11
-1.0
 21
-0.1666666666666667
 31
0.0
 12
-1.0
 22
0.1666666666666667
 32
0.0
 13
0.0
 23
0.0
 33
0.0
  0
ENDBLK
  5
95
330
92
100
AcDbEntity
  8
0
100
AcDbBlockEnd
  0
BLOCK
  5
9C
330
96
100
AcDbEntity
  8
0
100
AcDbBlockBegin
  2
_BOXBLANK
 70
     0
 10
0.0
 20
0.0
 30
0.0
  3
_BOXBLANK
  1

  0
LINE
  5
97
330
96
100
AcDbEntity
  8
0
 62
     0
100
AcDbLine
 10
-0.5
 20
-0.5
 30
0.0
 11
0.5
 21
-0.5
 31
0.0
  0
LINE
  5
98
330
96
100
AcDbEntity
  8
0
 62
     0
100
AcDbLine
 10
0.5
 20
-0.5
 30
0.0
 11
0.5
 21
0.5
 31
0.0
  0
LINE
  5
99
330
96
100
AcDbEntity
  8
0
 62
     0
100
AcDbLine
 10
0.5
 20
0.5
 30
0.0
 11
-0.5
 21
0.5
 31
0.0
  0
LINE
  5
9A
330
96
100
AcDbEntity
  8
0
 62
     0
100
AcDbLine
 10
-0.5
 20
0.5
 30
0.0
 11
-0.5
 21
-0.5
 31
0.0
  0
LINE
  5
9B
330
96
100
AcDbEntity
  8
0
 62
     0
100
AcDbLine
 10
-0.5
 20
0.0
 30
0.0
 11
-1.0
 21
0.0
 31
0.0
  0
ENDBLK
  5
9D
330
96
100
AcDbEntity
  8
0
100
AcDbBlockEnd
  0
BLOCK
  5
A1
330
9E
100
AcDbEntity
  8
0
100
AcDbBlockBegin
  2
_BOXFILLED
 70
     0
 10
0.0
 20
0.0
 30
0.0
  3
_BOXFILLED
  1

  0
SOLID
  5
9F
330
9E
100
AcDbEntity
  8
0
 62
     0
100
AcDbTrace
 10
-0.5
 20
0.5
 30
0.0
 11
0.5
 21
0.5
 31
0.0
 12
-0.5
 22
-0.5
 32
0.0
 13
0.5
 23
-0.5
 33
0.0
  0
LINE
  5
A0
330
9E
100
AcDbEntity
  8
0
 62
     0
100
AcDbLine
 10
-0.5
 20
0.0
 30
0.0
 11
-1.0
 21
0.0
 31
0.0
  0
ENDBLK
  5
A2
330
9E
100
AcDbEntity
  8
0
100
AcDbBlockEnd
  0
BLOCK
  5
A6
330
A3
100
AcDbEntity
  8
0
100
AcDbBlockBegin
  2
_INTEGRAL
 70
     0
 10
0.0
 20
0.0
 30
0.0
  3
_INTEGRAL
  1

  0
ARC
  5
A4
330
A3
100
AcDbEntity
  8
0
 62
     0
100
AcDbCircle
 10
0.444888
 20
-0.0913346
 30
0.0
 40
0.4541666
100
AcDbArc
 50
101.9999999999999
 51
167.9999999999998
  0
ARC
  5
A5
330
A3
100
AcDbEntity
  8
0
 62
     0
100
AcDbCircle
 10
-0.444888
 20
0.0913346
 30
0.0
 40
0.4541666
100
AcDbArc
 50
281.9999999999997
 51
347.9999999999997
  0
ENDBLK
  5
A7
330
A3
100
AcDbEntity
  8
0
100
AcDbBlockEnd
  0
BLOCK
  5
AA
330
A8
100
AcDbEntity
  8
0
100
AcDbBlockBegin
  2
_OBLIQUE
 70
     0
 10
0.0
 20
0.0
 30
0.0
  3
_OBLIQUE
  1

  0
LINE
  5
A9
330
A8
100
AcDbEntity
  8
0
 62
     0
100
AcDbLine
 10
-0.5
 20
-0.5
 30
0.0
 11
0.5
 21
0.5
 31
0.0
  0
ENDBLK
  5
AB
330
A8
100
AcDbEntity
  8
0
100
AcDbBlockEnd
  0
BLOCK
  5
AD
330
AC
100
AcDbEntity
  8
0
100
AcDbBlockBegin
  2
_NONE
 70
     0
 10
0.0
 20
0.0
 30
0.0
  3
_NONE
  1

  0
ENDBLK
  5
AE
330
AC
100
AcDbEntity
  8
0
100
AcDbBlockEnd
  0
BLOCK
  5
B2
330
AF
100
AcDbEntity
  8
0
100
AcDbBlockBegin
  2
MARK_OPEN
 70
     0
 10
0.0
 20
0.0
 30
0.0
  3
MARK_OPEN
  1

  0
LINE
  5
B0
330
AF
100
AcDbEntity
  8
0
 62
     0
100
AcDbLine
 10
0.0
 20
0.0
 30
0.0
 11
-1.0
 21
0.1666666666666667
 31
0.0
  0
LINE
  5
B1
330
AF
100
AcDbEntity
  8
0
 62
     0
100
AcDbLine
 10
0.0
 20
0.0
 30
0.0
 11
-1.0
 21
-0.1666666666666667
 31
0.0
  0
ENDBLK
  5
B3
330
AF
100
AcDbEntity
  8
0
100
AcDbBlockEnd
  0
BLOCK
  5
B6
330
B4
100
AcDbEntity
  8
0
100
AcDbBlockBegin
  2
MARK_ORIGIN
 70
     0
 10
0.0
 20
0.0
 30
0.0
  3
MARK_ORIGIN
  1

  0
CIRCLE
  5
B5
330
B4
100
AcDbEntity
  8
0
 62
     0
100
AcDbCircle
 10
0.0
 20
0.0
 30
0.0
 40
0.5
  0
ENDBLK
  5
B7
330
B4
100
AcDbEntity
  8
0
100
AcDbBlockEnd
  0
BLOCK
  5
BA
330
B8
100
AcDbEntity
  8
0
100
AcDbBlockBegin
  2
MARK_DOT
 70
     0
 10
0.0
 20
0.0
 30
0.0
  3
MARK_DOT
  1

  0
LWPOLYLINE
  5
B9
330
B8
100
AcDbEntity
  8
0
 62
     0
100
AcDbPolyline
 90
        2
 70
     1
 43
0.5
 10
-0.25
 20
0.0
 42
1.0
 10
0.25
 20
0.0
 42
1.0
  0
ENDBLK
  5
BB
330
B8
100
AcDbEntity
  8
0
100
AcDbBlockEnd
  0
ENDSEC
  0
SECTION
  2
ENTITIES
  0
LINE
  5
DC
330
1F
100
AcDbEntity
  8
101
  6
Continuous
 62
     7
370
    30
100
AcDbLine
 10
47.73665730337075
 20
106.1502808988761
 30
0.0
 11
45.61306179775278
 21
106.7991573033705
 31
0.0
  0
LINE
  5
DD
330
1F
100
AcDbEntity
  8
101
  6
Continuous
 62
     7
370
    30
100
AcDbLine
 10
45.61306179775278
 20
106.7991573033705
 30
0.0
 11
43.3714887640449
 21
106.7401685393256
 31
0.0
  0
LINE
  5
DE
330
1F
100
AcDbEntity
  8
101
  6
Continuous
 62
     7
370
    30
100
AcDbLine
 10
43.3714887640449
 20
106.7401685393256
 30
0.0
 11
42.0147471910112
 21
106.3862359550559
 31
0.0
  0
LINE
  5
DF
330
1F
100
AcDbEntity
  8
101
  6
Continuous
 62
     7
370
    30
100
AcDbLine
 10
42.0147471910112
 20
106.3862359550559
 30
0.0
 11
41.71980337078648
 21
105.5603932584267
 31
0.0
  0
LINE
  5
E0
330
1F
100
AcDbEntity
  8
101
  6
Continuous
 62
     7
370
    30
100
AcDbLine
 10
41.71980337078648
 20
105.5603932584267
 30
0.0
 11
41.83778089887636
 21
104.3806179775278
 31
0.0
  0
LINE
  5
E1
330
1F
100
AcDbEntity
  8
101
  6
Continuous
 62
     7
370
    30
100
AcDbLine
 10
41.83778089887636
 20
104.3806179775278
 30
0.0
 11
43.48946629213479
 21
102.7289325842694
 31
0.0
  0
LINE
  5
E2
330
1F
100
AcDbEntity
  8
101
  6
Continuous
 62
     7
370
    30
100
AcDbLine
 10
43.48946629213479
 20
102.7289325842694
 30
0.0
 11
47.2647471910112
 21
101.3132022471907
 31
0.0
  0
LINE
  5
E3
330
1F
100
AcDbEntity
  8
101
  6
Continuous
 62
     7
370
    30
100
AcDbLine
 10
47.2647471910112
 20
101.3132022471907
 30
0.0
 11
64.3714887640449
 21
94.5294943820222
 31
0.0
  0
LINE
  5
E4
330
1F
100
AcDbEntity
  8
101
  6
Continuous
 62
     7
370
    30
100
AcDbLine
 10
64.3714887640449
 20
94.5294943820222
 30
0.0
 11
80.29845505617973
 21
88.74859550561767
 31
0.0
  0
LINE
  5
E5
330
1F
100
AcDbEntity
  8
101
  6
Continuous
 62
     7
370
    30
100
AcDbLine
 10
80.29845505617973
 20
88.74859550561767
 30
0.0
 11
91.6832865168539
 21
85.1502808988761
 31
0.0
  0
LINE
  5
E6
330
1F
100
AcDbEntity
  8
101
  6
Continuous
 62
     7
370
    30
100
AcDbLine
 10
91.6832865168539
 20
85.1502808988761
 30
0.0
 11
100.8265449438202
 21
82.43679775280869
 31
0.0
  0
LINE
  5
E7
330
1F
100
AcDbEntity
  8
101
  6
Continuous
 62
     7
370
    30
100
AcDbLine
 10
100.8265449438202
 20
82.43679775280869
 30
0.0
 11
107.9641853932584
 21
80.72612359550536
 31
0.0
  0
LINE
  5
E8
330
1F
100
AcDbEntity
  8
101
  6
Continuous
 62
     7
370
    30
100
AcDbLine
 10
107.9641853932584
 20
80.72612359550536
 30
0.0
 11
110.5596910112359
 21
80.78511235955031
 31
0.0
  0
LINE
  5
E9
330
1F
100
AcDbEntity
  8
101
  6
Continuous
 62
     7
370
    30
100
AcDbLine
 10
110.5596910112359
 20
80.78511235955031
 30
0.0
 11
111.2085674157303
 21
81.78792134831436
 31
0.0
  0
LINE
  5
EA
330
1F
100
AcDbEntity
  8
101
  6
Continuous
 62
     7
370
    30
100
AcDbLine
 10
111.2085674157303
 20
81.78792134831436
 30
0.0
 11
110.8546348314606
 21
83.08567415730312
 31
0.0
  0
LINE
  5
EB
330
1F
100
AcDbEntity
  8
101
  6
Continuous
 62
     7
370
    30
100
AcDbLine
 10
110.8546348314606
 20
83.08567415730312
 30
0.0
 11
109.9698033707865
 21
84.02949438202222
 31
0.0
  0
LINE
  5
EC
330
1F
100
AcDbEntity
  8
101
  6
Continuous
 62
     7
370
    30
100
AcDbLine
 10
109.9698033707865
 20
84.02949438202222
 30
0.0
 11
108.9669943820224
 21
84.50140449438177
 31
0.0
  0
LINE
  5
ED
330
1F
100
AcDbEntity
  8
101
  6
Continuous
 62
     7
370
    30
100
AcDbLine
 10
108.7900280898876
 20
83.85252808988739
 30
0.0
 11
105.7226123595505
 21
84.44241573033682
 31
0.0
  0
LINE
  5
EE
330
1F
100
AcDbEntity
  8
101
  6
Continuous
 62
     7
370
    30
100
AcDbLine
 10
105.7226123595505
 20
84.44241573033682
 30
0.0
 11
97.70014044943815
 21
86.97893258426942
 31
0.0
  0
LINE
  5
EF
330
1F
100
AcDbEntity
  8
101
  6
Continuous
 62
     7
370
    30
100
AcDbLine
 10
97.70014044943815
 20
86.97893258426942
 30
0.0
 11
85.54845505617976
 21
90.93117977528067
 31
0.0
  0
LINE
  5
F0
330
1F
100
AcDbEntity
  8
101
  6
Continuous
 62
     7
370
    30
100
AcDbLine
 10
85.54845505617976
 20
90.93117977528067
 30
0.0
 11
73.16081460674155
 21
95.17837078651661
 31
0.0
  0
LINE
  5
F1
330
1F
100
AcDbEntity
  8
101
  6
Continuous
 62
     7
370
    30
100
AcDbLine
 10
73.16081460674155
 20
95.17837078651661
 30
0.0
 11
60.95014044943817
 21
99.60252808988737
 31
0.0
  0
LINE
  5
F2
330
1F
100
AcDbEntity
  8
101
  6
Continuous
 62
     7
370
    30
100
AcDbLine
 10
60.95014044943817
 20
99.60252808988737
 30
0.0
 11
50.09620786516851
 21
103.7317415730334
 31
0.0
  0
LINE
  5
F3
330
1F
100
AcDbEntity
  8
101
  6
Continuous
 62
     7
370
    30
100
AcDbLine
 10
50.09620786516851
 20
103.7317415730334
 30
0.0
 11
47.72191011235951
 21
104.6313202247188
 31
0.0
  0
LINE
  5
F4
330
1F
100
AcDbEntity
  8
101
  6
Continuous
 62
     7
370
    30
100
AcDbLine
 10
47.72191011235951
 20
104.6313202247188
 30
0.0
 11
46.95505617977524
 21
105.0294943820222
 31
0.0
  0
LINE
  5
F5
330
1F
100
AcDbEntity
  8
101
  6
Continuous
 62
     7
370
    30
100
AcDbLine
 10
46.95505617977524
 20
105.0294943820222
 30
0.0
 11
46.27668539325839
 21
105.3981741573031
 31
0.0
  0
LINE
  5
F6
330
1F
100
AcDbEntity
  8
101
  6
Continuous
 62
     7
370
    30
100
AcDbLine
 10
46.27668539325839
 20
105.3981741573031
 30
0.0
 11
46.24719101123591
 21
105.6193820224716
 31
0.0
  0
LINE
  5
F7
330
1F
100
AcDbEntity
  8
101
  6
Continuous
 62
     7
370
    30
100
AcDbLine
 10
40.64325842696627
 20
78.04213483146039
 30
0.0
 11
40.25983146067414
 21
78.04213483146039
 31
0.0
  0
LINE
  5
F8
330
1F
100
AcDbEntity
  8
101
  6
Continuous
 62
     7
370
    30
100
AcDbLine
 10
37.51685393258424
 20
78.33707865168512
 30
0.0
 11
35.95365168539324
 21
78.27808988764016
 31
0.0
  0
LINE
  5
F9
330
1F
100
AcDbEntity
  8
101
  6
Continuous
 62
     7
370
    30
100
AcDbLine
 10
35.95365168539324
 20
78.27808988764016
 30
0.0
 11
34.30196629213481
 21
78.27808988764016
 31
0.0
  0
LINE
  5
FA
330
1F
100
AcDbEntity
  8
101
  6
Continuous
 62
     7
370
    30
100
AcDbLine
 10
34.30196629213481
 20
78.27808988764016
 30
0.0
 11
32.88623595505616
 21
77.9241573033705
 31
0.0
  0
LINE
  5
FB
330
1F
100
AcDbEntity
  8
101
  6
Continuous
 62
     7
370
    30
100
AcDbLine
 10
32.88623595505616
 20
77.9241573033705
 30
0.0
 11
31.55898876404493
 21
77.12780898876376
 31
0.0
  0
LINE
  5
FC
330
1F
100
AcDbEntity
  8
101
  6
Continuous
 62
     7
370
    30
100
AcDbLine
 10
31.55898876404493
 20
77.12780898876376
 30
0.0
 11
31.14606741573033
 21
75.97752808988736
 31
0.0
  0
LINE
  5
FD
330
1F
100
AcDbEntity
  8
101
  6
Continuous
 62
     7
370
    30
100
AcDbLine
 10
31.14606741573033
 20
75.97752808988736
 30
0.0
 11
31.20505617977526
 21
74.53230337078624
 31
0.0
  0
LINE
  5
FE
330
1F
100
AcDbEntity
  8
101
  6
Continuous
 62
     7
370
    30
100
AcDbLine
 10
31.20505617977526
 20
74.53230337078624
 30
0.0
 11
32.32584269662919
 21
72.96910112359522
 31
0.0
  0
LINE
  5
FF
330
1F
100
AcDbEntity
  8
101
  6
Continuous
 62
     7
370
    30
100
AcDbLine
 10
32.32584269662919
 20
72.96910112359522
 30
0.0
 11
34.30196629213481
 21
71.37640449438175
 31
0.0
  0
LINE
  5
100
330
1F
100
AcDbEntity
  8
101
  6
Continuous
 62
     7
370
    30
100
AcDbLine
 10
34.30196629213481
 20
71.37640449438175
 30
0.0
 11
39.49297752808987
 21
68.04353932584246
 31
0.0
  0
LINE
  5
101
330
1F
100
AcDbEntity
  8
101
  6
Continuous
 62
     7
370
    30
100
AcDbLine
 10
39.49297752808987
 20
68.04353932584246
 30
0.0
 11
44.65449438202245
 21
65.4775280898874
 31
0.0
  0
LINE
  5
102
330
1F
100
AcDbEntity
  8
101
  6
Continuous
 62
     7
370
    30
100
AcDbLine
 10
44.65449438202245
 20
65.4775280898874
 30
0.0
 11
50.28792134831458
 21
63.02949438202224
 31
0.0
  0
LINE
  5
103
330
1F
100
AcDbEntity
  8
101
  6
Continuous
 62
     7
370
    30
100
AcDbLine
 10
50.28792134831458
 20
63.02949438202224
 30
0.0
 11
61.11235955056175
 21
58.95926966292113
 31
0.0
  0
LINE
  5
104
330
1F
100
AcDbEntity
  8
101
  6
Continuous
 62
     7
370
    30
100
AcDbLine
 10
61.11235955056175
 20
58.95926966292113
 30
0.0
 11
69.96067415730332
 21
56.06882022471888
 31
0.0
  0
LINE
  5
105
330
1F
100
AcDbEntity
  8
101
  6
Continuous
 62
     7
370
    30
100
AcDbLine
 10
69.96067415730332
 20
56.06882022471888
 30
0.0
 11
82.05337078651681
 21
52.88342696629195
 31
0.0
  0
LINE
  5
106
330
1F
100
AcDbEntity
  8
101
  6
Continuous
 62
     7
370
    30
100
AcDbLine
 10
82.05337078651681
 20
52.88342696629195
 30
0.0
 11
85.91713483146063
 21
52.05758426966273
 31
0.0
  0
LINE
  5
107
330
1F
100
AcDbEntity
  8
101
  6
Continuous
 62
     7
370
    30
100
AcDbLine
 10
85.91713483146063
 20
52.05758426966273
 30
0.0
 11
89.10252808988758
 21
51.52668539325823
 31
0.0
  0
LINE
  5
108
330
1F
100
AcDbEntity
  8
101
  6
Continuous
 62
     7
370
    30
100
AcDbLine
 10
89.10252808988758
 20
51.52668539325823
 30
0.0
 11
93.4971910112359
 21
51.08426966292116
 31
0.0
  0
LINE
  5
109
330
1F
100
AcDbEntity
  8
101
  6
Continuous
 62
     7
370
    30
100
AcDbLine
 10
93.4971910112359
 20
51.08426966292116
 30
0.0
 11
98.1867977528089
 21
51.32022471910096
 31
0.0
  0
LINE
  5
10A
330
1F
100
AcDbEntity
  8
101
  6
Continuous
 62
     7
370
    30
100
AcDbLine
 10
98.1867977528089
 20
51.32022471910096
 30
0.0
 11
99.74999999999991
 21
51.88061797752793
 31
0.0
  0
LINE
  5
10B
330
1F
100
AcDbEntity
  8
101
  6
Continuous
 62
     7
370
    30
100
AcDbLine
 10
99.74999999999991
 20
51.88061797752793
 30
0.0
 11
100.6127106741572
 21
52.82443820224704
 31
0.0
  0
LINE
  5
10C
330
1F
100
AcDbEntity
  8
101
  6
Continuous
 62
     7
370
    30
100
AcDbLine
 10
100.6127106741572
 20
52.82443820224704
 30
0.0
 11
100.9002808988763
 21
53.29634831460659
 31
0.0
  0
LINE
  5
10D
330
1F
100
AcDbEntity
  8
101
  6
Continuous
 62
     7
370
    30
100
AcDbLine
 10
100.9002808988763
 20
53.29634831460659
 30
0.0
 11
100.9592696629212
 21
53.79775280898861
 31
0.0
  0
LINE
  5
10E
330
1F
100
AcDbEntity
  8
101
  6
Continuous
 62
     7
370
    30
100
AcDbLine
 10
100.9592696629212
 20
53.79775280898861
 30
0.0
 11
100.9592696629212
 21
54.80056179775266
 31
0.0
  0
LINE
  5
10F
330
1F
100
AcDbEntity
  8
101
  6
Continuous
 62
     7
370
    30
100
AcDbLine
 10
100.9592696629212
 20
54.80056179775266
 30
0.0
 11
100.752808988764
 21
55.49367977528077
 31
0.0
  0
LINE
  5
110
330
1F
100
AcDbEntity
  8
101
  6
Continuous
 62
     7
370
    30
100
AcDbLine
 10
100.752808988764
 20
55.49367977528077
 30
0.0
 11
100.2366573033707
 21
56.11306179775268
 31
0.0
  0
LINE
  5
111
330
1F
100
AcDbEntity
  8
101
  6
Continuous
 62
     7
370
    30
100
AcDbLine
 10
100.2366573033707
 20
56.11306179775268
 30
0.0
 11
99.58778089887635
 21
56.7766853932583
 31
0.0
  0
LINE
  5
112
330
1F
100
AcDbEntity
  8
101
  6
Continuous
 62
     7
370
    30
100
AcDbLine
 10
97.4789325842696
 20
58.38412921348302
 30
0.0
 11
95.29634831460667
 21
59.79985955056168
 31
0.0
  0
LINE
  5
113
330
1F
100
AcDbEntity
  8
101
  6
Continuous
 62
     7
370
    30
100
AcDbLine
 10
94.32303370786511
 20
56.89466292134819
 30
0.0
 11
95.54705056179769
 21
56.06882022471896
 31
0.0
  0
LINE
  5
114
330
1F
100
AcDbEntity
  8
101
  6
Continuous
 62
     7
370
    30
100
AcDbLine
 10
98.30477528089884
 20
54.63834269662908
 30
0.0
 11
95.14887640449433
 21
54.38764044943807
 31
0.0
  0
LINE
  5
115
330
1F
100
AcDbEntity
  8
101
  6
Continuous
 62
     7
370
    30
100
AcDbLine
 10
95.14887640449433
 20
54.38764044943807
 30
0.0
 11
92.0962078651685
 21
54.62359550561783
 31
0.0
  0
LINE
  5
116
330
1F
100
AcDbEntity
  8
101
  6
Continuous
 62
     7
370
    30
100
AcDbLine
 10
92.0962078651685
 20
54.62359550561783
 30
0.0
 11
87.37710674157297
 21
55.41994382022457
 31
0.0
  0
LINE
  5
117
330
1F
100
AcDbEntity
  8
101
  6
Continuous
 62
     7
370
    30
100
AcDbLine
 10
87.37710674157297
 20
55.41994382022457
 30
0.0
 11
82.18609550561791
 21
56.62921348314592
 31
0.0
  0
LINE
  5
118
330
1F
100
AcDbEntity
  8
101
  6
Continuous
 62
     7
370
    30
100
AcDbLine
 10
82.18609550561791
 20
56.62921348314592
 30
0.0
 11
74.57654494382015
 21
58.51685393258413
 31
0.0
  0
LINE
  5
119
330
1F
100
AcDbEntity
  8
101
  6
Continuous
 62
     7
370
    30
100
AcDbLine
 10
74.57654494382015
 20
58.51685393258413
 30
0.0
 11
66.87851123595496
 21
60.99438202247177
 31
0.0
  0
LINE
  5
11A
330
1F
100
AcDbEntity
  8
101
  6
Continuous
 62
     7
370
    30
100
AcDbLine
 10
66.87851123595496
 20
60.99438202247177
 30
0.0
 11
59.94733146067405
 21
63.2654494382021
 31
0.0
  0
LINE
  5
11B
330
1F
100
AcDbEntity
  8
101
  6
Continuous
 62
     7
370
    30
100
AcDbLine
 10
59.94733146067405
 20
63.2654494382021
 30
0.0
 11
55.55266853932574
 21
64.76966292134816
 31
0.0
  0
LINE
  5
11C
330
1F
100
AcDbEntity
  8
101
  6
Continuous
 62
     7
370
    30
100
AcDbLine
 10
55.55266853932574
 20
64.76966292134816
 30
0.0
 11
52.80969101123586
 21
65.8904494382021
 31
0.0
  0
LINE
  5
11D
330
1F
100
AcDbEntity
  8
101
  6
Continuous
 62
     7
370
    30
100
AcDbLine
 10
52.80969101123586
 20
65.8904494382021
 30
0.0
 11
44.61025280898865
 21
69.54775280898862
 31
0.0
  0
LINE
  5
11E
330
1F
100
AcDbEntity
  8
101
  6
Continuous
 62
     7
370
    30
100
AcDbLine
 10
44.61025280898865
 20
69.54775280898862
 30
0.0
 11
38.38693820224708
 21
72.821629213483
 31
0.0
  0
LINE
  5
11F
330
1F
100
AcDbEntity
  8
101
  6
Continuous
 62
     7
370
    30
100
AcDbLine
 10
38.38693820224708
 20
72.821629213483
 30
0.0
 11
36.46980337078639
 21
74.06039325842683
 31
0.0
  0
LINE
  5
120
330
1F
100
AcDbEntity
  8
101
  6
Continuous
 62
     7
370
    30
100
AcDbLine
 10
36.46980337078639
 20
74.06039325842683
 30
0.0
 11
35.49648876404483
 21
74.85674157303356
 31
0.0
  0
LINE
  5
121
330
1F
100
AcDbEntity
  8
101
  6
Continuous
 62
     7
370
    30
100
AcDbLine
 10
35.49648876404483
 20
74.85674157303356
 30
0.0
 11
34.87710674157292
 21
75.68258426966278
 31
0.0
  0
LINE
  5
122
330
1F
100
AcDbEntity
  8
101
  6
Continuous
 62
     7
370
    30
100
AcDbLine
 10
34.87710674157292
 20
75.68258426966278
 30
0.0
 11
34.43469101123583
 21
76.41994382022457
 31
0.0
  0
LINE
  5
123
330
1F
100
AcDbEntity
  8
101
  6
Continuous
 62
     7
370
    30
100
AcDbLine
 10
35.25581460674145
 20
75.17764044943806
 30
0.0
 11
36.64676966292123
 21
75.26966292134817
 31
0.0
  0
LINE
  5
124
330
1F
100
AcDbEntity
  8
101
  6
Continuous
 62
     7
370
    30
100
AcDbLine
 10
54.51125687177459
 20
61.44142816339149
 30
0.0
 11
52.78019662921339
 21
57.10112359550544
 31
0.0
  0
LINE
  5
125
330
1F
100
AcDbEntity
  8
101
  6
Continuous
 62
     7
370
    30
100
AcDbLine
 10
52.78019662921339
 20
57.10112359550544
 30
0.0
 11
51.24648876404486
 21
52.94241573033693
 31
0.0
  0
LINE
  5
126
330
1F
100
AcDbEntity
  8
101
  6
Continuous
 62
     7
370
    30
100
AcDbLine
 10
51.24648876404486
 20
52.94241573033693
 30
0.0
 11
49.97823033707856
 21
48.16432584269648
 31
0.0
  0
LINE
  5
127
330
1F
100
AcDbEntity
  8
101
  6
Continuous
 62
     7
370
    30
100
AcDbLine
 10
49.97823033707856
 20
48.16432584269648
 30
0.0
 11
49.09339887640441
 21
44.38904494382007
 31
0.0
  0
LINE
  5
128
330
1F
100
AcDbEntity
  8
101
  6
Continuous
 62
     7
370
    30
100
AcDbLine
 10
49.09339887640441
 20
44.38904494382007
 30
0.0
 11
48.4740168539325
 21
40.76123595505602
 31
0.0
  0
LINE
  5
129
330
1F
100
AcDbEntity
  8
101
  6
Continuous
 62
     7
370
    30
100
AcDbLine
 10
48.4740168539325
 20
40.76123595505602
 30
0.0
 11
48.23806179775272
 21
37.28089887640434
 31
0.0
  0
LINE
  5
12A
330
1F
100
AcDbEntity
  8
101
  6
Continuous
 62
     7
370
    30
100
AcDbLine
 10
48.23806179775272
 20
37.28089887640434
 30
0.0
 11
48.29705056179765
 21
32.97471910112343
 31
0.0
  0
LINE
  5
12B
330
1F
100
AcDbEntity
  8
101
  6
Continuous
 62
     7
370
    30
100
AcDbLine
 10
48.29705056179765
 20
32.97471910112343
 30
0.0
 11
48.97542134831451
 21
30.9101123595504
 31
0.0
  0
LINE
  5
12C
330
1F
100
AcDbEntity
  8
101
  6
Continuous
 62
     7
370
    30
100
AcDbLine
 10
48.97542134831451
 20
30.9101123595504
 30
0.0
 11
50.06671348314597
 21
29.61235955056164
 31
0.0
  0
LINE
  5
12D
330
1F
100
AcDbEntity
  8
101
  6
Continuous
 62
     7
370
    30
100
AcDbLine
 10
50.06671348314597
 20
29.61235955056164
 30
0.0
 11
50.86306179775272
 21
29.19943820224702
 31
0.0
  0
LINE
  5
12E
330
1F
100
AcDbEntity
  8
101
  6
Continuous
 62
     7
370
    30
100
AcDbLine
 10
50.86306179775272
 20
29.19943820224702
 30
0.0
 11
52.01334269662911
 21
29.14044943820208
 31
0.0
  0
LINE
  5
12F
330
1F
100
AcDbEntity
  8
101
  6
Continuous
 62
     7
370
    30
100
AcDbLine
 10
52.01334269662911
 20
29.14044943820208
 30
0.0
 11
52.78019662921338
 21
29.28792134831444
 31
0.0
  0
LINE
  5
130
330
1F
100
AcDbEntity
  8
101
  6
Continuous
 62
     7
370
    30
100
AcDbLine
 10
55.67064606741563
 20
27.87219101123578
 30
0.0
 11
53.90098314606732
 21
27.07584269662905
 31
0.0
  0
LINE
  5
131
330
1F
100
AcDbEntity
  8
101
  6
Continuous
 62
     7
370
    30
100
AcDbLine
 10
53.90098314606732
 20
27.07584269662905
 30
0.0
 11
52.36727528089878
 21
26.54494382022455
 31
0.0
  0
LINE
  5
132
330
1F
100
AcDbEntity
  8
101
  6
Continuous
 62
     7
370
    30
100
AcDbLine
 10
52.36727528089878
 20
26.54494382022455
 30
0.0
 11
50.00772471910102
 21
26.66292134831444
 31
0.0
  0
LINE
  5
133
330
1F
100
AcDbEntity
  8
101
  6
Continuous
 62
     7
370
    30
100
AcDbLine
 10
50.00772471910102
 20
26.66292134831444
 30
0.0
 11
48.59199438202236
 21
27.48876404494365
 31
0.0
  0
LINE
  5
134
330
1F
100
AcDbEntity
  8
101
  6
Continuous
 62
     7
370
    30
100
AcDbLine
 10
48.59199438202236
 20
27.48876404494365
 30
0.0
 11
47.29424157303362
 21
28.55056179775264
 31
0.0
  0
LINE
  5
135
330
1F
100
AcDbEntity
  8
101
  6
Continuous
 62
     7
370
    30
100
AcDbLine
 10
47.29424157303362
 20
28.55056179775264
 30
0.0
 11
46.40941011235945
 21
30.20224719101107
 31
0.0
  0
LINE
  5
136
330
1F
100
AcDbEntity
  8
101
  6
Continuous
 62
     7
370
    30
100
AcDbLine
 10
46.40941011235945
 20
30.20224719101107
 30
0.0
 11
45.70154494382012
 21
32.23735955056164
 31
0.0
  0
LINE
  5
137
330
1F
100
AcDbEntity
  8
101
  6
Continuous
 62
     7
370
    30
100
AcDbLine
 10
45.70154494382012
 20
32.23735955056164
 30
0.0
 11
45.25912921348305
 21
37.07443820224703
 31
0.0
  0
LINE
  5
138
330
1F
100
AcDbEntity
  8
101
  6
Continuous
 62
     7
370
    30
100
AcDbLine
 10
45.25912921348305
 20
37.07443820224703
 30
0.0
 11
45.9374999999999
 21
43.09129213483131
 31
0.0
  0
LINE
  5
139
330
1F
100
AcDbEntity
  8
101
  6
Continuous
 62
     7
370
    30
100
AcDbLine
 10
45.9374999999999
 20
43.09129213483131
 30
0.0
 11
47.0877808988763
 21
48.60674157303356
 31
0.0
  0
LINE
  5
13A
330
1F
100
AcDbEntity
  8
101
  6
Continuous
 62
     7
370
    30
100
AcDbLine
 10
47.0877808988763
 20
48.60674157303356
 30
0.0
 11
48.50351123595496
 21
53.85674157303356
 31
0.0
  0
LINE
  5
13B
330
1F
100
AcDbEntity
  8
101
  6
Continuous
 62
     7
370
    30
100
AcDbLine
 10
48.50351123595496
 20
53.85674157303356
 30
0.0
 11
50.27317415730329
 21
59.10674157303356
 31
0.0
  0
LINE
  5
13C
330
1F
100
AcDbEntity
  8
101
  6
Continuous
 62
     7
370
    30
100
AcDbLine
 10
50.27317415730329
 20
59.10674157303356
 30
0.0
 11
51.89388232439612
 21
62.42561804769186
 31
0.0
  0
LINE
  5
13D
330
1F
100
AcDbEntity
  8
101
  6
Continuous
 62
     7
370
    30
100
AcDbLine
 10
38.1492122695241
 20
68.9062977020807
 30
0.0
 11
37.67907303370777
 21
63.7963483146066
 31
0.0
  0
LINE
  5
13E
330
1F
100
AcDbEntity
  8
101
  6
Continuous
 62
     7
370
    30
100
AcDbLine
 10
37.67907303370777
 20
63.7963483146066
 30
0.0
 11
37.97401685393248
 21
58.25140449438187
 31
0.0
  0
LINE
  5
13F
330
1F
100
AcDbEntity
  8
101
  6
Continuous
 62
     7
370
    30
100
AcDbLine
 10
37.97401685393248
 20
58.25140449438187
 30
0.0
 11
39.38974719101114
 21
53.23735955056165
 31
0.0
  0
LINE
  5
140
330
1F
100
AcDbEntity
  8
101
  6
Continuous
 62
     7
370
    30
100
AcDbLine
 10
39.38974719101114
 20
53.23735955056165
 30
0.0
 11
41.98525280898863
 21
48.10533707865153
 31
0.0
  0
LINE
  5
141
330
1F
100
AcDbEntity
  8
101
  6
Continuous
 62
     7
370
    30
100
AcDbLine
 10
41.98525280898863
 20
48.10533707865153
 30
0.0
 11
44.75772471910101
 21
44.86095505617962
 31
0.0
  0
LINE
  5
142
330
1F
100
AcDbEntity
  8
101
  6
Continuous
 62
     7
370
    30
100
AcDbLine
 10
44.75772471910101
 20
44.86095505617962
 30
0.0
 11
46.06472756119105
 21
43.70133197951708
 31
0.0
  0
LINE
  5
143
330
1F
100
AcDbEntity
  8
101
  6
Continuous
 62
     7
370
    30
100
AcDbLine
 10
48.6471812690783
 20
41.7754846723386
 30
0.0
 11
51.4824438202246
 21
39.78792134831445
 31
0.0
  0
LINE
  5
144
330
1F
100
AcDbEntity
  8
101
  6
Continuous
 62
     7
370
    30
100
AcDbLine
 10
51.4824438202246
 20
39.78792134831445
 30
0.0
 11
56.67345505617966
 21
37.66432584269647
 31
0.0
  0
LINE
  5
145
330
1F
100
AcDbEntity
  8
101
  6
Continuous
 62
     7
370
    30
100
AcDbLine
 10
56.67345505617966
 20
37.66432584269647
 30
0.0
 11
62.39536516853923
 21
36.30758426966275
 31
0.0
  0
LINE
  5
146
330
1F
100
AcDbEntity
  8
101
  6
Continuous
 62
     7
370
    30
100
AcDbLine
 10
62.39536516853923
 20
36.30758426966275
 30
0.0
 11
68.58918539325833
 21
36.07162921348298
 31
0.0
  0
LINE
  5
147
330
1F
100
AcDbEntity
  8
101
  6
Continuous
 62
     7
370
    30
100
AcDbLine
 10
68.58918539325833
 20
36.07162921348298
 30
0.0
 11
75.13693820224711
 21
37.36938202247175
 31
0.0
  0
LINE
  5
148
330
1F
100
AcDbEntity
  8
101
  6
Continuous
 62
     7
370
    30
100
AcDbLine
 10
75.13693820224711
 20
37.36938202247175
 30
0.0
 11
80.7998595505617
 21
40.02387640449422
 31
0.0
  0
LINE
  5
149
330
1F
100
AcDbEntity
  8
101
  6
Continuous
 62
     7
370
    30
100
AcDbLine
 10
80.7998595505617
 20
40.02387640449422
 30
0.0
 11
86.34480337078644
 21
44.09410112359535
 31
0.0
  0
LINE
  5
14A
330
1F
100
AcDbEntity
  8
101
  6
Continuous
 62
     7
370
    30
100
AcDbLine
 10
86.34480337078644
 20
44.09410112359535
 30
0.0
 11
89.47120786516845
 21
47.75140449438187
 31
0.0
  0
LINE
  5
14B
330
1F
100
AcDbEntity
  8
101
  6
Continuous
 62
     7
370
    30
100
AcDbLine
 10
89.47120786516845
 20
47.75140449438187
 30
0.0
 11
91.73950220926345
 21
51.26121820003249
 31
0.0
  0
LINE
  5
14C
330
1F
100
AcDbEntity
  8
101
  6
Continuous
 62
     7
370
    30
100
AcDbLine
 10
36.95021861246406
 20
69.67610612962491
 30
0.0
 11
36.1453651685392
 21
67.8075842696628
 31
0.0
  0
LINE
  5
14D
330
1F
100
AcDbEntity
  8
101
  6
Continuous
 62
     7
370
    30
100
AcDbLine
 10
36.1453651685392
 20
67.8075842696628
 30
0.0
 11
35.61446629213471
 21
65.44803370786504
 31
0.0
  0
LINE
  5
14E
330
1F
100
AcDbEntity
  8
101
  6
Continuous
 62
     7
370
    30
100
AcDbLine
 10
35.61446629213471
 20
65.44803370786504
 30
0.0
 11
35.31952247190998
 21
63.02949438202234
 31
0.0
  0
LINE
  5
14F
330
1F
100
AcDbEntity
  8
101
  6
Continuous
 62
     7
370
    30
100
AcDbLine
 10
35.31952247190998
 20
63.02949438202234
 30
0.0
 11
35.31952247190998
 21
60.43398876404481
 31
0.0
  0
LINE
  5
150
330
1F
100
AcDbEntity
  8
101
  6
Continuous
 62
     7
370
    30
100
AcDbLine
 10
35.31952247190998
 20
60.43398876404481
 30
0.0
 11
35.43749999999987
 21
57.72050561797738
 31
0.0
  0
LINE
  5
151
330
1F
100
AcDbEntity
  8
101
  6
Continuous
 62
     7
370
    30
100
AcDbLine
 10
35.43749999999987
 20
57.72050561797738
 30
0.0
 11
36.02738764044932
 21
53.41432584269648
 31
0.0
  0
LINE
  5
152
330
1F
100
AcDbEntity
  8
101
  6
Continuous
 62
     7
370
    30
100
AcDbLine
 10
36.02738764044932
 20
53.41432584269648
 30
0.0
 11
37.14817415730325
 21
49.40308988764031
 31
0.0
  0
LINE
  5
153
330
1F
100
AcDbEntity
  8
101
  6
Continuous
 62
     7
370
    30
100
AcDbLine
 10
37.14817415730325
 20
49.40308988764031
 30
0.0
 11
38.32794943820213
 21
46.63061797752793
 31
0.0
  0
LINE
  5
154
330
1F
100
AcDbEntity
  8
101
  6
Continuous
 62
     7
370
    30
100
AcDbLine
 10
38.32794943820213
 20
46.63061797752793
 30
0.0
 11
40.56952247190999
 21
42.44241573033692
 31
0.0
  0
LINE
  5
155
330
1F
100
AcDbEntity
  8
101
  6
Continuous
 62
     7
370
    30
100
AcDbLine
 10
40.56952247190999
 20
42.44241573033692
 30
0.0
 11
42.63412921348302
 21
39.96488764044928
 31
0.0
  0
LINE
  5
156
330
1F
100
AcDbEntity
  8
101
  6
Continuous
 62
     7
370
    30
100
AcDbLine
 10
42.63412921348302
 20
39.96488764044928
 30
0.0
 11
45.25912921348305
 21
37.07443820224703
 31
0.0
  0
LINE
  5
157
330
1F
100
AcDbEntity
  8
101
  6
Continuous
 62
     7
370
    30
100
AcDbLine
 10
48.28054366844437
 20
34.17972231591358
 30
0.0
 11
50.24367977528078
 21
33.18117977528073
 31
0.0
  0
LINE
  5
158
330
1F
100
AcDbEntity
  8
101
  6
Continuous
 62
     7
370
    30
100
AcDbLine
 10
50.24367977528078
 20
33.18117977528073
 30
0.0
 11
52.78019662921338
 21
32.00140449438186
 31
0.0
  0
LINE
  5
159
330
1F
100
AcDbEntity
  8
101
  6
Continuous
 62
     7
370
    30
100
AcDbLine
 10
52.78019662921338
 20
32.00140449438186
 30
0.0
 11
54.84480337078641
 21
31.35252808988747
 31
0.0
  0
LINE
  5
15A
330
1F
100
AcDbEntity
  8
101
  6
Continuous
 62
     7
370
    30
100
AcDbLine
 10
54.84480337078641
 20
31.35252808988747
 30
0.0
 11
56.43749999999989
 21
30.40870786516837
 31
0.0
  0
LINE
  5
15B
330
1F
100
AcDbEntity
  8
101
  6
Continuous
 62
     7
370
    30
100
AcDbLine
 10
56.43749999999989
 20
30.40870786516837
 30
0.0
 11
58.97401685393248
 21
29.40589887640433
 31
0.0
  0
LINE
  5
15C
330
1F
100
AcDbEntity
  8
101
  6
Continuous
 62
     7
370
    30
100
AcDbLine
 10
58.97401685393248
 20
29.40589887640433
 30
0.0
 11
60.55196629213474
 21
28.90449438202231
 31
0.0
  0
LINE
  5
15D
330
1F
100
AcDbEntity
  8
101
  6
Continuous
 62
     7
370
    30
100
AcDbLine
 10
60.55196629213474
 20
28.90449438202231
 30
0.0
 11
63.63412921348305
 21
28.44733146067399
 31
0.0
  0
LINE
  5
15E
330
1F
100
AcDbEntity
  8
101
  6
Continuous
 62
     7
370
    30
100
AcDbLine
 10
63.63412921348305
 20
28.44733146067399
 30
0.0
 11
66.95224719101115
 21
28.47682584269646
 31
0.0
  0
LINE
  5
15F
330
1F
100
AcDbEntity
  8
101
  6
Continuous
 62
     7
370
    30
100
AcDbLine
 10
66.95224719101115
 20
28.47682584269646
 30
0.0
 11
70.52106741573029
 21
28.66853932584253
 31
0.0
  0
LINE
  5
160
330
1F
100
AcDbEntity
  8
101
  6
Continuous
 62
     7
370
    30
100
AcDbLine
 10
70.52106741573029
 20
28.66853932584253
 30
0.0
 11
73.52949438202242
 21
29.30266853932568
 31
0.0
  0
LINE
  5
161
330
1F
100
AcDbEntity
  8
101
  6
Continuous
 62
     7
370
    30
100
AcDbLine
 10
73.52949438202242
 20
29.30266853932568
 30
0.0
 11
77.21629213483139
 21
30.65941011235939
 31
0.0
  0
LINE
  5
162
330
1F
100
AcDbEntity
  8
101
  6
Continuous
 62
     7
370
    30
100
AcDbLine
 10
77.21629213483139
 20
30.65941011235939
 30
0.0
 11
79.62008426966285
 21
31.76544943820208
 31
0.0
  0
LINE
  5
163
330
1F
100
AcDbEntity
  8
101
  6
Continuous
 62
     7
370
    30
100
AcDbLine
 10
79.62008426966285
 20
31.76544943820208
 30
0.0
 11
82.06811797752802
 21
33.26966292134814
 31
0.0
  0
LINE
  5
164
330
1F
100
AcDbEntity
  8
101
  6
Continuous
 62
     7
370
    30
100
AcDbLine
 10
82.06811797752802
 20
33.26966292134814
 30
0.0
 11
85.1502808988763
 21
35.54073033707849
 31
0.0
  0
LINE
  5
165
330
1F
100
AcDbEntity
  8
101
  6
Continuous
 62
     7
370
    30
100
AcDbLine
 10
85.1502808988763
 20
35.54073033707849
 30
0.0
 11
86.91994382022462
 21
37.20716292134814
 31
0.0
  0
LINE
  5
166
330
1F
100
AcDbEntity
  8
101
  6
Continuous
 62
     7
370
    30
100
AcDbLine
 10
86.91994382022462
 20
37.20716292134814
 30
0.0
 11
89.39747191011227
 21
40.31882022471894
 31
0.0
  0
LINE
  5
167
330
1F
100
AcDbEntity
  8
101
  6
Continuous
 62
     7
370
    30
100
AcDbLine
 10
89.39747191011227
 20
40.31882022471894
 30
0.0
 11
91.40308988764038
 21
43.56320224719084
 31
0.0
  0
LINE
  5
168
330
1F
100
AcDbEntity
  8
101
  6
Continuous
 62
     7
370
    30
100
AcDbLine
 10
91.40308988764038
 20
43.56320224719084
 30
0.0
 11
92.78932584269657
 21
45.98174157303356
 31
0.0
  0
LINE
  5
169
330
1F
100
AcDbEntity
  8
101
  6
Continuous
 62
     7
370
    30
100
AcDbLine
 10
92.78932584269657
 20
45.98174157303356
 30
0.0
 11
93.64466292134824
 21
48.16432584269648
 31
0.0
  0
LINE
  5
16A
330
1F
100
AcDbEntity
  8
101
  6
Continuous
 62
     7
370
    30
100
AcDbLine
 10
93.64466292134824
 20
48.16432584269648
 30
0.0
 11
94.16792782079212
 21
51.11801742692398
 31
0.0
  0
LINE
  5
16B
330
1F
100
AcDbEntity
  8
101
  6
Continuous
 62
     7
370
    30
100
AcDbLine
 10
96.9408000492085
 20
51.2575330107437
 30
0.0
 11
96.50561797752803
 21
48.84269662921332
 31
0.0
  0
LINE
  5
16C
330
1F
100
AcDbEntity
  8
101
  6
Continuous
 62
     7
370
    30
100
AcDbLine
 10
96.50561797752803
 20
48.84269662921332
 30
0.0
 11
95.85674157303364
 21
46.48314606741557
 31
0.0
  0
LINE
  5
16D
330
1F
100
AcDbEntity
  8
101
  6
Continuous
 62
     7
370
    30
100
AcDbLine
 10
95.85674157303364
 20
46.48314606741557
 30
0.0
 11
94.41151685393253
 21
43.32724719101108
 31
0.0
  0
LINE
  5
16E
330
1F
100
AcDbEntity
  8
101
  6
Continuous
 62
     7
370
    30
100
AcDbLine
 10
94.41151685393253
 20
43.32724719101108
 30
0.0
 11
92.25842696629209
 21
39.84691011235938
 31
0.0
  0
LINE
  5
16F
330
1F
100
AcDbEntity
  8
101
  6
Continuous
 62
     7
370
    30
100
AcDbLine
 10
92.25842696629209
 20
39.84691011235938
 30
0.0
 11
90.31179775280894
 21
37.16292134831444
 31
0.0
  0
LINE
  5
170
330
1F
100
AcDbEntity
  8
101
  6
Continuous
 62
     7
370
    30
100
AcDbLine
 10
90.31179775280894
 20
37.16292134831444
 30
0.0
 11
87.65730337078648
 21
34.39044943820208
 31
0.0
  0
LINE
  5
171
330
1F
100
AcDbEntity
  8
101
  6
Continuous
 62
     7
370
    30
100
AcDbLine
 10
87.65730337078648
 20
34.39044943820208
 30
0.0
 11
85.59269662921344
 21
32.44382022471893
 31
0.0
  0
LINE
  5
172
330
1F
100
AcDbEntity
  8
101
  6
Continuous
 62
     7
370
    30
100
AcDbLine
 10
85.59269662921344
 20
32.44382022471893
 30
0.0
 11
83.02668539325838
 21
30.64466292134814
 31
0.0
  0
LINE
  5
173
330
1F
100
AcDbEntity
  8
101
  6
Continuous
 62
     7
370
    30
100
AcDbLine
 10
83.02668539325838
 20
30.64466292134814
 30
0.0
 11
79.88553370786511
 21
28.90449438202229
 31
0.0
  0
LINE
  5
174
330
1F
100
AcDbEntity
  8
101
  6
Continuous
 62
     7
370
    30
100
AcDbLine
 10
79.88553370786511
 20
28.90449438202229
 30
0.0
 11
75.97752808988758
 21
27.38553370786499
 31
0.0
  0
LINE
  5
175
330
1F
100
AcDbEntity
  8
101
  6
Continuous
 62
     7
370
    30
100
AcDbLine
 10
75.97752808988758
 20
27.38553370786499
 30
0.0
 11
72.0842696629213
 21
26.30898876404476
 31
0.0
  0
LINE
  5
176
330
1F
100
AcDbEntity
  8
101
  6
Continuous
 62
     7
370
    30
100
AcDbLine
 10
72.0842696629213
 20
26.30898876404476
 30
0.0
 11
67.2471910112359
 21
25.73384831460656
 31
0.0
  0
LINE
  5
177
330
1F
100
AcDbEntity
  8
101
  6
Continuous
 62
     7
370
    30
100
AcDbLine
 10
67.2471910112359
 20
25.73384831460656
 30
0.0
 11
63.48665730337073
 21
25.80758426966274
 31
0.0
  0
LINE
  5
178
330
1F
100
AcDbEntity
  8
101
  6
Continuous
 62
     7
370
    30
100
AcDbLine
 10
63.48665730337073
 20
25.80758426966274
 30
0.0
 11
59.79985955056172
 21
26.30898876404476
 31
0.0
  0
LINE
  5
179
330
1F
100
AcDbEntity
  8
101
  6
Continuous
 62
     7
370
    30
100
AcDbLine
 10
59.79985955056172
 20
26.30898876404476
 30
0.0
 11
56.95365168539318
 21
27.25280898876386
 31
0.0
  0
LINE
  5
17A
330
1F
100
AcDbEntity
  8
101
  6
Continuous
 62
     7
370
    30
100
AcDbLine
 10
56.95365168539318
 20
27.25280898876386
 30
0.0
 11
55.67064606741563
 21
27.87219101123578
 31
0.0
  0
LINE
  5
17B
330
1F
100
AcDbEntity
  8
101
  6
Continuous
 62
     7
370
    30
100
AcDbLine
 10
55.67064606741563
 20
27.87219101123578
 30
0.0
 11
53.37008426966284
 21
29.3174157303369
 31
0.0
  0
LINE
  5
17C
330
1F
100
AcDbEntity
  8
101
  6
Continuous
 62
     7
370
    30
100
AcDbLine
 10
53.37008426966284
 20
29.3174157303369
 30
0.0
 11
52.78019662921338
 21
29.28792134831444
 31
0.0
  0
LINE
  5
17D
330
1F
100
AcDbEntity
  8
101
  6
Continuous
 62
     7
370
    30
100
AcDbLine
 10
52.78019662921338
 20
29.28792134831444
 30
0.0
 11
51.43820224719093
 21
29.93679775280881
 31
0.0
  0
LINE
  5
17E
330
1F
100
AcDbEntity
  8
101
  6
Continuous
 62
     7
370
    30
100
AcDbLine
 10
51.43820224719093
 20
29.93679775280881
 30
0.0
 11
49.05945579561092
 21
30.81017950330602
 31
0.0
  0
LINE
  5
17F
330
1F
100
AcDbEntity
  8
101
  6
Continuous
 62
     7
370
    30
100
AcDbLine
 10
45.63028307596947
 20
33.01648930572875
 30
0.0
 11
43.41573033707853
 21
34.9360955056178
 31
0.0
  0
LINE
  5
180
330
1F
100
AcDbEntity
  8
101
  6
Continuous
 62
     7
370
    30
100
AcDbLine
 10
43.41573033707853
 20
34.9360955056178
 30
0.0
 11
41.7640449438201
 21
36.80898876404477
 31
0.0
  0
LINE
  5
181
330
1F
100
AcDbEntity
  8
101
  6
Continuous
 62
     7
370
    30
100
AcDbLine
 10
41.7640449438201
 20
36.80898876404477
 30
0.0
 11
39.7879213483145
 21
39.27176966292117
 31
0.0
  0
LINE
  5
182
330
1F
100
AcDbEntity
  8
101
  6
Continuous
 62
     7
370
    30
100
AcDbLine
 10
39.7879213483145
 20
39.27176966292117
 30
0.0
 11
38.1067415730336
 21
41.6608146067414
 31
0.0
  0
LINE
  5
183
330
1F
100
AcDbEntity
  8
101
  6
Continuous
 62
     7
370
    30
100
AcDbLine
 10
38.1067415730336
 20
41.6608146067414
 30
0.0
 11
36.52879213483135
 21
44.44803370786502
 31
0.0
  0
LINE
  5
184
330
1F
100
AcDbEntity
  8
101
  6
Continuous
 62
     7
370
    30
100
AcDbLine
 10
36.52879213483135
 20
44.44803370786502
 30
0.0
 11
35.31952247191001
 21
47.23525280898862
 31
0.0
  0
LINE
  5
185
330
1F
100
AcDbEntity
  8
101
  6
Continuous
 62
     7
370
    30
100
AcDbLine
 10
35.31952247191001
 20
47.23525280898862
 30
0.0
 11
34.13974719101112
 21
50.39115168539313
 31
0.0
  0
LINE
  5
186
330
1F
100
AcDbEntity
  8
101
  6
Continuous
 62
     7
370
    30
100
AcDbLine
 10
34.13974719101112
 20
50.39115168539313
 30
0.0
 11
33.31390449438192
 21
53.44382022471899
 31
0.0
  0
LINE
  5
187
330
1F
100
AcDbEntity
  8
101
  6
Continuous
 62
     7
370
    30
100
AcDbLine
 10
33.31390449438192
 20
53.44382022471899
 30
0.0
 11
32.82724719101114
 21
56.4817415730336
 31
0.0
  0
LINE
  5
188
330
1F
100
AcDbEntity
  8
101
  6
Continuous
 62
     7
370
    30
100
AcDbLine
 10
32.82724719101114
 20
56.4817415730336
 30
0.0
 11
32.72401685393248
 21
59.79985955056169
 31
0.0
  0
LINE
  5
189
330
1F
100
AcDbEntity
  8
101
  6
Continuous
 62
     7
370
    30
100
AcDbLine
 10
32.72401685393248
 20
59.79985955056169
 30
0.0
 11
32.78300561797742
 21
63.2064606741572
 31
0.0
  0
LINE
  5
18A
330
1F
100
AcDbEntity
  8
101
  6
Continuous
 62
     7
370
    30
100
AcDbLine
 10
32.78300561797742
 20
63.2064606741572
 30
0.0
 11
33.34339887640438
 21
66.7605337078651
 31
0.0
  0
LINE
  5
18B
330
1F
100
AcDbEntity
  8
101
  6
Continuous
 62
     7
370
    30
100
AcDbLine
 10
33.34339887640438
 20
66.7605337078651
 30
0.0
 11
34.02176966292123
 21
69.48876404494375
 31
0.0
  0
LINE
  5
18C
330
1F
100
AcDbEntity
  8
101
  6
Continuous
 62
     7
370
    30
100
AcDbLine
 10
34.02176966292123
 20
69.48876404494375
 30
0.0
 11
34.7209732797711
 21
71.10738296254709
 31
0.0
  0
LINE
  5
18D
330
1F
100
AcDbEntity
  8
101
  6
Continuous
 62
     7
370
    30
100
AcDbLine
 10
36.18391228167742
 20
74.294304149516
 30
0.0
 11
36.74999999999984
 21
75.35814606741567
 31
0.0
  0
LINE
  5
18E
330
1F
100
AcDbEntity
  8
101
  6
Continuous
 62
     7
370
    30
100
AcDbLine
 10
36.74999999999984
 20
75.35814606741567
 30
0.0
 11
37.4726123595504
 21
76.37570224719096
 31
0.0
  0
LINE
  5
18F
330
1F
100
AcDbEntity
  8
101
  6
Continuous
 62
     7
370
    30
100
AcDbLine
 10
37.4726123595504
 20
76.37570224719096
 30
0.0
 11
37.60533707865152
 21
78.44030898876399
 31
0.0
  0
LINE
  5
190
330
1F
100
AcDbEntity
  8
101
  6
Continuous
 62
     7
370
    30
100
AcDbLine
 10
37.60533707865152
 20
78.44030898876399
 30
0.0
 11
37.79705056179759
 21
80.91783707865163
 31
0.0
  0
LINE
  5
191
330
1F
100
AcDbEntity
  8
101
  6
Continuous
 62
     7
370
    30
100
AcDbLine
 10
37.79705056179759
 20
80.91783707865163
 30
0.0
 11
38.68188202247171
 21
84.04424157303363
 31
0.0
  0
LINE
  5
192
330
1F
100
AcDbEntity
  8
101
  6
Continuous
 62
     7
370
    30
100
AcDbLine
 10
38.68188202247171
 20
84.04424157303363
 30
0.0
 11
40.45154494382001
 21
89.26474719101115
 31
0.0
  0
LINE
  5
193
330
1F
100
AcDbEntity
  8
101
  6
Continuous
 62
     7
370
    30
100
AcDbLine
 10
40.45154494382001
 20
89.26474719101115
 30
0.0
 11
43.60744382022452
 21
97.92134831460666
 31
0.0
  0
LINE
  5
194
330
1F
100
AcDbEntity
  8
101
  6
Continuous
 62
     7
370
    30
100
AcDbLine
 10
43.60744382022452
 20
97.92134831460666
 30
0.0
 11
44.61025280898856
 21
100.1629213483145
 31
0.0
  0
LINE
  5
195
330
1F
100
AcDbEntity
  8
101
  6
Continuous
 62
     7
370
    30
100
AcDbLine
 10
44.61025280898856
 20
100.1629213483145
 30
0.0
 11
45.71326189010287
 21
101.8950092350314
 31
0.0
  0
LINE
  5
196
330
1F
100
AcDbEntity
  8
101
  6
Continuous
 62
     7
370
    30
100
AcDbLine
 10
48.21126456445857
 20
100.9378591508237
 30
0.0
 11
46.67485955056159
 21
98.77668539325833
 31
0.0
  0
LINE
  5
197
330
1F
100
AcDbEntity
  8
101
  6
Continuous
 62
     7
370
    30
100
AcDbLine
 10
46.67485955056159
 20
98.77668539325833
 30
0.0
 11
44.49227528089867
 21
92.90730337078642
 31
0.0
  0
LINE
  5
198
330
1F
100
AcDbEntity
  8
101
  6
Continuous
 62
     7
370
    30
100
AcDbLine
 10
44.49227528089867
 20
92.90730337078642
 30
0.0
 11
42.01474719101104
 21
85.91713483146059
 31
0.0
  0
LINE
  5
199
330
1F
100
AcDbEntity
  8
101
  6
Continuous
 62
     7
370
    30
100
AcDbLine
 10
42.01474719101104
 20
85.91713483146059
 30
0.0
 11
40.51053370786498
 21
81.55196629213475
 31
0.0
  0
LINE
  5
19A
330
1F
100
AcDbEntity
  8
101
  6
Continuous
 62
     7
370
    30
100
AcDbLine
 10
40.51053370786498
 20
81.55196629213475
 30
0.0
 11
40.33356741573014
 21
79.13342696629206
 31
0.0
  0
LINE
  5
19B
330
1F
100
AcDbEntity
  8
101
  6
Continuous
 62
     7
370
    30
100
AcDbLine
 10
40.33356741573014
 20
79.13342696629206
 30
0.0
 11
40.27457865168522
 21
77.62921348314599
 31
0.0
  0
LINE
  5
19C
330
1F
100
AcDbEntity
  8
101
  6
Continuous
 62
     7
370
    30
100
AcDbLine
 10
40.27457865168522
 20
77.62921348314599
 30
0.0
 11
39.83216292134813
 21
75.71207865168532
 31
0.0
  0
LINE
  5
19D
330
1F
100
AcDbEntity
  8
101
  6
Continuous
 62
     7
370
    30
100
AcDbLine
 10
38.38693820224708
 20
72.821629213483
 30
0.0
 11
39.83216292134813
 21
75.71207865168532
 31
0.0
  0
LINE
  5
19E
330
1F
100
AcDbEntity
  8
101
  6
Continuous
 62
     7
370
    30
100
AcDbLine
 10
39.83216292134813
 20
75.71207865168532
 30
0.0
 11
40.83497191011219
 21
78.2485955056179
 31
0.0
  0
LINE
  5
19F
330
1F
100
AcDbEntity
  8
101
  6
Continuous
 62
     7
370
    30
100
AcDbLine
 10
40.83497191011219
 20
78.2485955056179
 30
0.0
 11
45.37710674157285
 21
91.63904494382017
 31
0.0
  0
LINE
  5
1A0
330
1F
100
AcDbEntity
  8
101
  6
Continuous
 62
     7
370
    30
100
AcDbLine
 10
45.37710674157285
 20
91.63904494382017
 30
0.0
 11
48.53731651018659
 21
100.8085626895867
 31
0.0
  0
LINE
  5
1A1
330
1F
100
AcDbEntity
  8
101
  6
Continuous
 62
     7
370
    30
100
AcDbLine
 10
63.85692430522059
 20
94.73354580534908
 30
0.0
 11
62.86727528089868
 21
93.02528089887632
 31
0.0
  0
LINE
  5
1A2
330
1F
100
AcDbEntity
  8
101
  6
Continuous
 62
     7
370
    30
100
AcDbLine
 10
62.86727528089868
 20
93.02528089887632
 30
0.0
 11
61.77598314606722
 21
90.69522471910103
 31
0.0
  0
LINE
  5
1A3
330
1F
100
AcDbEntity
  8
101
  6
Continuous
 62
     7
370
    30
100
AcDbLine
 10
61.77598314606722
 20
90.69522471910103
 30
0.0
 11
60.3307584269661
 21
86.68398876404486
 31
0.0
  0
LINE
  5
1A4
330
1F
100
AcDbEntity
  8
101
  6
Continuous
 62
     7
370
    30
100
AcDbLine
 10
60.3307584269661
 20
86.68398876404486
 30
0.0
 11
54.19592696629194
 21
69.93117977528087
 31
0.0
  0
LINE
  5
1A5
330
1F
100
AcDbEntity
  8
101
  6
Continuous
 62
     7
370
    30
100
AcDbLine
 10
54.19592696629194
 20
69.93117977528087
 30
0.0
 11
53.84199438202228
 21
68.51544943820221
 31
0.0
  0
LINE
  5
1A6
330
1F
100
AcDbEntity
  8
101
  6
Continuous
 62
     7
370
    30
100
AcDbLine
 10
53.84199438202228
 20
68.51544943820221
 30
0.0
 11
53.54705056179756
 21
67.09971910112355
 31
0.0
  0
LINE
  5
1A7
330
1F
100
AcDbEntity
  8
101
  6
Continuous
 62
     7
370
    30
100
AcDbLine
 10
53.54705056179756
 20
67.09971910112355
 30
0.0
 11
53.1393483719385
 21
65.75575073167843
 31
0.0
  0
LINE
  5
1A8
330
1F
100
AcDbEntity
  8
101
  6
Continuous
 62
     7
370
    30
100
AcDbLine
 10
55.98483460920582
 20
64.62174030682544
 30
0.0
 11
56.31952247190992
 21
65.74297752808985
 31
0.0
  0
LINE
  5
1A9
330
1F
100
AcDbEntity
  8
101
  6
Continuous
 62
     7
370
    30
100
AcDbLine
 10
56.31952247190992
 20
65.74297752808985
 30
0.0
 11
57.11587078651665
 21
69.40028089887636
 31
0.0
  0
LINE
  5
1AA
330
1F
100
AcDbEntity
  8
101
  6
Continuous
 62
     7
370
    30
100
AcDbLine
 10
57.11587078651665
 20
69.40028089887636
 30
0.0
 11
58.62008426966273
 21
73.4705056179775
 31
0.0
  0
LINE
  5
1AB
330
1F
100
AcDbEntity
  8
101
  6
Continuous
 62
     7
370
    30
100
AcDbLine
 10
58.62008426966273
 20
73.4705056179775
 30
0.0
 11
65.04985955056158
 21
90.87219101123593
 31
0.0
  0
LINE
  5
1AC
330
1F
100
AcDbEntity
  8
101
  6
Continuous
 62
     7
370
    30
100
AcDbLine
 10
65.04985955056158
 20
90.87219101123593
 30
0.0
 11
66.5671800590939
 21
93.73253976381922
 31
0.0
  0
LINE
  5
1AD
330
1F
100
AcDbEntity
  8
101
  6
Continuous
 62
     7
370
    30
100
AcDbLine
 10
103.4737695569626
 20
81.80233896122911
 30
0.0
 11
98.67345505617956
 21
68.95786516853931
 31
0.0
  0
LINE
  5
1AE
330
1F
100
AcDbEntity
  8
101
  6
Continuous
 62
     7
370
    30
100
AcDbLine
 10
98.67345505617956
 20
68.95786516853931
 30
0.0
 11
93.18555127015402
 21
54.53939504919384
 31
0.0
  0
LINE
  5
1AF
330
1F
100
AcDbEntity
  8
101
  6
Continuous
 62
     7
370
    30
100
AcDbLine
 10
94.75972401791263
 20
54.41771986096128
 30
0.0
 11
95.54705056179769
 21
56.06882022471896
 31
0.0
  0
LINE
  5
1B0
330
1F
100
AcDbEntity
  8
101
  6
Continuous
 62
     7
370
    30
100
AcDbLine
 10
95.54705056179769
 20
56.06882022471896
 30
0.0
 11
97.4789325842696
 21
58.38412921348302
 31
0.0
  0
LINE
  5
1B1
330
1F
100
AcDbEntity
  8
101
  6
Continuous
 62
     7
370
    30
100
AcDbLine
 10
97.4789325842696
 20
58.38412921348302
 30
0.0
 11
98.26053370786491
 21
59.96207865168537
 31
0.0
  0
LINE
  5
1B2
330
1F
100
AcDbEntity
  8
101
  6
Continuous
 62
     7
370
    30
100
AcDbLine
 10
98.26053370786491
 20
59.96207865168537
 30
0.0
 11
100.4136235955054
 21
65.24157303370785
 31
0.0
  0
LINE
  5
1B3
330
1F
100
AcDbEntity
  8
101
  6
Continuous
 62
     7
370
    30
100
AcDbLine
 10
100.4136235955054
 20
65.24157303370785
 30
0.0
 11
103.5695224719098
 21
73.82443820224717
 31
0.0
  0
LINE
  5
1B4
330
1F
100
AcDbEntity
  8
101
  6
Continuous
 62
     7
370
    30
100
AcDbLine
 10
103.5695224719098
 20
73.82443820224717
 30
0.0
 11
104.513342696629
 21
77.00983146067412
 31
0.0
  0
LINE
  5
1B5
330
1F
100
AcDbEntity
  8
101
  6
Continuous
 62
     7
370
    30
100
AcDbLine
 10
104.513342696629
 20
77.00983146067412
 30
0.0
 11
104.8377808988761
 21
79.45786516853929
 31
0.0
  0
LINE
  5
1B6
330
1F
100
AcDbEntity
  8
101
  6
Continuous
 62
     7
370
    30
100
AcDbLine
 10
104.8377808988761
 20
79.45786516853929
 30
0.0
 11
104.9151745992806
 21
81.45687824860744
 31
0.0
  0
LINE
  5
1B7
330
1F
100
AcDbEntity
  8
101
  6
Continuous
 62
     7
370
    30
100
AcDbLine
 10
107.6015866196189
 20
80.81302743381565
 30
0.0
 11
107.580758426966
 21
79.25140449438199
 31
0.0
  0
LINE
  5
1B8
330
1F
100
AcDbEntity
  8
101
  6
Continuous
 62
     7
370
    30
100
AcDbLine
 10
107.580758426966
 20
79.25140449438199
 30
0.0
 11
107.3448033707863
 21
77.42275280898873
 31
0.0
  0
LINE
  5
1B9
330
1F
100
AcDbEntity
  8
101
  6
Continuous
 62
     7
370
    30
100
AcDbLine
 10
107.3448033707863
 20
77.42275280898873
 30
0.0
 11
106.8433988764042
 21
75.41713483146064
 31
0.0
  0
LINE
  5
1BA
330
1F
100
AcDbEntity
  8
101
  6
Continuous
 62
     7
370
    30
100
AcDbLine
 10
106.8433988764042
 20
75.41713483146064
 30
0.0
 11
104.2773876404492
 21
68.66292134831457
 31
0.0
  0
LINE
  5
1BB
330
1F
100
AcDbEntity
  8
101
  6
Continuous
 62
     7
370
    30
100
AcDbLine
 10
104.2773876404492
 20
68.66292134831457
 30
0.0
 11
101.4164325842695
 21
60.55196629213478
 31
0.0
  0
LINE
  5
1BC
330
1F
100
AcDbEntity
  8
101
  6
Continuous
 62
     7
370
    30
100
AcDbLine
 10
101.4164325842695
 20
60.55196629213478
 30
0.0
 11
100.4726123595504
 21
58.48735955056176
 31
0.0
  0
LINE
  5
1BD
330
1F
100
AcDbEntity
  8
101
  6
Continuous
 62
     7
370
    30
100
AcDbLine
 10
100.4726123595504
 20
58.48735955056176
 30
0.0
 11
99.58778089887635
 21
56.7766853932583
 31
0.0
  0
LINE
  5
1BE
330
1F
100
AcDbEntity
  8
101
  6
Continuous
 62
     7
370
    30
100
AcDbLine
 10
99.58778089887635
 20
56.7766853932583
 30
0.0
 11
97.87710674157287
 21
54.94803370786514
 31
0.0
  0
LINE
  5
1BF
330
1F
100
AcDbEntity
  8
101
  6
Continuous
 62
     7
370
    30
100
AcDbLine
 10
97.87710674157287
 20
54.94803370786514
 30
0.0
 11
97.63483584924276
 21
54.5851232090676
 31
0.0
  0
LINE
  5
1C0
330
1F
100
AcDbEntity
  8
101
  6
Continuous
 62
     7
370
    30
100
AcDbLine
 10
53.48806179775264
 20
124.6137640449438
 30
0.0
 11
53.25210674157287
 21
123.0800561797752
 31
0.0
  0
LINE
  5
1C1
330
1F
100
AcDbEntity
  8
101
  6
Continuous
 62
     7
370
    30
100
AcDbLine
 10
53.25210674157287
 20
123.0800561797752
 30
0.0
 11
49.1228932584268
 21
113.1109550561797
 31
0.0
  0
LINE
  5
1C2
330
1F
100
AcDbEntity
  8
101
  6
Continuous
 62
     7
370
    30
100
AcDbLine
 10
49.1228932584268
 20
113.1109550561797
 30
0.0
 11
48.29705056179759
 21
110.5744382022471
 31
0.0
  0
LINE
  5
1C3
330
1F
100
AcDbEntity
  8
101
  6
Continuous
 62
     7
370
    30
100
AcDbLine
 10
48.29705056179759
 20
110.5744382022471
 30
0.0
 11
47.94311797752792
 21
108.3328651685393
 31
0.0
  0
LINE
  5
1C4
330
1F
100
AcDbEntity
  8
101
  6
Continuous
 62
     7
370
    30
100
AcDbLine
 10
47.94311797752792
 20
108.3328651685393
 30
0.0
 11
47.38394040656264
 21
104.8068044950364
 31
0.0
  0
LINE
  5
1C5
330
1F
100
AcDbEntity
  8
101
  6
Continuous
 62
     7
370
    30
100
AcDbLine
 10
49.52798479457837
 20
103.9470310594061
 30
0.0
 11
50.30266853932568
 21
105.9143258426966
 31
0.0
  0
LINE
  5
1C6
330
1F
100
AcDbEntity
  8
101
  6
Continuous
 62
     7
370
    30
100
AcDbLine
 10
50.30266853932568
 20
105.9143258426966
 30
0.0
 11
50.5976123595504
 21
109.3946629213483
 31
0.0
  0
LINE
  5
1C7
330
1F
100
AcDbEntity
  8
101
  6
Continuous
 62
     7
370
    30
100
AcDbLine
 10
50.5976123595504
 20
109.3946629213483
 30
0.0
 11
56.37851123595489
 21
123.9648876404494
 31
0.0
  0
LINE
  5
1C8
330
1F
100
AcDbEntity
  8
101
  6
Continuous
 62
     7
370
    30
100
AcDbLine
 10
56.37851123595489
 20
123.9648876404494
 30
0.0
 11
55.78862359550544
 21
124.7907303370786
 31
0.0
  0
LINE
  5
1C9
330
1F
100
AcDbEntity
  8
101
  6
Continuous
 62
     7
370
    30
100
AcDbLine
 10
55.78862359550544
 20
124.7907303370786
 30
0.0
 11
55.08075842696613
 21
125.0856741573033
 31
0.0
  0
LINE
  5
1CA
330
1F
100
AcDbEntity
  8
101
  6
Continuous
 62
     7
370
    30
100
AcDbLine
 10
55.08075842696613
 20
125.0856741573033
 30
0.0
 11
54.07794943820208
 21
125.1446629213483
 31
0.0
  0
LINE
  5
1CB
330
1F
100
AcDbEntity
  8
101
  6
Continuous
 62
     7
370
    30
100
AcDbLine
 10
54.07794943820208
 20
125.1446629213483
 30
0.0
 11
53.48806179775264
 21
124.6137640449438
 31
0.0
  0
LINE
  5
1CC
330
1F
100
AcDbEntity
  8
101
  6
Continuous
 62
     7
370
    30
100
AcDbLine
 10
72.89536516853916
 20
119.6587078651685
 30
0.0
 11
67.822331460674
 21
106.4452247191011
 31
0.0
  0
LINE
  5
1CD
330
1F
100
AcDbEntity
  8
101
  6
Continuous
 62
     7
370
    30
100
AcDbLine
 10
67.822331460674
 20
106.4452247191011
 30
0.0
 11
65.99367977528074
 21
101.3721910112359
 31
0.0
  0
LINE
  5
1CE
330
1F
100
AcDbEntity
  8
101
  6
Continuous
 62
     7
370
    30
100
AcDbLine
 10
65.99367977528074
 20
101.3721910112359
 30
0.0
 11
65.25047720473785
 21
98.04443506260489
 31
0.0
  0
LINE
  5
1CF
330
1F
100
AcDbEntity
  8
101
  6
Continuous
 62
     7
370
    30
100
AcDbLine
 10
67.75185927310486
 20
97.13813721174728
 30
0.0
 11
68.41221910112344
 21
99.48455056179768
 31
0.0
  0
LINE
  5
1D0
330
1F
100
AcDbEntity
  8
101
  6
Continuous
 62
     7
370
    30
100
AcDbLine
 10
68.41221910112344
 20
99.48455056179768
 30
0.0
 11
70.41783707865153
 21
105.7373595505617
 31
0.0
  0
LINE
  5
1D1
330
1F
100
AcDbEntity
  8
101
  6
Continuous
 62
     7
370
    30
100
AcDbLine
 10
70.41783707865153
 20
105.7373595505617
 30
0.0
 11
75.19592696629198
 21
118.3019662921347
 31
0.0
  0
LINE
  5
1D2
330
1F
100
AcDbEntity
  8
101
  6
Continuous
 62
     7
370
    30
100
AcDbLine
 10
75.19592696629198
 20
118.3019662921347
 30
0.0
 11
75.01896067415714
 21
119.068820224719
 31
0.0
  0
LINE
  5
1D3
330
1F
100
AcDbEntity
  8
101
  6
Continuous
 62
     7
370
    30
100
AcDbLine
 10
75.01896067415714
 20
119.068820224719
 30
0.0
 11
74.31109550561781
 21
119.4227528089886
 31
0.0
  0
LINE
  5
1D4
330
1F
100
AcDbEntity
  8
101
  6
Continuous
 62
     7
370
    30
100
AcDbLine
 10
74.31109550561781
 20
119.4227528089886
 30
0.0
 11
73.4852528089886
 21
119.6587078651684
 31
0.0
  0
LINE
  5
1D5
330
1F
100
AcDbEntity
  8
101
  6
Continuous
 62
     7
370
    30
100
AcDbLine
 10
73.4852528089886
 20
119.6587078651684
 30
0.0
 11
72.89536516853916
 21
119.6587078651685
 31
0.0
  0
LINE
  5
1D6
330
1F
100
AcDbEntity
  8
101
  6
Continuous
 62
     7
370
    30
100
AcDbLine
 10
59.74087078651669
 20
122.6671348314606
 30
0.0
 11
57.38132022471893
 21
121.9002808988763
 31
0.0
  0
LINE
  5
1D7
330
1F
100
AcDbEntity
  8
101
  6
Continuous
 62
     7
370
    30
100
AcDbLine
 10
57.38132022471893
 20
121.9002808988763
 30
0.0
 11
55.67064606741556
 21
120.4550561797752
 31
0.0
  0
LINE
  5
1D8
330
1F
100
AcDbEntity
  8
101
  6
Continuous
 62
     7
370
    30
100
AcDbLine
 10
55.67064606741556
 20
120.4550561797752
 30
0.0
 11
54.90379213483129
 21
119.1867977528089
 31
0.0
  0
LINE
  5
1D9
330
1F
100
AcDbEntity
  8
101
  6
Continuous
 62
     7
370
    30
100
AcDbLine
 10
54.90379213483129
 20
119.1867977528089
 30
0.0
 11
49.52798479457837
 21
103.9470310594061
 31
0.0
  0
LINE
  5
1DA
330
1F
100
AcDbEntity
  8
101
  6
Continuous
 62
     7
370
    30
100
AcDbLine
 10
109.2324438202246
 20
104.7935393258426
 30
0.0
 11
110.2647471910111
 21
102.6994382022471
 31
0.0
  0
LINE
  5
1DB
330
1F
100
AcDbEntity
  8
101
  6
Continuous
 62
     7
370
    30
100
AcDbLine
 10
110.2647471910111
 20
102.6994382022471
 30
0.0
 11
110.4417134831459
 21
101.1657303370785
 31
0.0
  0
LINE
  5
1DC
330
1F
100
AcDbEntity
  8
101
  6
Continuous
 62
     7
370
    30
100
AcDbLine
 10
110.4417134831459
 20
101.1657303370785
 30
0.0
 11
109.6748595505616
 21
98.6882022471909
 31
0.0
  0
LINE
  5
1DD
330
1F
100
AcDbEntity
  8
101
  6
Continuous
 62
     7
370
    30
100
AcDbLine
 10
109.6748595505616
 20
98.6882022471909
 30
0.0
 11
104.4509253647059
 21
84.84449323605976
 31
0.0
  0
LINE
  5
1DE
330
1F
100
AcDbEntity
  8
101
  6
Continuous
 62
     7
370
    30
100
AcDbLine
 10
105.2212078651684
 20
86.21207865168525
 30
0.0
 11
106.5484550561797
 21
85.71067415730323
 31
0.0
  0
LINE
  5
1DF
330
1F
100
AcDbEntity
  8
101
  6
Continuous
 62
     7
370
    30
100
AcDbLine
 10
105.501003649131
 20
84.51248319024887
 30
0.0
 11
106.5484550561797
 21
85.71067415730323
 31
0.0
  0
LINE
  5
1E0
330
1F
100
AcDbEntity
  8
101
  6
Continuous
 62
     7
370
    30
100
AcDbLine
 10
106.5484550561797
 20
85.71067415730323
 30
0.0
 11
107.9051966292134
 21
87.4213483146066
 31
0.0
  0
LINE
  5
1E1
330
1F
100
AcDbEntity
  8
101
  6
Continuous
 62
     7
370
    30
100
AcDbLine
 10
107.9051966292134
 20
87.4213483146066
 30
0.0
 11
109.2914325842695
 21
90.7837078651684
 31
0.0
  0
LINE
  5
1E2
330
1F
100
AcDbEntity
  8
101
  6
Continuous
 62
     7
370
    30
100
AcDbLine
 10
109.2914325842695
 20
90.7837078651684
 30
0.0
 11
110.8251404494381
 21
94.94241573033695
 31
0.0
  0
LINE
  5
1E3
330
1F
100
AcDbEntity
  8
101
  6
Continuous
 62
     7
370
    30
100
AcDbLine
 10
110.8251404494381
 20
94.94241573033695
 30
0.0
 11
113.6271067415729
 21
102.6109550561797
 31
0.0
  0
LINE
  5
1E4
330
1F
100
AcDbEntity
  8
101
  6
Continuous
 62
     7
370
    30
100
AcDbLine
 10
113.6271067415729
 20
102.6109550561797
 30
0.0
 11
113.6271067415729
 21
103.4662921348313
 31
0.0
  0
LINE
  5
1E5
330
1F
100
AcDbEntity
  8
101
  6
Continuous
 62
     7
370
    30
100
AcDbLine
 10
113.6271067415729
 20
103.4662921348313
 30
0.0
 11
114.4824438202246
 21
105.3244382022471
 31
0.0
  0
LINE
  5
1E6
330
1F
100
AcDbEntity
  8
101
  6
Continuous
 62
     7
370
    30
100
AcDbLine
 10
114.4824438202246
 20
105.3244382022471
 30
0.0
 11
115.8981741573032
 21
104.9410112359549
 31
0.0
  0
LINE
  5
1E7
330
1F
100
AcDbEntity
  8
101
  6
Continuous
 62
     7
370
    30
100
AcDbLine
 10
115.8981741573032
 20
104.9410112359549
 30
0.0
 11
116.5765449438201
 21
104.321629213483
 31
0.0
  0
LINE
  5
1E8
330
1F
100
AcDbEntity
  8
101
  6
Continuous
 62
     7
370
    30
100
AcDbLine
 10
116.5765449438201
 20
104.321629213483
 30
0.0
 11
117.0484550561796
 21
103.3483146067415
 31
0.0
  0
LINE
  5
1E9
330
1F
100
AcDbEntity
  8
101
  6
Continuous
 62
     7
370
    30
100
AcDbLine
 10
117.0484550561796
 20
103.3483146067415
 30
0.0
 11
116.134129213483
 21
101.8735955056179
 31
0.0
  0
LINE
  5
1EA
330
1F
100
AcDbEntity
  8
101
  6
Continuous
 62
     7
370
    30
100
AcDbLine
 10
116.134129213483
 20
101.8735955056179
 30
0.0
 11
115.4852528089886
 21
100.2808988764044
 31
0.0
  0
LINE
  5
1EB
330
1F
100
AcDbEntity
  8
101
  6
Continuous
 62
     7
370
    30
100
AcDbLine
 10
115.4852528089886
 20
100.2808988764044
 30
0.0
 11
112.2998595505617
 21
91.255617977528
 31
0.0
  0
LINE
  5
1EC
330
1F
100
AcDbEntity
  8
101
  6
Continuous
 62
     7
370
    30
100
AcDbLine
 10
112.2998595505617
 20
91.255617977528
 30
0.0
 11
110.6186797752809
 21
86.86095505617963
 31
0.0
  0
LINE
  5
1ED
330
1F
100
AcDbEntity
  8
101
  6
Continuous
 62
     7
370
    30
100
AcDbLine
 10
110.6186797752809
 20
86.86095505617963
 30
0.0
 11
109.7043539325842
 21
85.50421348314593
 31
0.0
  0
LINE
  5
1EE
330
1F
100
AcDbEntity
  8
101
  6
Continuous
 62
     7
370
    30
100
AcDbLine
 10
109.7043539325842
 20
85.50421348314593
 30
0.0
 11
108.9669943820224
 21
84.50140449438177
 31
0.0
  0
LINE
  5
1EF
330
1F
100
AcDbEntity
  8
101
  6
Continuous
 62
     7
370
    30
100
AcDbLine
 10
108.9669943820224
 20
84.50140449438177
 30
0.0
 11
108.4607512942986
 21
83.91585055057757
 31
0.0
  0
LINE
  5
1F0
330
1F
100
AcDbEntity
  8
101
  6
Continuous
 62
     7
370
    30
100
AcDbLine
 10
109.2324438202246
 20
104.7935393258426
 30
0.0
 11
108.0821629213483
 21
106.0912921348313
 31
0.0
  0
LINE
  5
1F1
330
1F
100
AcDbEntity
  8
101
  6
Continuous
 62
     7
370
    30
100
AcDbLine
 10
108.0821629213483
 20
106.0912921348313
 30
0.0
 11
98.70294943820221
 21
109.571629213483
 31
0.0
  0
LINE
  5
1F2
330
1F
100
AcDbEntity
  8
101
  6
Continuous
 62
     7
370
    30
100
AcDbLine
 10
98.70294943820221
 20
109.571629213483
 30
0.0
 11
91.50632022471908
 21
111.9901685393257
 31
0.0
  0
LINE
  5
1F3
330
1F
100
AcDbEntity
  8
101
  6
Continuous
 62
     7
370
    30
100
AcDbLine
 10
91.50632022471908
 20
111.9901685393257
 30
0.0
 11
82.36306179775278
 21
115.2935393258425
 31
0.0
  0
LINE
  5
1F4
330
1F
100
AcDbEntity
  8
101
  6
Continuous
 62
     7
370
    30
100
AcDbLine
 10
82.36306179775278
 20
115.2935393258425
 30
0.0
 11
75.19592696629198
 21
118.3019662921347
 31
0.0
  0
LINE
  5
1F5
330
1F
100
AcDbEntity
  8
101
  6
Continuous
 62
     7
370
    30
100
AcDbLine
 10
72.56677935083906
 20
118.8028564330194
 30
0.0
 11
64.0765449438202
 21
121.4873595505616
 31
0.0
  0
LINE
  5
1F6
330
1F
100
AcDbEntity
  8
101
  6
Continuous
 62
     7
370
    30
100
AcDbLine
 10
64.0765449438202
 20
121.4873595505616
 30
0.0
 11
59.74087078651669
 21
122.6671348314606
 31
0.0
  0
LINE
  5
1F7
330
1F
100
AcDbEntity
  8
101
  6
Continuous
 62
     7
370
    30
100
AcDbLine
 10
59.74087078651669
 20
122.6671348314606
 30
0.0
 11
57.52879213483143
 21
123.3160112359549
 31
0.0
  0
LINE
  5
1F8
330
1F
100
AcDbEntity
  8
101
  6
Continuous
 62
     7
370
    30
100
AcDbLine
 10
57.52879213483143
 20
123.3160112359549
 30
0.0
 11
56.27347543152187
 21
123.7001545415213
 31
0.0
  0
LINE
  5
1F9
330
1F
100
AcDbEntity
  8
101
  6
Continuous
 62
     7
370
    30
100
AcDbLine
 10
53.63553370786515
 20
125.0856741573032
 30
0.0
 11
49.94873595505615
 21
126.6488764044942
 31
0.0
  0
LINE
  5
1FA
330
1F
100
AcDbEntity
  8
101
  6
Continuous
 62
     7
370
    30
100
AcDbLine
 10
49.94873595505615
 20
126.6488764044942
 30
0.0
 11
48.38553370786514
 21
127.946629213483
 31
0.0
  0
LINE
  5
1FB
330
1F
100
AcDbEntity
  8
101
  6
Continuous
 62
     7
370
    30
100
AcDbLine
 10
48.38553370786514
 20
127.946629213483
 30
0.0
 11
49.565308988764
 21
131.0435393258425
 31
0.0
  0
LINE
  5
1FC
330
1F
100
AcDbEntity
  8
101
  6
Continuous
 62
     7
370
    30
100
AcDbLine
 10
49.565308988764
 20
131.0435393258425
 30
0.0
 11
51.62991573033705
 21
130.8370786516852
 31
0.0
  0
LINE
  5
1FD
330
1F
100
AcDbEntity
  8
101
  6
Continuous
 62
     7
370
    30
100
AcDbLine
 10
51.62991573033705
 20
130.8370786516852
 30
0.0
 11
52.98665730337075
 21
130.4831460674156
 31
0.0
  0
LINE
  5
1FE
330
1F
100
AcDbEntity
  8
101
  6
Continuous
 62
     7
370
    30
100
AcDbLine
 10
52.98665730337075
 20
130.4831460674156
 30
0.0
 11
56.93890449438199
 21
129.3623595505616
 31
0.0
  0
LINE
  5
1FF
330
1F
100
AcDbEntity
  8
101
  6
Continuous
 62
     7
370
    30
100
AcDbLine
 10
56.93890449438199
 20
129.3623595505616
 30
0.0
 11
63.89957865168536
 21
127.3567415730335
 31
0.0
  0
LINE
  5
200
330
1F
100
AcDbEntity
  8
101
  6
Continuous
 62
     7
370
    30
100
AcDbLine
 10
63.89957865168536
 20
127.3567415730335
 30
0.0
 11
74.9009831460674
 21
123.6109550561796
 31
0.0
  0
LINE
  5
201
330
1F
100
AcDbEntity
  8
101
  6
Continuous
 62
     7
370
    30
100
AcDbLine
 10
74.9009831460674
 20
123.6109550561796
 30
0.0
 11
84.39817415730337
 21
120.1896067415729
 31
0.0
  0
LINE
  5
202
330
1F
100
AcDbEntity
  8
101
  6
Continuous
 62
     7
370
    30
100
AcDbLine
 10
84.39817415730337
 20
120.1896067415729
 30
0.0
 11
99.26334269662924
 21
114.8511235955055
 31
0.0
  0
LINE
  5
203
330
1F
100
AcDbEntity
  8
101
  6
Continuous
 62
     7
370
    30
100
AcDbLine
 10
99.26334269662924
 20
114.8511235955055
 30
0.0
 11
107.5217696629214
 21
111.6362359550561
 31
0.0
  0
LINE
  5
204
330
1F
100
AcDbEntity
  8
101
  6
Continuous
 62
     7
370
    30
100
AcDbLine
 10
107.5217696629214
 20
111.6362359550561
 30
0.0
 11
114.1580056179775
 21
108.9522471910111
 31
0.0
  0
LINE
  5
205
330
1F
100
AcDbEntity
  8
101
  6
Continuous
 62
     7
370
    30
100
AcDbLine
 10
114.1580056179775
 20
108.9522471910111
 30
0.0
 11
117.8153089887641
 21
107.4480337078651
 31
0.0
  0
LINE
  5
206
330
1F
100
AcDbEntity
  8
101
  6
Continuous
 62
     7
370
    30
100
AcDbLine
 10
117.8153089887641
 20
107.4480337078651
 30
0.0
 11
120.8237359550562
 21
105.6783707865167
 31
0.0
  0
LINE
  5
207
330
1F
100
AcDbEntity
  8
101
  6
Continuous
 62
     7
370
    30
100
AcDbLine
 10
120.8237359550562
 20
105.6783707865167
 30
0.0
 11
121.2956460674158
 21
104.4985955056179
 31
0.0
  0
LINE
  5
208
330
1F
100
AcDbEntity
  8
101
  6
Continuous
 62
     7
370
    30
100
AcDbLine
 10
121.2956460674158
 20
104.4985955056179
 30
0.0
 11
120.7942415730337
 21
103.0533707865167
 31
0.0
  0
LINE
  5
209
330
1F
100
AcDbEntity
  8
101
  6
Continuous
 62
     7
370
    30
100
AcDbLine
 10
120.7942415730337
 20
103.0533707865167
 30
0.0
 11
120.0863764044944
 21
102.5519662921347
 31
0.0
  0
LINE
  5
20A
330
1F
100
AcDbEntity
  8
101
  6
Continuous
 62
     7
370
    30
100
AcDbLine
 10
120.0863764044944
 20
102.5519662921347
 30
0.0
 11
118.8771067415731
 21
102.4634831460673
 31
0.0
  0
LINE
  5
20B
330
1F
100
AcDbEntity
  8
101
  6
Continuous
 62
     7
370
    30
100
AcDbLine
 10
118.8771067415731
 20
102.4634831460673
 30
0.0
 11
116.6004063334945
 21
102.6256553766041
 31
0.0
  0
LINE
  5
20C
330
1F
100
AcDbEntity
  8
101
  6
Continuous
 62
     7
370
    30
100
AcDbLine
 10
113.6271067415729
 20
103.4662921348313
 30
0.0
 11
109.08803482106
 21
104.9564622992591
 31
0.0
  0
LINE
  5
20D
330
1F
100
AcDbEntity
  8
101
  6
Continuous
 62
     7
370
    30
100
AcDbLine
 10
119.8180473372781
 20
102.5323324579482
 30
0.0
 11
116.7432046489285
 21
103.9778935716969
 31
0.0
  0
LINE
  5
20E
330
1F
100
AcDbEntity
  8
101
  6
Continuous
 62
     7
370
    30
100
AcDbLine
 10
114.3670355532714
 20
105.0737236912798
 30
0.0
 11
109.2029494382023
 21
107.1235955056179
 31
0.0
  0
LINE
  5
20F
330
1F
100
AcDbEntity
  8
101
  6
Continuous
 62
     7
370
    30
100
AcDbLine
 10
109.2029494382023
 20
107.1235955056179
 30
0.0
 11
99.76474719101124
 21
110.9283707865168
 31
0.0
  0
LINE
  5
210
330
1F
100
AcDbEntity
  8
101
  6
Continuous
 62
     7
370
    30
100
AcDbLine
 10
99.76474719101124
 20
110.9283707865168
 30
0.0
 11
85.90238764044943
 21
115.7949438202246
 31
0.0
  0
LINE
  5
211
330
1F
100
AcDbEntity
  8
101
  6
Continuous
 62
     7
370
    30
100
AcDbLine
 10
85.90238764044943
 20
115.7949438202246
 30
0.0
 11
74.9599719101124
 21
119.6882022471909
 31
0.0
  0
LINE
  5
212
330
1F
100
AcDbEntity
  8
101
  6
Continuous
 62
     7
370
    30
100
AcDbLine
 10
74.9599719101124
 20
119.6882022471909
 30
0.0
 11
67.497893258427
 21
121.8707865168538
 31
0.0
  0
LINE
  5
213
330
1F
100
AcDbEntity
  8
101
  6
Continuous
 62
     7
370
    30
100
AcDbLine
 10
67.497893258427
 20
121.8707865168538
 30
0.0
 11
58.62008426966295
 21
125.2626404494381
 31
0.0
  0
LINE
  5
214
330
1F
100
AcDbEntity
  8
101
  6
Continuous
 62
     7
370
    30
100
AcDbLine
 10
58.62008426966295
 20
125.2626404494381
 30
0.0
 11
54.10744382022474
 21
126.6783707865167
 31
0.0
  0
LINE
  5
215
330
1F
100
AcDbEntity
  8
101
  6
Continuous
 62
     7
370
    30
100
AcDbLine
 10
54.10744382022474
 20
126.6783707865167
 30
0.0
 11
51.12851123595507
 21
127.5926966292133
 31
0.0
  0
LINE
  5
216
330
1F
100
AcDbEntity
  8
101
  6
Continuous
 62
     7
370
    30
100
AcDbLine
 10
51.12851123595507
 20
127.5926966292133
 30
0.0
 11
48.38553370786514
 21
127.946629213483
 31
0.0
  0
LINE
  5
217
330
1F
100
AcDbEntity
  8
101
  6
Continuous
 62
     7
370
    30
100
AcDbLine
 10
51.62991573033705
 20
130.8370786516852
 30
0.0
 11
52.27879213483143
 21
132.2233146067415
 31
0.0
  0
LINE
  5
218
330
1F
100
AcDbEntity
  8
101
  6
Continuous
 62
     7
370
    30
100
AcDbLine
 10
52.27879213483143
 20
132.2233146067415
 30
0.0
 11
55.93609550561796
 21
132.2528089887639
 31
0.0
  0
LINE
  5
219
330
1F
100
AcDbEntity
  8
101
  6
Continuous
 62
     7
370
    30
100
AcDbLine
 10
55.93609550561796
 20
132.2528089887639
 30
0.0
 11
59.38693820224718
 21
132.695224719101
 31
0.0
  0
LINE
  5
21A
330
1F
100
AcDbEntity
  8
101
  6
Continuous
 62
     7
370
    30
100
AcDbLine
 10
59.38693820224718
 20
132.695224719101
 30
0.0
 11
60.09480337078651
 21
133.9339887640448
 31
0.0
  0
LINE
  5
21B
330
1F
100
AcDbEntity
  8
101
  6
Continuous
 62
     7
370
    30
100
AcDbLine
 10
60.09480337078651
 20
133.9339887640448
 30
0.0
 11
62.21839887640448
 21
139.00702247191
 31
0.0
  0
LINE
  5
21C
330
1F
100
AcDbEntity
  8
101
  6
Continuous
 62
     7
370
    30
100
AcDbLine
 10
62.21839887640448
 20
139.00702247191
 30
0.0
 11
63.78160112359549
 21
141.2191011235954
 31
0.0
  0
LINE
  5
21D
330
1F
100
AcDbEntity
  8
101
  6
Continuous
 62
     7
370
    30
100
AcDbLine
 10
63.78160112359549
 20
141.2191011235954
 30
0.0
 11
65.43328651685391
 21
142.3398876404493
 31
0.0
  0
LINE
  5
21E
330
1F
100
AcDbEntity
  8
101
  6
Continuous
 62
     7
370
    30
100
AcDbLine
 10
65.43328651685391
 20
142.3398876404493
 30
0.0
 11
67.46839887640448
 21
143.3721910112359
 31
0.0
  0
LINE
  5
21F
330
1F
100
AcDbEntity
  8
101
  6
Continuous
 62
     7
370
    30
100
AcDbLine
 10
67.46839887640448
 20
143.3721910112359
 30
0.0
 11
69.56249999999999
 21
144.0800561797752
 31
0.0
  0
LINE
  5
220
330
1F
100
AcDbEntity
  8
101
  6
Continuous
 62
     7
370
    30
100
AcDbLine
 10
69.56249999999999
 20
144.0800561797752
 30
0.0
 11
72.8068820224719
 21
144.1980337078651
 31
0.0
  0
LINE
  5
221
330
1F
100
AcDbEntity
  8
101
  6
Continuous
 62
     7
370
    30
100
AcDbLine
 10
72.8068820224719
 20
144.1980337078651
 30
0.0
 11
76.52317415730334
 21
144.198033707865
 31
0.0
  0
LINE
  5
222
330
1F
100
AcDbEntity
  8
101
  6
Continuous
 62
     7
370
    30
100
AcDbLine
 10
76.52317415730334
 20
144.198033707865
 30
0.0
 11
80.94733146067414
 21
143.8735955056178
 31
0.0
  0
LINE
  5
223
330
1F
100
AcDbEntity
  8
101
  6
Continuous
 62
     7
370
    30
100
AcDbLine
 10
80.94733146067414
 20
143.8735955056178
 30
0.0
 11
83.5133426966292
 21
143.9325842696628
 31
0.0
  0
LINE
  5
224
330
1F
100
AcDbEntity
  8
101
  6
Continuous
 62
     7
370
    30
100
AcDbLine
 10
83.5133426966292
 20
143.9325842696628
 30
0.0
 11
85.1945224719101
 21
144.5519662921347
 31
0.0
  0
LINE
  5
225
330
1F
100
AcDbEntity
  8
101
  6
Continuous
 62
     7
370
    30
100
AcDbLine
 10
85.1945224719101
 20
144.5519662921347
 30
0.0
 11
86.5512640449438
 21
145.5547752808987
 31
0.0
  0
LINE
  5
226
330
1F
100
AcDbEntity
  8
101
  6
Continuous
 62
     7
370
    30
100
AcDbLine
 10
86.5512640449438
 20
145.5547752808987
 30
0.0
 11
87.8195224719101
 21
147.6488764044942
 31
0.0
  0
LINE
  5
227
330
1F
100
AcDbEntity
  8
101
  6
Continuous
 62
     7
370
    30
100
AcDbLine
 10
87.8195224719101
 20
147.6488764044942
 30
0.0
 11
90.70997191011237
 21
154.6390449438201
 31
0.0
  0
LINE
  5
228
330
1F
100
AcDbEntity
  8
101
  6
Continuous
 62
     7
370
    30
100
AcDbLine
 10
90.70997191011237
 20
154.6390449438201
 30
0.0
 11
91.83075842696631
 21
155.1109550561796
 31
0.0
  0
LINE
  5
229
330
1F
100
AcDbEntity
  8
101
  6
Continuous
 62
     7
370
    30
100
AcDbLine
 10
91.83075842696631
 20
155.1109550561796
 30
0.0
 11
93.12851123595507
 21
154.9339887640448
 31
0.0
  0
LINE
  5
22A
330
1F
100
AcDbEntity
  8
101
  6
Continuous
 62
     7
370
    30
100
AcDbLine
 10
93.12851123595507
 20
154.9339887640448
 30
0.0
 11
95.81250000000003
 21
154.4325842696628
 31
0.0
  0
LINE
  5
22B
330
1F
100
AcDbEntity
  8
101
  6
Continuous
 62
     7
370
    30
100
AcDbLine
 10
95.81250000000003
 20
154.4325842696628
 30
0.0
 11
98.46699438202249
 21
153.4592696629212
 31
0.0
  0
LINE
  5
22C
330
1F
100
AcDbEntity
  8
101
  6
Continuous
 62
     7
370
    30
100
AcDbLine
 10
98.46699438202249
 20
153.4592696629212
 30
0.0
 11
100.7380617977528
 21
152.6039325842695
 31
0.0
  0
LINE
  5
22D
330
1F
100
AcDbEntity
  8
101
  6
Continuous
 62
     7
370
    30
100
AcDbLine
 10
100.7380617977528
 20
152.6039325842695
 30
0.0
 11
102.6551966292135
 21
151.7191011235954
 31
0.0
  0
LINE
  5
22E
330
1F
100
AcDbEntity
  8
101
  6
Continuous
 62
     7
370
    30
100
AcDbLine
 10
102.6551966292135
 20
151.7191011235954
 30
0.0
 11
104.6313202247192
 21
150.6867977528088
 31
0.0
  0
LINE
  5
22F
330
1F
100
AcDbEntity
  8
101
  6
Continuous
 62
     7
370
    30
100
AcDbLine
 10
104.6313202247192
 20
150.6867977528088
 30
0.0
 11
105.9585674157304
 21
149.6839887640448
 31
0.0
  0
LINE
  5
230
330
1F
100
AcDbEntity
  8
101
  6
Continuous
 62
     7
370
    30
100
AcDbLine
 10
105.9585674157304
 20
149.6839887640448
 30
0.0
 11
106.0765449438203
 21
148.5632022471908
 31
0.0
  0
LINE
  5
231
330
1F
100
AcDbEntity
  8
101
  6
Continuous
 62
     7
370
    30
100
AcDbLine
 10
106.0765449438203
 20
148.5632022471908
 30
0.0
 11
104.0414325842697
 21
143.1362359550559
 31
0.0
  0
LINE
  5
232
330
1F
100
AcDbEntity
  8
101
  6
Continuous
 62
     7
370
    30
100
AcDbLine
 10
104.0414325842697
 20
143.1362359550559
 30
0.0
 11
103.5400280898877
 21
140.9831460674154
 31
0.0
  0
LINE
  5
233
330
1F
100
AcDbEntity
  8
101
  6
Continuous
 62
     7
370
    30
100
AcDbLine
 10
103.5400280898877
 20
140.9831460674154
 30
0.0
 11
103.3925561797754
 21
139.0955056179772
 31
0.0
  0
LINE
  5
234
330
1F
100
AcDbEntity
  8
101
  6
Continuous
 62
     7
370
    30
100
AcDbLine
 10
103.3925561797754
 20
139.0955056179772
 30
0.0
 11
103.6580056179776
 21
137.3848314606739
 31
0.0
  0
LINE
  5
235
330
1F
100
AcDbEntity
  8
101
  6
Continuous
 62
     7
370
    30
100
AcDbLine
 10
103.6580056179776
 20
137.3848314606739
 30
0.0
 11
104.9852528089888
 21
135.3792134831458
 31
0.0
  0
LINE
  5
236
330
1F
100
AcDbEntity
  8
101
  6
Continuous
 62
     7
370
    30
100
AcDbLine
 10
104.9852528089888
 20
135.3792134831458
 30
0.0
 11
107.2268258426967
 21
133.6685393258424
 31
0.0
  0
LINE
  5
237
330
1F
100
AcDbEntity
  8
101
  6
Continuous
 62
     7
370
    30
100
AcDbLine
 10
107.2268258426967
 20
133.6685393258424
 30
0.0
 11
110.7661516853933
 21
131.3679775280896
 31
0.0
  0
LINE
  5
238
330
1F
100
AcDbEntity
  8
101
  6
Continuous
 62
     7
370
    30
100
AcDbLine
 10
110.7661516853933
 20
131.3679775280896
 30
0.0
 11
114.4234550561798
 21
128.27106741573
 31
0.0
  0
LINE
  5
239
330
1F
100
AcDbEntity
  8
101
  6
Continuous
 62
     7
370
    30
100
AcDbLine
 10
114.4234550561798
 20
128.27106741573
 30
0.0
 11
116.2226123595506
 21
125.64606741573
 31
0.0
  0
LINE
  5
23A
330
1F
100
AcDbEntity
  8
101
  6
Continuous
 62
     7
370
    30
100
AcDbLine
 10
116.2226123595506
 20
125.64606741573
 30
0.0
 11
117.1074438202248
 21
123.4044943820222
 31
0.0
  0
LINE
  5
23B
330
1F
100
AcDbEntity
  8
101
  6
Continuous
 62
     7
370
    30
100
AcDbLine
 10
117.1074438202248
 20
123.4044943820222
 30
0.0
 11
117.313904494382
 21
120.1011235955053
 31
0.0
  0
LINE
  5
23C
330
1F
100
AcDbEntity
  8
101
  6
Continuous
 62
     7
370
    30
100
AcDbLine
 10
117.313904494382
 20
120.1011235955053
 30
0.0
 11
117.0189606741573
 21
117.8890449438199
 31
0.0
  0
LINE
  5
23D
330
1F
100
AcDbEntity
  8
101
  6
Continuous
 62
     7
370
    30
100
AcDbLine
 10
117.0189606741573
 20
117.8890449438199
 30
0.0
 11
115.8391853932584
 21
114.0842696629211
 31
0.0
  0
LINE
  5
23E
330
1F
100
AcDbEntity
  8
101
  6
Continuous
 62
     7
370
    30
100
AcDbLine
 10
115.8391853932584
 20
114.0842696629211
 30
0.0
 11
115.5737359550562
 21
113.140449438202
 31
0.0
  0
LINE
  5
23F
330
1F
100
AcDbEntity
  8
101
  6
Continuous
 62
     7
370
    30
100
AcDbLine
 10
115.5737359550562
 20
113.140449438202
 30
0.0
 11
115.7801966292135
 21
111.9311797752806
 31
0.0
  0
LINE
  5
240
330
1F
100
AcDbEntity
  8
101
  6
Continuous
 62
     7
370
    30
100
AcDbLine
 10
115.7801966292135
 20
111.9311797752806
 30
0.0
 11
118.1692415730337
 21
109.4241573033705
 31
0.0
  0
LINE
  5
241
330
1F
100
AcDbEntity
  8
101
  6
Continuous
 62
     7
370
    30
100
AcDbLine
 10
118.1692415730337
 20
109.4241573033705
 30
0.0
 11
119.1425561797753
 21
108.2443820224716
 31
0.0
  0
LINE
  5
242
330
1F
100
AcDbEntity
  8
101
  6
Continuous
 62
     7
370
    30
100
AcDbLine
 10
119.1425561797753
 20
108.2443820224716
 30
0.0
 11
119.5115771497069
 21
106.4502289073104
 31
0.0
  0
LINE
  5
243
330
1F
100
AcDbEntity
  8
101
  6
Continuous
 62
     7
370
    30
100
AcDbLine
 10
52.27879213483143
 20
132.2233146067415
 30
0.0
 11
56.43749999999987
 21
131.0435393258425
 31
0.0
  0
LINE
  5
244
330
1F
100
AcDbEntity
  8
101
  6
Continuous
 62
     7
370
    30
100
AcDbLine
 10
56.43749999999987
 20
131.0435393258425
 30
0.0
 11
63.4571629213482
 21
129.0379213483144
 31
0.0
  0
LINE
  5
245
330
1F
100
AcDbEntity
  8
101
  6
Continuous
 62
     7
370
    30
100
AcDbLine
 10
63.4571629213482
 20
129.0379213483144
 30
0.0
 11
72.65941011235944
 21
126.5014044943818
 31
0.0
  0
LINE
  5
246
330
1F
100
AcDbEntity
  8
101
  6
Continuous
 62
     7
370
    30
100
AcDbLine
 10
72.65941011235944
 20
126.5014044943818
 30
0.0
 11
83.04143258426957
 21
122.7851123595503
 31
0.0
  0
LINE
  5
247
330
1F
100
AcDbEntity
  8
101
  6
Continuous
 62
     7
370
    30
100
AcDbLine
 10
83.04143258426957
 20
122.7851123595503
 30
0.0
 11
93.9543539325842
 21
118.7148876404492
 31
0.0
  0
LINE
  5
248
330
1F
100
AcDbEntity
  8
101
  6
Continuous
 62
     7
370
    30
100
AcDbLine
 10
93.9543539325842
 20
118.7148876404492
 30
0.0
 11
104.631320224719
 21
114.703651685393
 31
0.0
  0
LINE
  5
249
330
1F
100
AcDbEntity
  8
101
  6
Continuous
 62
     7
370
    30
100
AcDbLine
 10
104.631320224719
 20
114.703651685393
 30
0.0
 11
110.4712078651685
 21
112.4030898876402
 31
0.0
  0
LINE
  5
24A
330
1F
100
AcDbEntity
  8
101
  6
Continuous
 62
     7
370
    30
100
AcDbLine
 10
110.4712078651685
 20
112.4030898876402
 30
0.0
 11
115.4262640449438
 21
110.2794943820222
 31
0.0
  0
LINE
  5
24B
330
1F
100
AcDbEntity
  8
101
  6
Continuous
 62
     7
370
    30
100
AcDbLine
 10
115.4262640449438
 20
110.2794943820222
 30
0.0
 11
119.1425561797753
 21
108.2443820224716
 31
0.0
  0
LINE
  5
24C
330
1F
100
AcDbEntity
  8
101
  6
Continuous
 62
     7
370
    30
100
AcDbLine
 10
114.3054775280898
 20
113.1109550561796
 30
0.0
 11
107.3448033707865
 21
116.2373595505616
 31
0.0
  0
LINE
  5
24D
330
1F
100
AcDbEntity
  8
101
  6
Continuous
 62
     7
370
    30
100
AcDbLine
 10
107.3448033707865
 20
116.2373595505616
 30
0.0
 11
98.73244382022465
 21
119.6587078651683
 31
0.0
  0
LINE
  5
24E
330
1F
100
AcDbEntity
  8
101
  6
Continuous
 62
     7
370
    30
100
AcDbLine
 10
98.73244382022465
 20
119.6587078651683
 30
0.0
 11
90.82794943820218
 21
122.7261235955054
 31
0.0
  0
LINE
  5
24F
330
1F
100
AcDbEntity
  8
101
  6
Continuous
 62
     7
370
    30
100
AcDbLine
 10
90.82794943820218
 20
122.7261235955054
 30
0.0
 11
80.56390449438194
 21
126.0884831460672
 31
0.0
  0
LINE
  5
250
330
1F
100
AcDbEntity
  8
101
  6
Continuous
 62
     7
370
    30
100
AcDbLine
 10
80.56390449438194
 20
126.0884831460672
 30
0.0
 11
73.30828651685384
 21
128.8019662921346
 31
0.0
  0
LINE
  5
251
330
1F
100
AcDbEntity
  8
101
  6
Continuous
 62
     7
370
    30
100
AcDbLine
 10
73.30828651685384
 20
128.8019662921346
 30
0.0
 11
66.9374999999999
 21
130.8665730337076
 31
0.0
  0
LINE
  5
252
330
1F
100
AcDbEntity
  8
101
  6
Continuous
 62
     7
370
    30
100
AcDbLine
 10
66.9374999999999
 20
130.8665730337076
 30
0.0
 11
61.09761235955045
 21
132.4002808988762
 31
0.0
  0
LINE
  5
253
330
1F
100
AcDbEntity
  8
101
  6
Continuous
 62
     7
370
    30
100
AcDbLine
 10
92.31906095448632
 20
155.0443683478815
 30
0.0
 11
92.65660112359541
 21
156.1137640449437
 31
0.0
  0
LINE
  5
254
330
1F
100
AcDbEntity
  8
101
  6
Continuous
 62
     7
370
    30
100
AcDbLine
 10
92.65660112359541
 20
156.1137640449437
 30
0.0
 11
94.01334269662912
 21
156.1137640449437
 31
0.0
  0
LINE
  5
255
330
1F
100
AcDbEntity
  8
101
  6
Continuous
 62
     7
370
    30
100
AcDbLine
 10
94.01334269662912
 20
156.1137640449437
 30
0.0
 11
96.81530898876396
 21
155.5533707865167
 31
0.0
  0
LINE
  5
256
330
1F
100
AcDbEntity
  8
101
  6
Continuous
 62
     7
370
    30
100
AcDbLine
 10
96.81530898876396
 20
155.5533707865167
 30
0.0
 11
99.6172752808988
 21
154.6095505617976
 31
0.0
  0
LINE
  5
257
330
1F
100
AcDbEntity
  8
101
  6
Continuous
 62
     7
370
    30
100
AcDbLine
 10
99.6172752808988
 20
154.6095505617976
 30
0.0
 11
101.7408707865168
 21
153.5182584269662
 31
0.0
  0
LINE
  5
258
330
1F
100
AcDbEntity
  8
101
  6
Continuous
 62
     7
370
    30
100
AcDbLine
 10
101.7408707865168
 20
153.5182584269662
 30
0.0
 11
103.6874999999999
 21
152.5449438202246
 31
0.0
  0
LINE
  5
259
330
1F
100
AcDbEntity
  8
101
  6
Continuous
 62
     7
370
    30
100
AcDbLine
 10
103.6874999999999
 20
152.5449438202246
 30
0.0
 11
105.191713483146
 21
151.6896067415729
 31
0.0
  0
LINE
  5
25A
330
1F
100
AcDbEntity
  8
101
  6
Continuous
 62
     7
370
    30
100
AcDbLine
 10
105.191713483146
 20
151.6896067415729
 30
0.0
 11
105.3391853932583
 21
151.1292134831459
 31
0.0
  0
LINE
  5
25B
330
1F
100
AcDbEntity
  8
101
  6
Continuous
 62
     7
370
    30
100
AcDbLine
 10
105.3391853932583
 20
151.1292134831459
 30
0.0
 11
105.0076726190266
 21
150.4024426104432
 31
0.0
  0
LINE
  5
25C
330
1F
100
AcDbEntity
  8
101
  6
Continuous
 62
     7
370
    30
100
AcDbLine
 10
94.4897904062229
 20
156.0184745030249
 30
0.0
 11
103.8054775280898
 21
177.3202247191011
 31
0.0
  0
LINE
  5
25D
330
1F
100
AcDbEntity
  8
101
  6
Continuous
 62
     7
370
    30
100
AcDbLine
 10
103.8054775280898
 20
177.3202247191011
 30
0.0
 11
106.3419943820224
 21
181.3904494382022
 31
0.0
  0
LINE
  5
25E
330
1F
100
AcDbEntity
  8
101
  6
Continuous
 62
     7
370
    30
100
AcDbLine
 10
106.3419943820224
 20
181.3904494382022
 30
0.0
 11
110.2942415730336
 21
185.7556179775281
 31
0.0
  0
LINE
  5
25F
330
1F
100
AcDbEntity
  8
101
  6
Continuous
 62
     7
370
    30
100
AcDbLine
 10
110.2942415730336
 20
185.7556179775281
 30
0.0
 11
115.7212078651685
 21
189.7078651685393
 31
0.0
  0
LINE
  5
260
330
1F
100
AcDbEntity
  8
101
  6
Continuous
 62
     7
370
    30
100
AcDbLine
 10
115.7212078651685
 20
189.7078651685393
 30
0.0
 11
119.8504213483146
 21
191.7724719101124
 31
0.0
  0
LINE
  5
261
330
1F
100
AcDbEntity
  8
101
  6
Continuous
 62
     7
370
    30
100
AcDbLine
 10
119.8504213483146
 20
191.7724719101124
 30
0.0
 11
124.628511235955
 21
193.0702247191011
 31
0.0
  0
LINE
  5
262
330
1F
100
AcDbEntity
  8
101
  6
Continuous
 62
     7
370
    30
100
AcDbLine
 10
124.628511235955
 20
193.0702247191011
 30
0.0
 11
128.4037921348314
 21
193.4831460674157
 31
0.0
  0
LINE
  5
263
330
1F
100
AcDbEntity
  8
101
  6
Continuous
 62
     7
370
    30
100
AcDbLine
 10
128.4037921348314
 20
193.4831460674157
 30
0.0
 11
134.125702247191
 21
193.4831460674157
 31
0.0
  0
LINE
  5
264
330
1F
100
AcDbEntity
  8
101
  6
Continuous
 62
     7
370
    30
100
AcDbLine
 10
134.125702247191
 20
193.4831460674157
 30
0.0
 11
140.0245786516854
 21
192.2443820224719
 31
0.0
  0
LINE
  5
265
330
1F
100
AcDbEntity
  8
101
  6
Continuous
 62
     7
370
    30
100
AcDbLine
 10
140.0245786516854
 20
192.2443820224719
 30
0.0
 11
146.1594101123596
 21
189.5898876404495
 31
0.0
  0
LINE
  5
266
330
1F
100
AcDbEntity
  8
101
  6
Continuous
 62
     7
370
    30
100
AcDbLine
 10
146.1594101123596
 20
189.5898876404495
 30
0.0
 11
151.7633426966292
 21
185.5786516853933
 31
0.0
  0
LINE
  5
267
330
1F
100
AcDbEntity
  8
101
  6
Continuous
 62
     7
370
    30
100
AcDbLine
 10
151.7633426966292
 20
185.5786516853933
 30
0.0
 11
154.9487359550562
 21
182.3342696629214
 31
0.0
  0
LINE
  5
268
330
1F
100
AcDbEntity
  8
101
  6
Continuous
 62
     7
370
    30
100
AcDbLine
 10
154.9487359550562
 20
182.3342696629214
 30
0.0
 11
157.5442415730337
 21
178.7949438202247
 31
0.0
  0
LINE
  5
269
330
1F
100
AcDbEntity
  8
101
  6
Continuous
 62
     7
370
    30
100
AcDbLine
 10
157.5442415730337
 20
178.7949438202247
 30
0.0
 11
159.9037921348315
 21
174.7837078651686
 31
0.0
  0
LINE
  5
26A
330
1F
100
AcDbEntity
  8
101
  6
Continuous
 62
     7
370
    30
100
AcDbLine
 10
159.9037921348315
 20
174.7837078651686
 30
0.0
 11
162.0863764044944
 21
167.7050561797753
 31
0.0
  0
LINE
  5
26B
330
1F
100
AcDbEntity
  8
101
  6
Continuous
 62
     7
370
    30
100
AcDbLine
 10
162.0863764044944
 20
167.7050561797753
 30
0.0
 11
162.6172752808989
 21
162.9859550561798
 31
0.0
  0
LINE
  5
26C
330
1F
100
AcDbEntity
  8
101
  6
Continuous
 62
     7
370
    30
100
AcDbLine
 10
162.6172752808989
 20
162.9859550561798
 30
0.0
 11
163.1481741573034
 21
160.0955056179775
 31
0.0
  0
LINE
  5
26D
330
1F
100
AcDbEntity
  8
101
  6
Continuous
 62
     7
370
    30
100
AcDbLine
 10
163.1481741573034
 20
160.0955056179775
 30
0.0
 11
164.4459269662921
 21
155.376404494382
 31
0.0
  0
LINE
  5
26E
330
1F
100
AcDbEntity
  8
101
  6
Continuous
 62
     7
370
    30
100
AcDbLine
 10
164.4459269662921
 20
155.376404494382
 30
0.0
 11
166.5695224719101
 21
151.3651685393258
 31
0.0
  0
LINE
  5
26F
330
1F
100
AcDbEntity
  8
101
  6
Continuous
 62
     7
370
    30
100
AcDbLine
 10
166.5695224719101
 20
151.3651685393258
 30
0.0
 11
168.5751404494382
 21
148.4157303370786
 31
0.0
  0
LINE
  5
270
330
1F
100
AcDbEntity
  8
101
  6
Continuous
 62
     7
370
    30
100
AcDbLine
 10
168.5751404494382
 20
148.4157303370786
 30
0.0
 11
171.4066011235956
 21
145.5842696629213
 31
0.0
  0
LINE
  5
271
330
1F
100
AcDbEntity
  8
101
  6
Continuous
 62
     7
370
    30
100
AcDbLine
 10
171.4066011235956
 20
145.5842696629213
 30
0.0
 11
174.2380617977528
 21
143.7556179775281
 31
0.0
  0
LINE
  5
272
330
1F
100
AcDbEntity
  8
101
  6
Continuous
 62
     7
370
    30
100
AcDbLine
 10
174.2380617977528
 20
143.7556179775281
 30
0.0
 11
177.8953651685394
 21
141.9269662921348
 31
0.0
  0
LINE
  5
273
330
1F
100
AcDbEntity
  8
101
  6
Continuous
 62
     7
370
    30
100
AcDbLine
 10
177.8953651685394
 20
141.9269662921348
 30
0.0
 11
181.1397471910113
 21
141.3370786516854
 31
0.0
  0
LINE
  5
274
330
1F
100
AcDbEntity
  8
101
  6
Continuous
 62
     7
370
    30
100
AcDbLine
 10
181.1397471910113
 20
141.3370786516854
 30
0.0
 11
187.2745786516855
 21
141.2780898876404
 31
0.0
  0
LINE
  5
275
330
1F
100
AcDbEntity
  8
101
  6
Continuous
 62
     7
370
    30
100
AcDbLine
 10
187.2745786516855
 20
141.2780898876404
 30
0.0
 11
199.308286516854
 21
141.2780898876404
 31
0.0
  0
LINE
  5
276
330
1F
100
AcDbEntity
  8
101
  6
Continuous
 62
     7
370
    30
100
AcDbLine
 10
199.308286516854
 20
141.2780898876404
 30
0.0
 11
200.8419943820225
 21
140.5112359550562
 31
0.0
  0
LINE
  5
277
330
1F
100
AcDbEntity
  8
101
  6
Continuous
 62
     7
370
    30
100
AcDbLine
 10
200.8419943820225
 20
140.5112359550562
 30
0.0
 11
201.4908707865169
 21
138.1516853932584
 31
0.0
  0
LINE
  5
278
330
1F
100
AcDbEntity
  8
101
  6
Continuous
 62
     7
370
    30
100
AcDbLine
 10
201.4908707865169
 20
138.1516853932584
 30
0.0
 11
201.5498595505618
 21
135.4971910112359
 31
0.0
  0
LINE
  5
279
330
1F
100
AcDbEntity
  8
101
  6
Continuous
 62
     7
370
    30
100
AcDbLine
 10
201.5498595505618
 20
135.4971910112359
 30
0.0
 11
201.0189606741573
 21
133.6685393258427
 31
0.0
  0
LINE
  5
27A
330
1F
100
AcDbEntity
  8
101
  6
Continuous
 62
     7
370
    30
100
AcDbLine
 10
201.0189606741573
 20
133.6685393258427
 30
0.0
 11
199.8391853932585
 21
132.5477528089887
 31
0.0
  0
LINE
  5
27B
330
1F
100
AcDbEntity
  8
101
  6
Continuous
 62
     7
370
    30
100
AcDbLine
 10
199.8391853932585
 20
132.5477528089887
 30
0.0
 11
198.8363764044944
 21
132.1938202247191
 31
0.0
  0
LINE
  5
27C
330
1F
100
AcDbEntity
  8
101
  6
Continuous
 62
     7
370
    30
100
AcDbLine
 10
198.8363764044944
 20
132.1938202247191
 30
0.0
 11
182.2015449438202
 21
132.252808988764
 31
0.0
  0
LINE
  5
27D
330
1F
100
AcDbEntity
  8
101
  6
Continuous
 62
     7
370
    30
100
AcDbLine
 10
182.2015449438202
 20
132.252808988764
 30
0.0
 11
178.5442415730337
 21
132.6067415730337
 31
0.0
  0
LINE
  5
27E
330
1F
100
AcDbEntity
  8
101
  6
Continuous
 62
     7
370
    30
100
AcDbLine
 10
178.5442415730337
 20
132.6067415730337
 30
0.0
 11
174.3560393258427
 21
134.0224719101123
 31
0.0
  0
LINE
  5
27F
330
1F
100
AcDbEntity
  8
101
  6
Continuous
 62
     7
370
    30
100
AcDbLine
 10
174.3560393258427
 20
134.0224719101123
 30
0.0
 11
169.4009831460674
 21
135.9691011235955
 31
0.0
  0
LINE
  5
280
330
1F
100
AcDbEntity
  8
101
  6
Continuous
 62
     7
370
    30
100
AcDbLine
 10
169.4009831460674
 20
135.9691011235955
 30
0.0
 11
165.1537921348315
 21
138.8005617977528
 31
0.0
  0
LINE
  5
281
330
1F
100
AcDbEntity
  8
101
  6
Continuous
 62
     7
370
    30
100
AcDbLine
 10
165.1537921348315
 20
138.8005617977528
 30
0.0
 11
161.1425561797752
 21
142.8707865168539
 31
0.0
  0
LINE
  5
282
330
1F
100
AcDbEntity
  8
101
  6
Continuous
 62
     7
370
    30
100
AcDbLine
 10
161.1425561797752
 20
142.8707865168539
 30
0.0
 11
158.7240168539325
 21
146.4691011235955
 31
0.0
  0
LINE
  5
283
330
1F
100
AcDbEntity
  8
101
  6
Continuous
 62
     7
370
    30
100
AcDbLine
 10
158.7240168539325
 20
146.4691011235955
 30
0.0
 11
156.6594101123595
 21
150.0084269662921
 31
0.0
  0
LINE
  5
284
330
1F
100
AcDbEntity
  8
101
  6
Continuous
 62
     7
370
    30
100
AcDbLine
 10
156.6594101123595
 20
150.0084269662921
 30
0.0
 11
155.2436797752808
 21
154.314606741573
 31
0.0
  0
LINE
  5
285
330
1F
100
AcDbEntity
  8
101
  6
Continuous
 62
     7
370
    30
100
AcDbLine
 10
155.2436797752808
 20
154.314606741573
 30
0.0
 11
154.2998595505616
 21
159.5056179775281
 31
0.0
  0
LINE
  5
286
330
1F
100
AcDbEntity
  8
101
  6
Continuous
 62
     7
370
    30
100
AcDbLine
 10
154.2998595505616
 20
159.5056179775281
 30
0.0
 11
153.7099719101122
 21
165.5814606741573
 31
0.0
  0
LINE
  5
287
330
1F
100
AcDbEntity
  8
101
  6
Continuous
 62
     7
370
    30
100
AcDbLine
 10
153.7099719101122
 20
165.5814606741573
 30
0.0
 11
152.6481741573032
 21
169.3567415730337
 31
0.0
  0
LINE
  5
288
330
1F
100
AcDbEntity
  8
101
  6
Continuous
 62
     7
370
    30
100
AcDbLine
 10
152.6481741573032
 20
169.3567415730337
 30
0.0
 11
150.9374999999999
 21
172.3061797752809
 31
0.0
  0
LINE
  5
289
330
1F
100
AcDbEntity
  8
101
  6
Continuous
 62
     7
370
    30
100
AcDbLine
 10
150.9374999999999
 20
172.3061797752809
 30
0.0
 11
149.4922752808987
 21
174.2528089887641
 31
0.0
  0
LINE
  5
28A
330
1F
100
AcDbEntity
  8
101
  6
Continuous
 62
     7
370
    30
100
AcDbLine
 10
149.4922752808987
 20
174.2528089887641
 30
0.0
 11
146.3658707865167
 21
178.2935393258427
 31
0.0
  0
LINE
  5
28B
330
1F
100
AcDbEntity
  8
101
  6
Continuous
 62
     7
370
    30
100
AcDbLine
 10
146.3658707865167
 20
178.2935393258427
 30
0.0
 11
142.7380617977526
 21
181.0365168539326
 31
0.0
  0
LINE
  5
28C
330
1F
100
AcDbEntity
  8
101
  6
Continuous
 62
     7
370
    30
100
AcDbLine
 10
142.7380617977526
 20
181.0365168539326
 30
0.0
 11
139.1397471910111
 21
183.0421348314607
 31
0.0
  0
LINE
  5
28D
330
1F
100
AcDbEntity
  8
101
  6
Continuous
 62
     7
370
    30
100
AcDbLine
 10
139.1397471910111
 20
183.0421348314607
 30
0.0
 11
135.1285112359549
 21
184.2219101123596
 31
0.0
  0
LINE
  5
28E
330
1F
100
AcDbEntity
  8
101
  6
Continuous
 62
     7
370
    30
100
AcDbLine
 10
135.1285112359549
 20
184.2219101123596
 30
0.0
 11
129.5245786516852
 21
184.5168539325843
 31
0.0
  0
LINE
  5
28F
330
1F
100
AcDbEntity
  8
101
  6
Continuous
 62
     7
370
    30
100
AcDbLine
 10
129.5245786516852
 20
184.5168539325843
 30
0.0
 11
125.0414325842695
 21
183.7205056179776
 31
0.0
  0
LINE
  5
290
330
1F
100
AcDbEntity
  8
101
  6
Continuous
 62
     7
370
    30
100
AcDbLine
 10
125.0414325842695
 20
183.7205056179776
 30
0.0
 11
121.2956460674155
 21
182.1278089887641
 31
0.0
  0
LINE
  5
291
330
1F
100
AcDbEntity
  8
101
  6
Continuous
 62
     7
370
    30
100
AcDbLine
 10
121.2956460674155
 20
182.1278089887641
 30
0.0
 11
117.9037921348312
 21
179.6502808988764
 31
0.0
  0
LINE
  5
292
330
1F
100
AcDbEntity
  8
101
  6
Continuous
 62
     7
370
    30
100
AcDbLine
 10
117.9037921348312
 20
179.6502808988764
 30
0.0
 11
115.6032303370784
 21
177.438202247191
 31
0.0
  0
LINE
  5
293
330
1F
100
AcDbEntity
  8
101
  6
Continuous
 62
     7
370
    30
100
AcDbLine
 10
115.6032303370784
 20
177.438202247191
 30
0.0
 11
113.2731741573031
 21
174.4002808988764
 31
0.0
  0
LINE
  5
294
330
1F
100
AcDbEntity
  8
101
  6
Continuous
 62
     7
370
    30
100
AcDbLine
 10
113.2731741573031
 20
174.4002808988764
 30
0.0
 11
112.1228932584267
 21
172.0997191011236
 31
0.0
  0
LINE
  5
295
330
1F
100
AcDbEntity
  8
101
  6
Continuous
 62
     7
370
    30
100
AcDbLine
 10
112.1228932584267
 20
172.0997191011236
 30
0.0
 11
110.8546348314604
 21
169.4452247191011
 31
0.0
  0
LINE
  5
296
330
1F
100
AcDbEntity
  8
101
  6
Continuous
 62
     7
370
    30
100
AcDbLine
 10
110.8546348314604
 20
169.4452247191011
 30
0.0
 11
103.6874999999999
 21
152.5449438202246
 31
0.0
  0
LINE
  5
297
330
1F
100
AcDbEntity
  8
101
  6
Continuous
 62
     7
370
    30
100
AcDbLine
 10
197.3616573033706
 20
141.2780898876404
 30
0.0
 11
198.0990168539324
 21
142.8412921348314
 31
0.0
  0
LINE
  5
298
330
1F
100
AcDbEntity
  8
101
  6
Continuous
 62
     7
370
    30
100
AcDbLine
 10
198.0990168539324
 20
142.8412921348314
 30
0.0
 11
199.1608146067414
 21
143.8735955056179
 31
0.0
  0
LINE
  5
299
330
1F
100
AcDbEntity
  8
101
  6
Continuous
 62
     7
370
    30
100
AcDbLine
 10
199.1608146067414
 20
143.8735955056179
 30
0.0
 11
200.2521067415729
 21
144.3455056179775
 31
0.0
  0
LINE
  5
29A
330
1F
100
AcDbEntity
  8
101
  6
Continuous
 62
     7
370
    30
100
AcDbLine
 10
200.2521067415729
 20
144.3455056179775
 30
0.0
 11
202.8771067415729
 21
144.3455056179775
 31
0.0
  0
LINE
  5
29B
330
1F
100
AcDbEntity
  8
101
  6
Continuous
 62
     7
370
    30
100
AcDbLine
 10
202.8771067415729
 20
144.3455056179775
 30
0.0
 11
205.384129213483
 21
144.3455056179775
 31
0.0
  0
LINE
  5
29C
330
1F
100
AcDbEntity
  8
101
  6
Continuous
 62
     7
370
    30
100
AcDbLine
 10
206.4164325842695
 20
143.755617977528
 30
0.0
 11
207.6551966292133
 21
142.3398876404494
 31
0.0
  0
LINE
  5
29D
330
1F
100
AcDbEntity
  8
101
  6
Continuous
 62
     7
370
    30
100
AcDbLine
 10
207.6551966292133
 20
142.3398876404494
 30
0.0
 11
208.3925561797751
 21
139.9508426966291
 31
0.0
  0
LINE
  5
29E
330
1F
100
AcDbEntity
  8
101
  6
Continuous
 62
     7
370
    30
100
AcDbLine
 10
208.3925561797751
 20
139.9508426966291
 30
0.0
 11
208.8644662921347
 21
137.7682584269662
 31
0.0
  0
LINE
  5
29F
330
1F
100
AcDbEntity
  8
101
  6
Continuous
 62
     7
370
    30
100
AcDbLine
 10
208.8644662921347
 20
137.7682584269662
 30
0.0
 11
208.8054775280897
 21
135.7331460674157
 31
0.0
  0
LINE
  5
2A0
330
1F
100
AcDbEntity
  8
101
  6
Continuous
 62
     7
370
    30
100
AcDbLine
 10
208.8054775280897
 20
135.7331460674157
 30
0.0
 11
208.6874999999999
 21
133.9634831460674
 31
0.0
  0
LINE
  5
2A1
330
1F
100
AcDbEntity
  8
101
  6
Continuous
 62
     7
370
    30
100
AcDbLine
 10
208.6874999999999
 20
133.9634831460674
 30
0.0
 11
207.9501404494381
 21
132.3412921348314
 31
0.0
  0
LINE
  5
2A2
330
1F
100
AcDbEntity
  8
101
  6
Continuous
 62
     7
370
    30
100
AcDbLine
 10
207.9501404494381
 20
132.3412921348314
 30
0.0
 11
207.1832865168538
 21
131.0435393258427
 31
0.0
  0
LINE
  5
2A3
330
1F
100
AcDbEntity
  8
101
  6
Continuous
 62
     7
370
    30
100
AcDbLine
 10
207.1832865168538
 20
131.0435393258427
 30
0.0
 11
205.7970505617976
 21
130.2176966292134
 31
0.0
  0
LINE
  5
2A4
330
1F
100
AcDbEntity
  8
101
  6
Continuous
 62
     7
370
    30
100
AcDbLine
 10
204.7647471910111
 20
129.9227528089887
 30
0.0
 11
200.7240168539325
 21
129.8342696629213
 31
0.0
  0
LINE
  5
2A5
330
1F
100
AcDbEntity
  8
101
  6
Continuous
 62
     7
370
    30
100
AcDbLine
 10
200.7240168539325
 20
129.8342696629213
 30
0.0
 11
199.5442415730336
 21
130.188202247191
 31
0.0
  0
LINE
  5
2A6
330
1F
100
AcDbEntity
  8
101
  6
Continuous
 62
     7
370
    30
100
AcDbLine
 10
199.5442415730336
 20
130.188202247191
 30
0.0
 11
198.8363764044942
 21
130.7191011235955
 31
0.0
  0
LINE
  5
2A7
330
1F
100
AcDbEntity
  8
101
  6
Continuous
 62
     7
370
    30
100
AcDbLine
 10
198.8363764044942
 20
130.7191011235955
 30
0.0
 11
198.3644662921347
 21
131.3974719101123
 31
0.0
  0
LINE
  5
2A8
330
1F
100
AcDbEntity
  8
101
  6
Continuous
 62
     7
370
    30
100
AcDbLine
 10
198.3644662921347
 20
131.3974719101123
 30
0.0
 11
197.8929864027635
 21
132.1971655793351
 31
0.0
  0
LINE
  5
2A9
330
1F
100
AcDbEntity
  8
101
  6
Continuous
 62
     7
370
    30
100
AcDbLine
 10
198.3944891808454
 20
132.1953872006895
 30
0.0
 11
199.3672752808987
 21
131.4564606741573
 31
0.0
  0
LINE
  5
2AA
330
1F
100
AcDbEntity
  8
101
  6
Continuous
 62
     7
370
    30
100
AcDbLine
 10
199.3672752808987
 20
131.4564606741573
 30
0.0
 11
200.2816011235954
 21
131.5449438202247
 31
0.0
  0
LINE
  5
2AB
330
1F
100
AcDbEntity
  8
101
  6
Continuous
 62
     7
370
    30
100
AcDbLine
 10
200.2816011235954
 20
131.5449438202247
 30
0.0
 11
200.9304775280897
 21
132.0758426966292
 31
0.0
  0
LINE
  5
2AC
330
1F
100
AcDbEntity
  8
101
  6
Continuous
 62
     7
370
    30
100
AcDbLine
 10
200.9304775280897
 20
132.0758426966292
 30
0.0
 11
201.6088483146066
 21
132.8721910112359
 31
0.0
  0
LINE
  5
2AD
330
1F
100
AcDbEntity
  8
101
  6
Continuous
 62
     7
370
    30
100
AcDbLine
 10
201.6088483146066
 20
132.8721910112359
 30
0.0
 11
202.2872191011234
 21
134.4943820224719
 31
0.0
  0
LINE
  5
2AE
330
1F
100
AcDbEntity
  8
101
  6
Continuous
 62
     7
370
    30
100
AcDbLine
 10
202.2872191011234
 20
134.4943820224719
 30
0.0
 11
202.4051966292133
 21
135.9101123595505
 31
0.0
  0
LINE
  5
2AF
330
1F
100
AcDbEntity
  8
101
  6
Continuous
 62
     7
370
    30
100
AcDbLine
 10
202.4051966292133
 20
135.9101123595505
 30
0.0
 11
202.1397471910111
 21
137.6797752808988
 31
0.0
  0
LINE
  5
2B0
330
1F
100
AcDbEntity
  8
101
  6
Continuous
 62
     7
370
    30
100
AcDbLine
 10
202.1397471910111
 20
137.6797752808988
 30
0.0
 11
201.8153089887639
 21
139.9213483146067
 31
0.0
  0
LINE
  5
2B1
330
1F
100
AcDbEntity
  8
101
  6
Continuous
 62
     7
370
    30
100
AcDbLine
 10
201.8153089887639
 20
139.9213483146067
 30
0.0
 11
201.2254213483145
 21
140.9831460674157
 31
0.0
  0
LINE
  5
2B2
330
1F
100
AcDbEntity
  8
101
  6
Continuous
 62
     7
370
    30
100
AcDbLine
 10
201.2254213483145
 20
140.9831460674157
 30
0.0
 11
200.6060393258425
 21
141.6025280898876
 31
0.0
  0
LINE
  5
2B3
330
1F
100
AcDbEntity
  8
101
  6
Continuous
 62
     7
370
    30
100
AcDbLine
 10
200.6060393258425
 20
141.6025280898876
 30
0.0
 11
199.573735955056
 21
141.9269662921348
 31
0.0
  0
LINE
  5
2B4
330
1F
100
AcDbEntity
  8
101
  6
Continuous
 62
     7
370
    30
100
AcDbLine
 10
199.573735955056
 20
141.9269662921348
 30
0.0
 11
198.8363764044942
 21
141.9564606741573
 31
0.0
  0
LINE
  5
2B5
330
1F
100
AcDbEntity
  8
101
  6
Continuous
 62
     7
370
    30
100
AcDbLine
 10
198.8363764044942
 20
141.9564606741573
 30
0.0
 11
197.9810393258425
 21
141.2780898876404
 31
0.0
  0
LINE
  5
2B6
330
1F
100
AcDbEntity
  8
101
  6
Continuous
 62
     7
370
    30
100
AcDbLine
 10
197.8793549959753
 20
142.3756089959623
 30
0.0
 11
198.8363764044942
 21
142.9887640449438
 31
0.0
  0
LINE
  5
2B7
330
1F
100
AcDbEntity
  8
101
  6
Continuous
 62
     7
370
    30
100
AcDbLine
 10
198.8363764044942
 20
142.9887640449438
 30
0.0
 11
200.2226123595504
 21
143.254213483146
 31
0.0
  0
LINE
  5
2B8
330
1F
100
AcDbEntity
  8
101
  6
Continuous
 62
     7
370
    30
100
AcDbLine
 10
200.2226123595504
 20
143.254213483146
 30
0.0
 11
201.1664325842695
 21
142.6348314606741
 31
0.0
  0
LINE
  5
2B9
330
1F
100
AcDbEntity
  8
101
  6
Continuous
 62
     7
370
    30
100
AcDbLine
 10
201.1664325842695
 20
142.6348314606741
 30
0.0
 11
202.0217696629212
 21
141.7499999999999
 31
0.0
  0
LINE
  5
2BA
330
1F
100
AcDbEntity
  8
101
  6
Continuous
 62
     7
370
    30
100
AcDbLine
 10
202.0217696629212
 20
141.7499999999999
 30
0.0
 11
202.759129213483
 21
140.7471910112359
 31
0.0
  0
LINE
  5
2BB
330
1F
100
AcDbEntity
  8
101
  6
Continuous
 62
     7
370
    30
100
AcDbLine
 10
202.759129213483
 20
140.7471910112359
 30
0.0
 11
202.9950842696628
 21
139.4494382022471
 31
0.0
  0
LINE
  5
2BC
330
1F
100
AcDbEntity
  8
101
  6
Continuous
 62
     7
370
    30
100
AcDbLine
 10
202.9950842696628
 20
139.4494382022471
 30
0.0
 11
203.3785112359549
 21
137.7092696629213
 31
0.0
  0
LINE
  5
2BD
330
1F
100
AcDbEntity
  8
101
  6
Continuous
 62
     7
370
    30
100
AcDbLine
 10
203.3785112359549
 20
137.7092696629213
 30
0.0
 11
203.3195224719099
 21
135.7036516853932
 31
0.0
  0
LINE
  5
2BE
330
1F
100
AcDbEntity
  8
101
  6
Continuous
 62
     7
370
    30
100
AcDbLine
 10
203.3195224719099
 20
135.7036516853932
 30
0.0
 11
203.1720505617976
 21
134.1994382022471
 31
0.0
  0
LINE
  5
2BF
330
1F
100
AcDbEntity
  8
101
  6
Continuous
 62
     7
370
    30
100
AcDbLine
 10
203.1720505617976
 20
134.1994382022471
 30
0.0
 11
202.8476123595504
 21
133.0491573033707
 31
0.0
  0
LINE
  5
2C0
330
1F
100
AcDbEntity
  8
101
  6
Continuous
 62
     7
370
    30
100
AcDbLine
 10
202.8476123595504
 20
133.0491573033707
 30
0.0
 11
202.4051966292133
 21
132.3117977528089
 31
0.0
  0
LINE
  5
2C1
330
1F
100
AcDbEntity
  8
101
  6
Continuous
 62
     7
370
    30
100
AcDbLine
 10
202.4051966292133
 20
132.3117977528089
 30
0.0
 11
201.7563202247189
 21
131.3089887640449
 31
0.0
  0
LINE
  5
2C2
330
1F
100
AcDbEntity
  8
101
  6
Continuous
 62
     7
370
    30
100
AcDbLine
 10
201.7563202247189
 20
131.3089887640449
 30
0.0
 11
201.0779494382021
 21
130.8370786516853
 31
0.0
  0
LINE
  5
2C3
330
1F
100
AcDbEntity
  8
101
  6
Continuous
 62
     7
370
    30
100
AcDbLine
 10
201.0779494382021
 20
130.8370786516853
 30
0.0
 11
200.0456460674156
 21
130.4831460674157
 31
0.0
  0
LINE
  5
2C4
330
1F
100
AcDbEntity
  8
101
  6
Continuous
 62
     7
370
    30
100
AcDbLine
 10
200.0456460674156
 20
130.4831460674157
 30
0.0
 11
199.1667134831459
 21
130.4713483146067
 31
0.0
  0
LINE
  5
2C5
330
1F
100
AcDbEntity
  8
101
  6
Continuous
 62
     7
370
    30
100
AcDbLine
 10
203.4080056179772
 20
129.627808988764
 30
0.0
 11
204.5287921348311
 21
128.3005617977527
 31
0.0
  0
LINE
  5
2C6
330
1F
100
AcDbEntity
  8
101
  6
Continuous
 62
     7
370
    30
100
AcDbLine
 10
204.5287921348311
 20
128.3005617977527
 30
0.0
 11
205.6495786516851
 21
126.6488764044943
 31
0.0
  0
LINE
  5
2C7
330
1F
100
AcDbEntity
  8
101
  6
Continuous
 62
     7
370
    30
100
AcDbLine
 10
205.6495786516851
 20
126.6488764044943
 30
0.0
 11
207.9796348314604
 21
124.9087078651685
 31
0.0
  0
LINE
  5
2C8
330
1F
100
AcDbEntity
  8
101
  6
Continuous
 62
     7
370
    30
100
AcDbLine
 10
207.9796348314604
 20
124.9087078651685
 30
0.0
 11
210.1032303370784
 21
123.4339887640449
 31
0.0
  0
LINE
  5
2C9
330
1F
100
AcDbEntity
  8
101
  6
Continuous
 62
     7
370
    30
100
AcDbLine
 10
210.1032303370784
 20
123.4339887640449
 30
0.0
 11
213.0231741573031
 21
122.4016853932584
 31
0.0
  0
LINE
  5
2CA
330
1F
100
AcDbEntity
  8
101
  6
Continuous
 62
     7
370
    30
100
AcDbLine
 10
213.0231741573031
 20
122.4016853932584
 30
0.0
 11
215.8841292134829
 21
121.8707865168538
 31
0.0
  0
LINE
  5
2CB
330
1F
100
AcDbEntity
  8
101
  6
Continuous
 62
     7
370
    30
100
AcDbLine
 10
215.8841292134829
 20
121.8707865168538
 30
0.0
 11
218.0962078651683
 21
121.6643258426965
 31
0.0
  0
LINE
  5
2CC
330
1F
100
AcDbEntity
  8
101
  6
Continuous
 62
     7
370
    30
100
AcDbLine
 10
218.0962078651683
 20
121.6643258426965
 30
0.0
 11
220.2787921348312
 21
121.7823033707864
 31
0.0
  0
LINE
  5
2CD
330
1F
100
AcDbEntity
  8
101
  6
Continuous
 62
     7
370
    30
100
AcDbLine
 10
210.3963899424646
 20
123.3303464793123
 30
0.0
 11
211.2240168539323
 21
121.3103932584269
 31
0.0
  0
LINE
  5
2CE
330
1F
100
AcDbEntity
  8
101
  6
Continuous
 62
     7
370
    30
100
AcDbLine
 10
211.2240168539323
 20
121.3103932584269
 30
0.0
 11
212.4037921348312
 21
119.3637640449438
 31
0.0
  0
LINE
  5
2CF
330
1F
100
AcDbEntity
  8
101
  6
Continuous
 62
     7
370
    30
100
AcDbLine
 10
212.4037921348312
 20
119.3637640449438
 30
0.0
 11
214.4094101123593
 21
117.1516853932584
 31
0.0
  0
LINE
  5
2D0
330
1F
100
AcDbEntity
  8
101
  6
Continuous
 62
     7
370
    30
100
AcDbLine
 10
214.4094101123593
 20
117.1516853932584
 30
0.0
 11
216.6509831460671
 21
115.5884831460673
 31
0.0
  0
LINE
  5
2D1
330
1F
100
AcDbEntity
  8
101
  6
Continuous
 62
     7
370
    30
100
AcDbLine
 10
216.6509831460671
 20
115.5884831460673
 30
0.0
 11
219.2759831460671
 21
114.1137640449437
 31
0.0
  0
LINE
  5
2D2
330
1F
100
AcDbEntity
  8
101
  6
Continuous
 62
     7
370
    30
100
AcDbLine
 10
219.2759831460671
 20
114.1137640449437
 30
0.0
 11
221.7535112359548
 21
113.7008426966291
 31
0.0
  0
LINE
  5
2D3
330
1F
100
AcDbEntity
  8
101
  6
Continuous
 62
     7
370
    30
100
AcDbLine
 10
221.7535112359548
 20
113.7008426966291
 30
0.0
 11
224.4374999999998
 21
114.2317415730336
 31
0.0
  0
LINE
  5
2D4
330
1F
100
AcDbEntity
  8
101
  6
Continuous
 62
     7
370
    30
100
AcDbLine
 10
224.4374999999998
 20
114.2317415730336
 30
0.0
 11
227.2099719101121
 21
115.441011235955
 31
0.0
  0
LINE
  5
2D5
330
1F
100
AcDbEntity
  8
101
  6
Continuous
 62
     7
370
    30
100
AcDbLine
 10
227.2099719101121
 20
115.441011235955
 30
0.0
 11
230.1889044943818
 21
117.6825842696628
 31
0.0
  0
LINE
  5
2D6
330
1F
100
AcDbEntity
  8
101
  6
Continuous
 62
     7
370
    30
100
AcDbLine
 10
230.1889044943818
 20
117.6825842696628
 30
0.0
 11
231.8700842696628
 21
120.2780898876404
 31
0.0
  0
LINE
  5
2D7
330
1F
100
AcDbEntity
  8
101
  6
Continuous
 62
     7
370
    30
100
AcDbLine
 10
231.8700842696628
 20
120.2780898876404
 30
0.0
 11
233.8757022471908
 21
123.6699438202247
 31
0.0
  0
LINE
  5
2D8
330
1F
100
AcDbEntity
  8
101
  6
Continuous
 62
     7
370
    30
100
AcDbLine
 10
233.8757022471908
 20
123.6699438202247
 30
0.0
 11
235.2914325842695
 21
128.8314606741573
 31
0.0
  0
LINE
  5
2D9
330
1F
100
AcDbEntity
  8
101
  6
Continuous
 62
     7
370
    30
100
AcDbLine
 10
235.2914325842695
 20
128.8314606741573
 30
0.0
 11
236.1762640449436
 21
134.0814606741573
 31
0.0
  0
LINE
  5
2DA
330
1F
100
AcDbEntity
  8
101
  6
Continuous
 62
     7
370
    30
100
AcDbLine
 10
236.1762640449436
 20
134.0814606741573
 30
0.0
 11
236.2942415730335
 21
138.623595505618
 31
0.0
  0
LINE
  5
2DB
330
1F
100
AcDbEntity
  8
101
  6
Continuous
 62
     7
370
    30
100
AcDbLine
 10
236.2942415730335
 20
138.623595505618
 30
0.0
 11
235.5863764044942
 21
143.9620786516854
 31
0.0
  0
LINE
  5
2DC
330
1F
100
AcDbEntity
  8
101
  6
Continuous
 62
     7
370
    30
100
AcDbLine
 10
235.5863764044942
 20
143.9620786516854
 30
0.0
 11
234.4360955056179
 21
149.3005617977528
 31
0.0
  0
LINE
  5
2DD
330
1F
100
AcDbEntity
  8
101
  6
Continuous
 62
     7
370
    30
100
AcDbLine
 10
234.4360955056179
 20
149.3005617977528
 30
0.0
 11
231.9290730337077
 21
154.7570224719101
 31
0.0
  0
LINE
  5
2DE
330
1F
100
AcDbEntity
  8
101
  6
Continuous
 62
     7
370
    30
100
AcDbLine
 10
231.9290730337077
 20
154.7570224719101
 30
0.0
 11
228.566713483146
 21
158.7977528089887
 31
0.0
  0
LINE
  5
2DF
330
1F
100
AcDbEntity
  8
101
  6
Continuous
 62
     7
370
    30
100
AcDbLine
 10
228.566713483146
 20
158.7977528089887
 30
0.0
 11
225.2338483146067
 21
161.3637640449438
 31
0.0
  0
LINE
  5
2E0
330
1F
100
AcDbEntity
  8
101
  6
Continuous
 62
     7
370
    30
100
AcDbLine
 10
225.2338483146067
 20
161.3637640449438
 30
0.0
 11
221.8419943820224
 21
162.3960674157303
 31
0.0
  0
LINE
  5
2E1
330
1F
100
AcDbEntity
  8
101
  6
Continuous
 62
     7
370
    30
100
AcDbLine
 10
221.8419943820224
 20
162.3960674157303
 30
0.0
 11
218.8925561797752
 21
162.3370786516853
 31
0.0
  0
LINE
  5
2E2
330
1F
100
AcDbEntity
  8
101
  6
Continuous
 62
     7
370
    30
100
AcDbLine
 10
218.8925561797752
 20
162.3370786516853
 30
0.0
 11
216.2970505617977
 21
161.629213483146
 31
0.0
  0
LINE
  5
2E3
330
1F
100
AcDbEntity
  8
101
  6
Continuous
 62
     7
370
    30
100
AcDbLine
 10
216.2970505617977
 20
161.629213483146
 30
0.0
 11
213.7310393258426
 21
160.0365168539325
 31
0.0
  0
LINE
  5
2E4
330
1F
100
AcDbEntity
  8
101
  6
Continuous
 62
     7
370
    30
100
AcDbLine
 10
213.7310393258426
 20
160.0365168539325
 30
0.0
 11
211.0765449438201
 21
156.8511235955055
 31
0.0
  0
LINE
  5
2E5
330
1F
100
AcDbEntity
  8
101
  6
Continuous
 62
     7
370
    30
100
AcDbLine
 10
211.0765449438201
 20
156.8511235955055
 30
0.0
 11
209.5428370786516
 21
154.2851123595505
 31
0.0
  0
LINE
  5
2E6
330
1F
100
AcDbEntity
  8
101
  6
Continuous
 62
     7
370
    30
100
AcDbLine
 10
209.5428370786516
 20
154.2851123595505
 30
0.0
 11
208.2450842696628
 21
150.8932584269662
 31
0.0
  0
LINE
  5
2E7
330
1F
100
AcDbEntity
  8
101
  6
Continuous
 62
     7
370
    30
100
AcDbLine
 10
217.4178370786516
 20
154.6685393258426
 30
0.0
 11
215.0877808988763
 21
154.4915730337078
 31
0.0
  0
LINE
  5
2E8
330
1F
100
AcDbEntity
  8
101
  6
Continuous
 62
     7
370
    30
100
AcDbLine
 10
215.0877808988763
 20
154.4915730337078
 30
0.0
 11
212.9641853932583
 21
153.754213483146
 31
0.0
  0
LINE
  5
2E9
330
1F
100
AcDbEntity
  8
101
  6
Continuous
 62
     7
370
    30
100
AcDbLine
 10
212.9641853932583
 20
153.754213483146
 30
0.0
 11
210.693117977528
 21
152.5449438202246
 31
0.0
  0
LINE
  5
2EA
330
1F
100
AcDbEntity
  8
101
  6
Continuous
 62
     7
370
    30
100
AcDbLine
 10
210.693117977528
 20
152.5449438202246
 30
0.0
 11
208.2450842696628
 21
150.8932584269662
 31
0.0
  0
LINE
  5
2EB
330
1F
100
AcDbEntity
  8
101
  6
Continuous
 62
     7
370
    30
100
AcDbLine
 10
208.2450842696628
 20
150.8932584269662
 30
0.0
 11
206.0330056179775
 21
149.3595505617977
 31
0.0
  0
LINE
  5
2EC
330
1F
100
AcDbEntity
  8
101
  6
Continuous
 62
     7
370
    30
100
AcDbLine
 10
206.0330056179775
 20
149.3595505617977
 30
0.0
 11
204.5287921348314
 21
147.8848314606741
 31
0.0
  0
LINE
  5
2ED
330
1F
100
AcDbEntity
  8
101
  6
Continuous
 62
     7
370
    30
100
AcDbLine
 10
204.5287921348314
 20
147.8848314606741
 30
0.0
 11
203.3195224719101
 21
145.938202247191
 31
0.0
  0
LINE
  5
2EE
330
1F
100
AcDbEntity
  8
101
  6
Continuous
 62
     7
370
    30
100
AcDbLine
 10
203.3195224719101
 20
145.938202247191
 30
0.0
 11
202.5821629213483
 21
144.3455056179775
 31
0.0
  0
LINE
  5
2EF
330
1F
100
AcDbEntity
  8
101
  6
Continuous
 62
     7
370
    30
100
AcDbLine
 10
219.8953651685393
 20
154.314606741573
 30
0.0
 11
222.2844101123596
 21
153.252808988764
 31
0.0
  0
LINE
  5
2F0
330
1F
100
AcDbEntity
  8
101
  6
Continuous
 62
     7
370
    30
100
AcDbLine
 10
222.2844101123596
 20
153.252808988764
 30
0.0
 11
223.936095505618
 21
151.6601123595505
 31
0.0
  0
LINE
  5
2F1
330
1F
100
AcDbEntity
  8
101
  6
Continuous
 62
     7
370
    30
100
AcDbLine
 10
223.936095505618
 20
151.6601123595505
 30
0.0
 11
225.0863764044944
 21
150.067415730337
 31
0.0
  0
LINE
  5
2F2
330
1F
100
AcDbEntity
  8
101
  6
Continuous
 62
     7
370
    30
100
AcDbLine
 10
225.0863764044944
 20
150.067415730337
 30
0.0
 11
226.5905898876404
 21
147.2359550561797
 31
0.0
  0
LINE
  5
2F3
330
1F
100
AcDbEntity
  8
101
  6
Continuous
 62
     7
370
    30
100
AcDbLine
 10
226.5905898876404
 20
147.2359550561797
 30
0.0
 11
228.006320224719
 21
141.9564606741572
 31
0.0
  0
LINE
  5
2F4
330
1F
100
AcDbEntity
  8
101
  6
Continuous
 62
     7
370
    30
100
AcDbLine
 10
228.006320224719
 20
141.9564606741572
 30
0.0
 11
228.2127808988764
 21
138.2401685393257
 31
0.0
  0
LINE
  5
2F5
330
1F
100
AcDbEntity
  8
101
  6
Continuous
 62
     7
370
    30
100
AcDbLine
 10
228.2127808988764
 20
138.2401685393257
 30
0.0
 11
228.1537921348314
 21
133.1376404494381
 31
0.0
  0
LINE
  5
2F6
330
1F
100
AcDbEntity
  8
101
  6
Continuous
 62
     7
370
    30
100
AcDbLine
 10
228.1537921348314
 20
133.1376404494381
 30
0.0
 11
227.5344101123595
 21
129.7162921348314
 31
0.0
  0
LINE
  5
2F7
330
1F
100
AcDbEntity
  8
101
  6
Continuous
 62
     7
370
    30
100
AcDbLine
 10
227.5344101123595
 20
129.7162921348314
 30
0.0
 11
226.0891853932584
 21
126.5603932584269
 31
0.0
  0
LINE
  5
2F8
330
1F
100
AcDbEntity
  8
101
  6
Continuous
 62
     7
370
    30
100
AcDbLine
 10
226.0891853932584
 20
126.5603932584269
 30
0.0
 11
225.0863764044943
 21
125.439606741573
 31
0.0
  0
LINE
  5
2F9
330
1F
100
AcDbEntity
  8
101
  6
Continuous
 62
     7
370
    30
100
AcDbLine
 10
225.0863764044943
 20
125.439606741573
 30
0.0
 11
224.1425561797752
 21
123.8469101123595
 31
0.0
  0
LINE
  5
2FA
330
1F
100
AcDbEntity
  8
101
  6
Continuous
 62
     7
370
    30
100
AcDbLine
 10
224.1425561797752
 20
123.8469101123595
 30
0.0
 11
222.6088483146067
 21
122.4016853932584
 31
0.0
  0
LINE
  5
2FB
330
1F
100
AcDbEntity
  8
101
  6
Continuous
 62
     7
370
    30
100
AcDbLine
 10
222.6088483146067
 20
122.4016853932584
 30
0.0
 11
221.6650280898876
 21
122.0772471910112
 31
0.0
  0
LINE
  5
2FC
330
1F
100
AcDbEntity
  8
101
  6
Continuous
 62
     7
370
    30
100
AcDbLine
 10
219.0105337078652
 20
115.4705056179775
 30
0.0
 11
220.3672752808989
 21
115.0575842696629
 31
0.0
  0
LINE
  5
2FD
330
1F
100
AcDbEntity
  8
101
  6
Continuous
 62
     7
370
    30
100
AcDbLine
 10
220.3672752808989
 20
115.0575842696629
 30
0.0
 11
222.4613764044944
 21
115.3230337078651
 31
0.0
  0
LINE
  5
2FE
330
1F
100
AcDbEntity
  8
101
  6
Continuous
 62
     7
370
    30
100
AcDbLine
 10
222.4613764044944
 20
115.3230337078651
 30
0.0
 11
224.4964887640449
 21
116.0308988764044
 31
0.0
  0
LINE
  5
2FF
330
1F
100
AcDbEntity
  8
101
  6
Continuous
 62
     7
370
    30
100
AcDbLine
 10
224.4964887640449
 20
116.0308988764044
 30
0.0
 11
226.6790730337079
 21
117.1811797752808
 31
0.0
  0
LINE
  5
300
330
1F
100
AcDbEntity
  8
101
  6
Continuous
 62
     7
370
    30
100
AcDbLine
 10
226.6790730337079
 20
117.1811797752808
 30
0.0
 11
228.7731741573034
 21
118.626404494382
 31
0.0
  0
LINE
  5
301
330
1F
100
AcDbEntity
  8
101
  6
Continuous
 62
     7
370
    30
100
AcDbLine
 10
228.7731741573034
 20
118.626404494382
 30
0.0
 11
230.8967696629213
 21
121.6643258426966
 31
0.0
  0
LINE
  5
302
330
1F
100
AcDbEntity
  8
101
  6
Continuous
 62
     7
370
    30
100
AcDbLine
 10
230.8967696629213
 20
121.6643258426966
 30
0.0
 11
232.4894662921349
 21
125.1446629213483
 31
0.0
  0
LINE
  5
303
330
1F
100
AcDbEntity
  8
101
  6
Continuous
 62
     7
370
    30
100
AcDbLine
 10
232.4894662921349
 20
125.1446629213483
 30
0.0
 11
233.8167134831461
 21
129.0969101123595
 31
0.0
  0
LINE
  5
304
330
1F
100
AcDbEntity
  8
101
  6
Continuous
 62
     7
370
    30
100
AcDbLine
 10
233.8167134831461
 20
129.0969101123595
 30
0.0
 11
234.2001404494383
 21
133.1671348314606
 31
0.0
  0
LINE
  5
305
330
1F
100
AcDbEntity
  8
101
  6
Continuous
 62
     7
370
    30
100
AcDbLine
 10
234.2001404494383
 20
133.1671348314606
 30
0.0
 11
234.4655898876405
 21
138.6235955056179
 31
0.0
  0
LINE
  5
306
330
1F
100
AcDbEntity
  8
101
  6
Continuous
 62
     7
370
    30
100
AcDbLine
 10
234.4655898876405
 20
138.6235955056179
 30
0.0
 11
234.1706460674158
 21
143.3721910112359
 31
0.0
  0
LINE
  5
307
330
1F
100
AcDbEntity
  8
101
  6
Continuous
 62
     7
370
    30
100
AcDbLine
 10
234.1706460674158
 20
143.3721910112359
 30
0.0
 11
233.2858146067417
 21
147.7668539325842
 31
0.0
  0
LINE
  5
308
330
1F
100
AcDbEntity
  8
101
  6
Continuous
 62
     7
370
    30
100
AcDbLine
 10
233.2858146067417
 20
147.7668539325842
 30
0.0
 11
231.309691011236
 21
152.4269662921348
 31
0.0
  0
LINE
  5
309
330
1F
100
AcDbEntity
  8
101
  6
Continuous
 62
     7
370
    30
100
AcDbLine
 10
231.309691011236
 20
152.4269662921348
 30
0.0
 11
229.6580056179775
 21
155.4648876404494
 31
0.0
  0
LINE
  5
30A
330
1F
100
AcDbEntity
  8
101
  6
Continuous
 62
     7
370
    30
100
AcDbLine
 10
229.6580056179775
 20
155.4648876404494
 30
0.0
 11
226.502106741573
 21
158.8272471910112
 31
0.0
  0
LINE
  5
30B
330
1F
100
AcDbEntity
  8
101
  6
Continuous
 62
     7
370
    30
100
AcDbLine
 10
226.502106741573
 20
158.8272471910112
 30
0.0
 11
224.6144662921348
 21
160.3609550561797
 31
0.0
  0
LINE
  5
30C
330
1F
100
AcDbEntity
  8
101
  6
Continuous
 62
     7
370
    30
100
AcDbLine
 10
226.2808988764044
 20
154.5948033707865
 30
0.0
 11
225.8679775280898
 21
154.4178370786516
 31
0.0
  0
LINE
  5
30D
330
1F
100
AcDbEntity
  8
101
  6
Continuous
 62
     7
370
    30
100
AcDbLine
 10
225.8679775280898
 20
154.4178370786516
 30
0.0
 11
225.5730337078651
 21
153.9164325842696
 31
0.0
  0
LINE
  5
30E
330
1F
100
AcDbEntity
  8
101
  6
Continuous
 62
     7
370
    30
100
AcDbLine
 10
225.5730337078651
 20
153.9164325842696
 30
0.0
 11
225.3665730337078
 21
153.4002808988763
 31
0.0
  0
LINE
  5
30F
330
1F
100
AcDbEntity
  8
101
  6
Continuous
 62
     7
370
    30
100
AcDbLine
 10
225.3665730337078
 20
153.4002808988763
 30
0.0
 11
225.4845505617977
 21
152.8251404494381
 31
0.0
  0
LINE
  5
310
330
1F
100
AcDbEntity
  8
101
  6
Continuous
 62
     7
370
    30
100
AcDbLine
 10
225.4845505617977
 20
152.8251404494381
 30
0.0
 11
225.8532303370786
 21
152.3974719101123
 31
0.0
  0
LINE
  5
311
330
1F
100
AcDbEntity
  8
101
  6
Continuous
 62
     7
370
    30
100
AcDbLine
 10
225.8532303370786
 20
152.3974719101123
 30
0.0
 11
226.3693820224719
 21
152.1762640449438
 31
0.0
  0
LINE
  5
312
330
1F
100
AcDbEntity
  8
101
  6
Continuous
 62
     7
370
    30
100
AcDbLine
 10
226.3693820224719
 20
152.1762640449438
 30
0.0
 11
226.9150280898876
 21
152.1762640449438
 31
0.0
  0
LINE
  5
313
330
1F
100
AcDbEntity
  8
101
  6
Continuous
 62
     7
370
    30
100
AcDbLine
 10
226.9150280898876
 20
152.1762640449438
 30
0.0
 11
227.2247191011235
 21
152.4712078651685
 31
0.0
  0
LINE
  5
314
330
1F
100
AcDbEntity
  8
101
  6
Continuous
 62
     7
370
    30
100
AcDbLine
 10
227.2247191011235
 20
152.4712078651685
 30
0.0
 11
227.2984550561797
 21
153.193820224719
 31
0.0
  0
LINE
  5
315
330
1F
100
AcDbEntity
  8
101
  6
Continuous
 62
     7
370
    30
100
AcDbLine
 10
227.2984550561797
 20
153.193820224719
 30
0.0
 11
227.1067415730336
 21
153.8869382022471
 31
0.0
  0
LINE
  5
316
330
1F
100
AcDbEntity
  8
101
  6
Continuous
 62
     7
370
    30
100
AcDbLine
 10
227.1067415730336
 20
153.8869382022471
 30
0.0
 11
226.9002808988763
 21
154.3588483146067
 31
0.0
  0
LINE
  5
317
330
1F
100
AcDbEntity
  8
101
  6
Continuous
 62
     7
370
    30
100
AcDbLine
 10
226.9002808988763
 20
154.3588483146067
 30
0.0
 11
226.2808988764044
 21
154.5948033707865
 31
0.0
  0
LINE
  5
318
330
1F
100
AcDbEntity
  8
101
  6
Continuous
 62
     7
370
    30
100
AcDbLine
 10
226.1402920379697
 20
154.5345432971716
 30
0.0
 11
225.9122191011235
 21
153.9311797752808
 31
0.0
  0
LINE
  5
319
330
1F
100
AcDbEntity
  8
101
  6
Continuous
 62
     7
370
    30
100
AcDbLine
 10
225.9122191011235
 20
153.9311797752808
 30
0.0
 11
225.9122191011235
 21
153.3707865168539
 31
0.0
  0
LINE
  5
31A
330
1F
100
AcDbEntity
  8
101
  6
Continuous
 62
     7
370
    30
100
AcDbLine
 10
225.9122191011235
 20
153.3707865168539
 30
0.0
 11
225.9269662921348
 21
152.8103932584269
 31
0.0
  0
LINE
  5
31B
330
1F
100
AcDbEntity
  8
101
  6
Continuous
 62
     7
370
    30
100
AcDbLine
 10
225.9269662921348
 20
152.8103932584269
 30
0.0
 11
226.0347733436652
 21
152.3196677644324
 31
0.0
  0
LINE
  5
31C
330
1F
100
AcDbEntity
  8
101
  6
Continuous
 62
     7
370
    30
100
AcDbLine
 10
228.1095505617976
 20
123.1095505617976
 30
0.0
 11
227.195224719101
 21
123.4929775280897
 31
0.0
  0
LINE
  5
31D
330
1F
100
AcDbEntity
  8
101
  6
Continuous
 62
     7
370
    30
100
AcDbLine
 10
227.195224719101
 20
123.4929775280897
 30
0.0
 11
227.195224719101
 21
124.4957865168538
 31
0.0
  0
LINE
  5
31E
330
1F
100
AcDbEntity
  8
101
  6
Continuous
 62
     7
370
    30
100
AcDbLine
 10
227.195224719101
 20
124.4957865168538
 30
0.0
 11
227.195224719101
 21
125.1741573033706
 31
0.0
  0
LINE
  5
31F
330
1F
100
AcDbEntity
  8
101
  6
Continuous
 62
     7
370
    30
100
AcDbLine
 10
227.195224719101
 20
125.1741573033706
 30
0.0
 11
227.7556179775279
 21
125.6460674157302
 31
0.0
  0
LINE
  5
320
330
1F
100
AcDbEntity
  8
101
  6
Continuous
 62
     7
370
    30
100
AcDbLine
 10
227.7556179775279
 20
125.6460674157302
 30
0.0
 11
228.3749999999998
 21
125.7640449438201
 31
0.0
  0
LINE
  5
321
330
1F
100
AcDbEntity
  8
101
  6
Continuous
 62
     7
370
    30
100
AcDbLine
 10
228.3749999999998
 20
125.7640449438201
 30
0.0
 11
229.1418539325841
 21
125.5280898876403
 31
0.0
  0
LINE
  5
322
330
1F
100
AcDbEntity
  8
101
  6
Continuous
 62
     7
370
    30
100
AcDbLine
 10
229.1418539325841
 20
125.5280898876403
 30
0.0
 11
229.1713483146066
 21
124.6432584269661
 31
0.0
  0
LINE
  5
323
330
1F
100
AcDbEntity
  8
101
  6
Continuous
 62
     7
370
    30
100
AcDbLine
 10
229.1713483146066
 20
124.6432584269661
 30
0.0
 11
229.0828651685392
 21
124.0533707865167
 31
0.0
  0
LINE
  5
324
330
1F
100
AcDbEntity
  8
101
  6
Continuous
 62
     7
370
    30
100
AcDbLine
 10
229.0828651685392
 20
124.0533707865167
 30
0.0
 11
228.7879213483145
 21
123.4929775280897
 31
0.0
  0
LINE
  5
325
330
1F
100
AcDbEntity
  8
101
  6
Continuous
 62
     7
370
    30
100
AcDbLine
 10
228.7879213483145
 20
123.4929775280897
 30
0.0
 11
228.1095505617976
 21
123.1095505617976
 31
0.0
  0
LINE
  5
326
330
1F
100
AcDbEntity
  8
101
  6
Continuous
 62
     7
370
    30
100
AcDbLine
 10
228.1095505617976
 20
123.1095505617976
 30
0.0
 11
227.637640449438
 21
123.758426966292
 31
0.0
  0
LINE
  5
327
330
1F
100
AcDbEntity
  8
101
  6
Continuous
 62
     7
370
    30
100
AcDbLine
 10
227.637640449438
 20
123.758426966292
 30
0.0
 11
227.637640449438
 21
124.5547752808987
 31
0.0
  0
LINE
  5
328
330
1F
100
AcDbEntity
  8
101
  6
Continuous
 62
     7
370
    30
100
AcDbLine
 10
227.637640449438
 20
124.5547752808987
 30
0.0
 11
227.7851123595504
 21
125.2626404494381
 31
0.0
  0
LINE
  5
329
330
1F
100
AcDbEntity
  8
101
  6
Continuous
 62
     7
370
    30
100
AcDbLine
 10
227.7851123595504
 20
125.2626404494381
 30
0.0
 11
228.1378187003662
 21
125.7188675534137
 31
0.0
  0
MTEXT
  5
32A
330
1F
100
AcDbEntity
  8
100
  6
Continuous
 62
     7
370
     9
100
AcDbMText
 10
17.83196807551437
 20
-56.13688885182199
 30
0.0
 40
25.0
 41
293.4182016041797
 46
25.0
 71
     7
 72
     1
  1
{\fＭＳ ゴシック;\W0.714286;松本船舶電機製作所}
 73
     1
 44
1.0
  0
MTEXT
  5
32B
330
1F
100
AcDbEntity
  8
1
  6
DOT
 62
     7
370
     9
100
AcDbMText
 10
45.01630604177456
 20
235.8187447280666
 30
0.0
 40
25.0
 41
217.5698899897461
 46
25.0
 71
     7
 72
     1
  1
{\fＭＳ ゴシック;\W0.714286;[白熱ランプ付]}
 73
     1
 44
1.0
  0
MTEXT
  5
32C
330
1F
100
AcDbEntity
  8
100
  6
Continuous
 62
     7
370
     9
100
AcDbMText
 10
-2.821927136534242
 20
266.5894551104603
 30
0.0
 40
25.0
 41
385.5178260125672
 46
25.0
 71
     7
 72
     1
  1
{\fＭＳ ゴシック;\W0.714286;２号アクアライトゴールド}
 73
     1
 44
1.0
  0
MTEXT
  5
32D
330
1F
100
AcDbEntity
  8
1
  6
DOT
 62
     7
370
     9
100
AcDbMText
 10
64.37236664783515
 20
298.9840269923337
 30
0.0
 40
25.0
 41
119.9335944819307
 46
25.0
 71
     7
 72
     1
  1
{\fＭＳ ゴシック;\W0.714286;（2-AQ-G）}
 73
     1
 44
1.0
  0
ENDSEC
  0
SECTION
  2
OBJECTS
  0
DICTIONARY
  5
C
330
0
100
AcDbDictionary
281
     1
  3
ACAD_DETAILVIEWSTYLE
350
335
  3
ACAD_GROUP
350
D
  3
ACAD_LAYOUT
350
1A
  3
ACAD_MATERIAL
350
43
  3
ACAD_MLEADERSTYLE
350
6B
  3
ACAD_MLINESTYLE
350
17
  3
ACAD_PLOTSETTINGS
350
19
  3
ACAD_PLOTSTYLENAME
350
E
  3
ACAD_SCALELIST
350
47
  3
ACAD_SECTIONVIEWSTYLE
350
336
  3
ACAD_TABLESTYLE
350
69
  3
ACAD_VISUALSTYLE
350
2A
  3
ACDB_RECOMPOSE_DATA
350
332
  3
AcDbVariableDictionary
350
32E
  0
SUN
  5
6D
330
29
100
AcDbSun
 90
        1
290
     0
 63
     7
421
 16777215
 40
1.0
291
     1
 91
  2455826
 92
 54000000
292
     0
 70
     2
 71
   256
280
     1
  0
DICTIONARY
  5
335
102
{ACAD_REACTORS
330
C
102
}
330
C
100
AcDbDictionary
281
     1
  0
DICTIONARY
  5
D
102
{ACAD_REACTORS
330
C
102
}
330
C
100
AcDbDictionary
281
     1
  0
DICTIONARY
  5
1A
102
{ACAD_REACTORS
330
C
102
}
330
C
100
AcDbDictionary
281
     1
  3
Layout1
350
1E
  3
Layout2
350
26
  3
Model
350
22
  0
DICTIONARY
  5
43
102
{ACAD_REACTORS
330
C
102
}
330
C
100
AcDbDictionary
281
     1
  3
ByBlock
350
45
  3
ByLayer
350
44
  3
Global
350
46
  0
DICTIONARY
  5
6B
102
{ACAD_REACTORS
330
C
102
}
330
C
100
AcDbDictionary
281
     1
  3
Standard
350
6C
  0
DICTIONARY
  5
17
102
{ACAD_REACTORS
330
C
102
}
330
C
100
AcDbDictionary
281
     1
  3
Standard
350
18
  0
DICTIONARY
  5
19
102
{ACAD_REACTORS
330
C
102
}
330
C
100
AcDbDictionary
281
     1
  0
ACDBDICTIONARYWDFLT
  5
E
102
{ACAD_REACTORS
330
C
102
}
330
C
100
AcDbDictionary
281
     1
  3
Normal
350
F
100
AcDbDictionaryWithDefault
340
F
  0
DICTIONARY
  5
47
102
{ACAD_REACTORS
330
C
102
}
330
C
100
AcDbDictionary
281
     1
  3
A0
350
48
  3
A1
350
49
  3
A2
350
4A
  3
A3
350
4B
  3
A4
350
4C
  3
A5
350
4D
  3
A6
350
4E
  3
A7
350
4F
  3
A8
350
50
  3
A9
350
51
  3
B0
350
52
  3
B1
350
53
  3
B2
350
54
  3
B3
350
55
  3
B4
350
56
  3
B5
350
57
  3
B6
350
58
  3
B7
350
59
  3
B8
350
5A
  3
B9
350
5B
  3
C0
350
5C
  3
C1
350
5D
  3
C2
350
5E
  3
C3
350
5F
  3
C4
350
60
  3
C5
350
61
  3
C6
350
62
  3
C7
350
63
  3
C8
350
64
  3
C9
350
65
  3
D0
350
66
  3
D1
350
67
  3
D2
350
68
  0
DICTIONARY
  5
336
102
{ACAD_REACTORS
330
C
102
}
330
C
100
AcDbDictionary
281
     1
  0
DICTIONARY
  5
69
102
{ACAD_REACTORS
330
C
102
}
330
C
100
AcDbDictionary
281
     1
  3
Standard
350
6A
  0
DICTIONARY
  5
2A
102
{ACAD_REACTORS
330
C
102
}
330
C
100
AcDbDictionary
281
     1
  3
2dWireframe
350
2F
  3
Basic
350
32
  3
Brighten
350
36
  3
ColorChange
350
3A
  3
Conceptual
350
34
  3
Dim
350
35
  3
EdgeColorOff
350
3D
  3
Facepattern
350
39
  3
Flat
350
2B
  3
FlatWithEdges
350
2C
  3
Gouraud
350
2D
  3
GouraudWithEdges
350
2E
  3
Hidden
350
31
  3
JitterOff
350
3B
  3
Linepattern
350
38
  3
OverhangOff
350
3C
  3
Realistic
350
33
  3
Shaded
350
42
  3
Shaded with edges
350
41
  3
Shades of Gray
350
3E
  3
Sketchy
350
3F
  3
Thicken
350
37
  3
Wireframe
350
30
  3
X-Ray
350
40
  0
XRECORD
  5
332
102
{ACAD_REACTORS
330
C
102
}
330
C
100
AcDbXrecord
280
     1
 90
        1
330
6A
  0
DICTIONARY
  5
32E
102
{ACAD_REACTORS
330
C
102
}
330
C
100
AcDbDictionary
281
     1
  3
CANNOSCALE
350
32F
  3
CMLEADERSTYLE
350
334
  3
CTABLESTYLE
350
333
  0
LAYOUT
  5
1E
102
{ACAD_REACTORS
330
1A
102
}
330
1A
100
AcDbPlotSettings
  1

  2
none_device
  4

  6

 40
0.0
 41
0.0
 42
0.0
 43
0.0
 44
0.0
 45
0.0
 46
0.0
 47
0.0
 48
0.0
 49
0.0
140
0.0
141
0.0
142
1.0
143
1.0
 70
   688
 72
     0
 73
     0
 74
     5
  7

 75
    16
 76
     0
 77
     2
 78
   300
147
1.0
148
0.0
149
0.0
100
AcDbLayout
  1
Layout1
 70
     1
 71
     1
 10
0.0
 20
0.0
 11
297.0
 21
210.0
 12
0.0
 22
0.0
 32
0.0
 14
0.0
 24
0.0
 34
0.0
 15
297.0
 25
210.0
 35
0.0
146
0.0
 13
0.0
 23
0.0
 33
0.0
 16
1.0
 26
0.0
 36
0.0
 17
0.0
 27
1.0
 37
0.0
 76
     0
330
1B
  0
LAYOUT
  5
26
102
{ACAD_REACTORS
330
1A
102
}
330
1A
100
AcDbPlotSettings
  1

  2
none_device
  4

  6

 40
0.0
 41
0.0
 42
0.0
 43
0.0
 44
0.0
 45
0.0
 46
0.0
 47
0.0
 48
0.0
 49
0.0
140
0.0
141
0.0
142
1.0
143
1.0
 70
   688
 72
     0
 73
     0
 74
     5
  7

 75
    16
 76
     0
 77
     2
 78
   300
147
1.0
148
0.0
149
0.0
100
AcDbLayout
  1
Layout2
 70
     1
 71
     2
 10
0.0
 20
0.0
 11
0.0
 21
0.0
 12
0.0
 22
0.0
 32
0.0
 14
0.0
 24
0.0
 34
0.0
 15
0.0
 25
0.0
 35
0.0
146
0.0
 13
0.0
 23
0.0
 33
0.0
 16
1.0
 26
0.0
 36
0.0
 17
0.0
 27
1.0
 37
0.0
 76
     0
330
23
  0
LAYOUT
  5
22
102
{ACAD_REACTORS
330
1A
102
}
330
1A
100
AcDbPlotSettings
  1

  2
none_device
  4
Letter_(8.50_x_11.00_Inches)
  6

 40
6.35
 41
6.35
 42
6.35000508
 43
6.35000508
 44
215.9
 45
279.4
 46
0.0
 47
0.0
 48
0.0
 49
0.0
140
0.0
141
0.0
142
1.0
143
1.0
 70
  1712
 72
     0
 73
     0
 74
     0
  7

 75
     0
 76
     0
 77
     2
 78
   300
147
1.0
148
0.0
149
0.0
100
AcDbLayout
  1
Model
 70
     1
 71
     0
 10
0.0
 20
0.0
 11
297.0
 21
210.0
 12
0.0
 22
0.0
 32
0.0
 14
-2.821927136534242
 24
-56.13688885182199
 34
0.0
 15
297.1780728634658
 25
323.9840269923337
 35
0.0
146
0.0
 13
0.0
 23
0.0
 33
0.0
 16
1.0
 26
0.0
 36
0.0
 17
0.0
 27
1.0
 37
0.0
 76
     0
330
1F
331
29
  0
MATERIAL
  5
45
102
{ACAD_REACTORS
330
43
102
}
330
43
100
AcDbMaterial
  1
ByBlock
 72
     1
 94
      127
  0
MATERIAL
  5
44
102
{ACAD_REACTORS
330
43
102
}
330
43
100
AcDbMaterial
  1
ByLayer
 72
     1
 94
      127
  0
MATERIAL
  5
46
102
{ACAD_REACTORS
330
43
102
}
330
43
100
AcDbMaterial
  1
Global
 72
     1
 94
      127
  0
MLEADERSTYLE
  5
6C
102
{ACAD_REACTORS
330
6B
102
}
330
6B
100
AcDbMLeaderStyle
179
     2
170
     2
171
     1
172
     0
 90
        2
 40
0.0
 41
0.0
173
     1
 91
-1056964608
340
14
 92
       -2
290
     1
 42
0.09
291
     1
 43
0.36
  3
Standard
341
0
 44
0.18
300

342
11
174
     1
178
     6
175
     1
176
     0
 93
-1056964608
 45
0.18
292
     0
297
     0
 46
0.18
343
0
 94
-1056964608
 47
1.0
 49
1.0
140
1.0
293
     1
141
0.0
294
     1
177
     0
142
1.0
295
     0
296
     0
143
0.125
271
     0
272
     9
273
     9
298
     0
  0
MLINESTYLE
  5
18
102
{ACAD_REACTORS
330
17
102
}
330
17
100
AcDbMlineStyle
  2
Standard
 70
     0
  3

 62
   256
 51
90.0
 52
90.0
 71
     2
 49
0.5
 62
   256
  6
BYLAYER
 49
-0.5
 62
   256
  6
BYLAYER
  0
ACDBPLACEHOLDER
  5
F
102
{ACAD_REACTORS
330
E
102
}
330
E
  0
SCALE
  5
48
102
{ACAD_REACTORS
330
47
102
}
330
47
100
AcDbScale
 70
     0
300
1:1
140
1.0
141
1.0
290
     1
  0
SCALE
  5
49
102
{ACAD_REACTORS
330
47
102
}
330
47
100
AcDbScale
 70
     0
300
1:2
140
1.0
141
2.0
290
     0
  0
SCALE
  5
4A
102
{ACAD_REACTORS
330
47
102
}
330
47
100
AcDbScale
 70
     0
300
1:4
140
1.0
141
4.0
290
     0
  0
SCALE
  5
4B
102
{ACAD_REACTORS
330
47
102
}
330
47
100
AcDbScale
 70
     0
300
1:5
140
1.0
141
5.0
290
     0
  0
SCALE
  5
4C
102
{ACAD_REACTORS
330
47
102
}
330
47
100
AcDbScale
 70
     0
300
1:8
140
1.0
141
8.0
290
     0
  0
SCALE
  5
4D
102
{ACAD_REACTORS
330
47
102
}
330
47
100
AcDbScale
 70
     0
300
1:10
140
1.0
141
10.0
290
     0
  0
SCALE
  5
4E
102
{ACAD_REACTORS
330
47
102
}
330
47
100
AcDbScale
 70
     0
300
1:16
140
1.0
141
16.0
290
     0
  0
SCALE
  5
4F
102
{ACAD_REACTORS
330
47
102
}
330
47
100
AcDbScale
 70
     0
300
1:20
140
1.0
141
20.0
290
     0
  0
SCALE
  5
50
102
{ACAD_REACTORS
330
47
102
}
330
47
100
AcDbScale
 70
     0
300
1:30
140
1.0
141
30.0
290
     0
  0
SCALE
  5
51
102
{ACAD_REACTORS
330
47
102
}
330
47
100
AcDbScale
 70
     0
300
1:40
140
1.0
141
40.0
290
     0
  0
SCALE
  5
52
102
{ACAD_REACTORS
330
47
102
}
330
47
100
AcDbScale
 70
     0
300
1:50
140
1.0
141
50.0
290
     0
  0
SCALE
  5
53
102
{ACAD_REACTORS
330
47
102
}
330
47
100
AcDbScale
 70
     0
300
1:100
140
1.0
141
100.0
290
     0
  0
SCALE
  5
54
102
{ACAD_REACTORS
330
47
102
}
330
47
100
AcDbScale
 70
     0
300
2:1
140
2.0
141
1.0
290
     0
  0
SCALE
  5
55
102
{ACAD_REACTORS
330
47
102
}
330
47
100
AcDbScale
 70
     0
300
4:1
140
4.0
141
1.0
290
     0
  0
SCALE
  5
56
102
{ACAD_REACTORS
330
47
102
}
330
47
100
AcDbScale
 70
     0
300
8:1
140
8.0
141
1.0
290
     0
  0
SCALE
  5
57
102
{ACAD_REACTORS
330
47
102
}
330
47
100
AcDbScale
 70
     0
300
10:1
140
10.0
141
1.0
290
     0
  0
SCALE
  5
58
102
{ACAD_REACTORS
330
47
102
}
330
47
100
AcDbScale
 70
     0
300
100:1
140
100.0
141
1.0
290
     0
  0
SCALE
  5
59
102
{ACAD_REACTORS
330
47
102
}
330
47
100
AcDbScale
 70
     0
300
1/128" = 1'-0"
140
0.0078125
141
12.0
290
     0
  0
SCALE
  5
5A
102
{ACAD_REACTORS
330
47
102
}
330
47
100
AcDbScale
 70
     0
300
1/64" = 1'-0"
140
0.015625
141
12.0
290
     0
  0
SCALE
  5
5B
102
{ACAD_REACTORS
330
47
102
}
330
47
100
AcDbScale
 70
     0
300
1/32" = 1'-0"
140
0.03125
141
12.0
290
     0
  0
SCALE
  5
5C
102
{ACAD_REACTORS
330
47
102
}
330
47
100
AcDbScale
 70
     0
300
1/16" = 1'-0"
140
0.0625
141
12.0
290
     0
  0
SCALE
  5
5D
102
{ACAD_REACTORS
330
47
102
}
330
47
100
AcDbScale
 70
     0
300
3/32" = 1'-0"
140
0.09375
141
12.0
290
     0
  0
SCALE
  5
5E
102
{ACAD_REACTORS
330
47
102
}
330
47
100
AcDbScale
 70
     0
300
1/8" = 1'-0"
140
0.125
141
12.0
290
     0
  0
SCALE
  5
5F
102
{ACAD_REACTORS
330
47
102
}
330
47
100
AcDbScale
 70
     0
300
3/16" = 1'-0"
140
0.1875
141
12.0
290
     0
  0
SCALE
  5
60
102
{ACAD_REACTORS
330
47
102
}
330
47
100
AcDbScale
 70
     0
300
1/4" = 1'-0"
140
0.25
141
12.0
290
     0
  0
SCALE
  5
61
102
{ACAD_REACTORS
330
47
102
}
330
47
100
AcDbScale
 70
     0
300
3/8" = 1'-0"
140
0.375
141
12.0
290
     0
  0
SCALE
  5
62
102
{ACAD_REACTORS
330
47
102
}
330
47
100
AcDbScale
 70
     0
300
1/2" = 1'-0"
140
0.5
141
12.0
290
     0
  0
SCALE
  5
63
102
{ACAD_REACTORS
330
47
102
}
330
47
100
AcDbScale
 70
     0
300
3/4" = 1'-0"
140
0.75
141
12.0
290
     0
  0
SCALE
  5
64
102
{ACAD_REACTORS
330
47
102
}
330
47
100
AcDbScale
 70
     0
300
1" = 1'-0"
140
1.0
141
12.0
290
     0
  0
SCALE
  5
65
102
{ACAD_REACTORS
330
47
102
}
330
47
100
AcDbScale
 70
     0
300
1-1/2" = 1'-0"
140
1.5
141
12.0
290
     0
  0
SCALE
  5
66
102
{ACAD_REACTORS
330
47
102
}
330
47
100
AcDbScale
 70
     0
300
3" = 1'-0"
140
3.0
141
12.0
290
     0
  0
SCALE
  5
67
102
{ACAD_REACTORS
330
47
102
}
330
47
100
AcDbScale
 70
     0
300
6" = 1'-0"
140
6.0
141
12.0
290
     0
  0
SCALE
  5
68
102
{ACAD_REACTORS
330
47
102
}
330
47
100
AcDbScale
 70
     0
300
1'-0" = 1'-0"
140
12.0
141
12.0
290
     0
  0
TABLESTYLE
  5
6A
102
{ACAD_REACTORS
330
69
102
}
102
{ACAD_XDICTIONARY
360
330
102
}
330
69
100
AcDbTableStyle
  3
Standard
 70
     0
 71
     0
 40
0.06
 41
0.06
280
     0
281
     0
  7
Standard
140
0.18
170
     2
 62
     0
 63
   257
283
     0
 90
        4
 91
        0
  1

274
    -2
284
     1
 64
     0
275
    -2
285
     1
 65
     0
276
    -2
286
     1
 66
     0
277
    -2
287
     1
 67
     0
278
    -2
288
     1
 68
     0
279
    -2
289
     1
 69
     0
  7
Standard
140
0.25
170
     5
 62
     0
 63
   257
283
     0
 90
        4
 91
        0
  1

274
    -2
284
     1
 64
     0
275
    -2
285
     1
 65
     0
276
    -2
286
     1
 66
     0
277
    -2
287
     1
 67
     0
278
    -2
288
     1
 68
     0
279
    -2
289
     1
 69
     0
  7
Standard
140
0.18
170
     5
 62
     0
 63
   257
283
     0
 90
        4
 91
        0
  1

274
    -2
284
     1
 64
     0
275
    -2
285
     1
 65
     0
276
    -2
286
     1
 66
     0
277
    -2
287
     1
 67
     0
278
    -2
288
     1
 68
     0
279
    -2
289
     1
 69
     0
  0
VISUALSTYLE
  5
2F
102
{ACAD_REACTORS
330
2A
102
}
330
2A
100
AcDbVisualStyle
  2
2dWireframe
 70
     4
177
     3
291
     0
 70
    58
 90
        0
176
     1
 90
        2
176
     1
 90
        0
176
     1
 90
        0
176
     1
 40
0.6
176
     1
 40
30.0
176
     1
 62
     7
420
 16777215
176
     1
 90
        1
176
     1
 90
        4
176
     1
 62
     7
176
     1
 62
   257
176
     1
 90
        1
176
     1
 90
        1
176
     1
 40
1.0
176
     1
 90
        0
176
     1
 62
   257
176
     1
 40
1.0
176
     1
 90
        1
176
     1
 90
        6
176
     1
 90
        2
176
     1
 62
     7
176
     1
 90
        5
176
     1
 90
        0
176
     1
 90
        0
176
     1
290
     0
176
     1
 90
        1
176
     1
 40
0.0
176
     1
 90
        0
176
     1
290
     1
176
     1
290
     1
176
     1
290
     0
176
     1
290
     0
176
     1
290
     0
176
     1
290
     0
176
     1
290
     0
176
     1
290
     0
176
     1
290
     0
176
     1
 90
       50
176
     1
 40
0.0
176
     1
 40
1.0
176
     1
 90
        0
176
     1
 62
    18
420
        0
176
     1
 90
       50
176
     1
 90
        3
176
     1
 62
     5
420
      255
176
     1
290
     0
176
     1
 90
       50
176
     1
 90
       50
176
     1
 90
       50
176
     1
290
     0
176
     1
 90
       50
176
     1
 62
   256
176
     0
 40
1.0
176
     0
 90
        2
176
     1
  1
strokes_ogs.tif
176
     1
290
     0
176
     1
 40
1.0
176
     1
 40
1.0
176
     1
  0
VISUALSTYLE
  5
32
102
{ACAD_REACTORS
330
2A
102
}
330
2A
100
AcDbVisualStyle
  2
Basic
 70
     7
177
     3
291
     1
 70
    58
 90
        1
176
     1
 90
        0
176
     1
 90
        1
176
     1
 90
        0
176
     1
 40
0.6
176
     1
 40
30.0
176
     1
 62
     7
420
 16777215
176
     1
 90
        0
176
     1
 90
        4
176
     1
 62
     7
176
     1
 62
   257
176
     1
 90
        1
176
     1
 90
        1
176
     1
 40
1.0
176
     1
 90
        8
176
     1
 62
     7
176
     1
 40
1.0
176
     1
 90
        1
176
     1
 90
        6
176
     1
 90
        2
176
     1
 62
     7
176
     1
 90
        5
176
     1
 90
        0
176
     1
 90
        0
176
     1
290
     0
176
     1
 90
        1
176
     1
 40
0.0
176
     1
 90
        0
176
     1
290
     0
176
     1
290
     1
176
     1
290
     1
176
     1
290
     0
176
     1
290
     0
176
     1
290
     0
176
     1
290
     0
176
     1
290
     0
176
     1
290
     0
176
     1
 90
       50
176
     1
 40
0.0
176
     1
 40
1.0
176
     1
 90
        0
176
     1
 62
    18
420
        0
176
     1
 90
       50
176
     1
 90
        3
176
     1
 62
     5
420
      255
176
     1
290
     0
176
     1
 90
       50
176
     1
 90
       50
176
     1
 90
       50
176
     1
290
     0
176
     1
 90
       50
176
     1
 62
   256
176
     0
 40
1.0
176
     0
 90
        2
176
     1
  1
strokes_ogs.tif
176
     1
290
     0
176
     1
 40
1.0
176
     1
 40
1.0
176
     1
  0
VISUALSTYLE
  5
36
102
{ACAD_REACTORS
330
2A
102
}
330
2A
100
AcDbVisualStyle
  2
Brighten
 70
    12
177
     3
291
     1
 70
    58
 90
        2
176
     1
 90
        2
176
     1
 90
        0
176
     1
 90
        0
176
     1
 40
0.6
176
     1
 40
30.0
176
     1
 62
     7
420
 16777215
176
     1
 90
        1
176
     1
 90
        4
176
     1
 62
     7
176
     1
 62
   257
176
     1
 90
        1
176
     1
 90
        1
176
     1
 40
1.0
176
     1
 90
        8
176
     1
 62
     7
176
     1
 40
1.0
176
     1
 90
        1
176
     1
 90
        6
176
     1
 90
        2
176
     1
 62
     7
176
     1
 90
        5
176
     1
 90
        0
176
     1
 90
        0
176
     1
290
     0
176
     1
 90
        1
176
     1
 40
50.0
176
     1
 90
        0
176
     1
290
     0
176
     1
290
     1
176
     1
290
     1
176
     1
290
     0
176
     1
290
     0
176
     1
290
     0
176
     1
290
     0
176
     1
290
     0
176
     1
290
     0
176
     1
 90
       50
176
     1
 40
0.0
176
     1
 40
1.0
176
     1
 90
        0
176
     1
 62
    18
420
        0
176
     1
 90
       50
176
     1
 90
        3
176
     1
 62
     5
420
      255
176
     1
290
     0
176
     1
 90
       50
176
     1
 90
       50
176
     1
 90
       50
176
     1
290
     0
176
     1
 90
       50
176
     1
 62
   256
176
     0
 40
1.0
176
     0
 90
        2
176
     1
  1
strokes_ogs.tif
176
     1
290
     0
176
     1
 40
1.0
176
     1
 40
1.0
176
     1
  0
VISUALSTYLE
  5
3A
102
{ACAD_REACTORS
330
2A
102
}
330
2A
100
AcDbVisualStyle
  2
ColorChange
 70
    16
177
     3
291
     1
 70
    58
 90
        2
176
     1
 90
        2
176
     1
 90
        3
176
     1
 90
        0
176
     1
 40
0.6
176
     1
 40
30.0
176
     1
 62
     8
420
  8421504
176
     1
 90
        1
176
     1
 90
        4
176
     1
 62
     7
176
     1
 62
   257
176
     1
 90
        1
176
     1
 90
        1
176
     1
 40
1.0
176
     1
 90
        8
176
     1
 62
     8
420
  8421504
176
     1
 40
1.0
176
     1
 90
        1
176
     1
 90
        6
176
     1
 90
        2
176
     1
 62
     7
176
     1
 90
        5
176
     1
 90
        0
176
     1
 90
        0
176
     1
290
     0
176
     1
 90
        1
176
     1
 40
0.0
176
     1
 90
        0
176
     1
290
     0
176
     1
290
     1
176
     1
290
     1
176
     1
290
     0
176
     1
290
     0
176
     1
290
     0
176
     1
290
     0
176
     1
290
     0
176
     1
290
     0
176
     1
 90
       50
176
     1
 40
0.0
176
     1
 40
1.0
176
     1
 90
        0
176
     1
 62
    18
420
        0
176
     1
 90
       50
176
     1
 90
        3
176
     1
 62
     5
420
      255
176
     1
290
     0
176
     1
 90
       50
176
     1
 90
       50
176
     1
 90
       50
176
     1
290
     0
176
     1
 90
       50
176
     1
 62
   256
176
     0
 40
1.0
176
     0
 90
        2
176
     1
  1
strokes_ogs.tif
176
     1
290
     0
176
     1
 40
1.0
176
     1
 40
1.0
176
     1
  0
VISUALSTYLE
  5
34
102
{ACAD_REACTORS
330
2A
102
}
330
2A
100
AcDbVisualStyle
  2
Conceptual
 70
     9
177
     3
291
     0
 70
    58
 90
        3
176
     1
 90
        2
176
     1
 90
        0
176
     1
 90
        0
176
     1
 40
0.6
176
     1
 40
30.0
176
     1
 62
     7
420
 16777215
176
     1
 90
        2
176
     1
 90
        2
176
     1
 62
     7
176
     1
 62
   257
176
     1
 90
        1
176
     1
 90
        1
176
     1
 40
179.0
176
     1
 90
        8
176
     1
 62
     7
176
     1
 40
1.0
176
     1
 90
        1
176
     1
 90
        6
176
     1
 90
        2
176
     1
 62
     7
176
     1
 90
        3
176
     1
 90
        0
176
     1
 90
        0
176
     1
290
     0
176
     1
 90
        1
176
     1
 40
0.0
176
     1
 90
        0
176
     1
290
     0
176
     1
290
     1
176
     1
290
     1
176
     1
290
     0
176
     1
290
     0
176
     1
290
     0
176
     1
290
     0
176
     1
290
     0
176
     1
290
     0
176
     1
 90
       50
176
     1
 40
0.0
176
     1
 40
1.0
176
     1
 90
        0
176
     1
 62
    18
420
        0
176
     1
 90
       50
176
     1
 90
        3
176
     1
 62
     5
420
      255
176
     1
290
     0
176
     1
 90
       50
176
     1
 90
       50
176
     1
 90
       50
176
     1
290
     0
176
     1
 90
       50
176
     1
 62
   256
176
     0
 40
1.0
176
     0
 90
        2
176
     1
  1
strokes_ogs.tif
176
     1
290
     0
176
     1
 40
1.0
176
     1
 40
1.0
176
     1
  0
VISUALSTYLE
  5
35
102
{ACAD_REACTORS
330
2A
102
}
330
2A
100
AcDbVisualStyle
  2
Dim
 70
    11
177
     3
291
     1
 70
    58
 90
        2
176
     1
 90
        2
176
     1
 90
        0
176
     1
 90
        0
176
     1
 40
0.6
176
     1
 40
30.0
176
     1
 62
     7
420
 16777215
176
     1
 90
        1
176
     1
 90
        4
176
     1
 62
     7
176
     1
 62
   257
176
     1
 90
        1
176
     1
 90
        1
176
     1
 40
1.0
176
     1
 90
        8
176
     1
 62
     7
176
     1
 40
1.0
176
     1
 90
        1
176
     1
 90
        6
176
     1
 90
        2
176
     1
 62
     7
176
     1
 90
        5
176
     1
 90
        0
176
     1
 90
        0
176
     1
290
     0
176
     1
 90
        1
176
     1
 40
-50.0
176
     1
 90
        0
176
     1
290
     0
176
     1
290
     1
176
     1
290
     1
176
     1
290
     0
176
     1
290
     0
176
     1
290
     0
176
     1
290
     0
176
     1
290
     0
176
     1
290
     0
176
     1
 90
       50
176
     1
 40
0.0
176
     1
 40
1.0
176
     1
 90
        0
176
     1
 62
    18
420
        0
176
     1
 90
       50
176
     1
 90
        3
176
     1
 62
     5
420
      255
176
     1
290
     0
176
     1
 90
       50
176
     1
 90
       50
176
     1
 90
       50
176
     1
290
     0
176
     1
 90
       50
176
     1
 62
   256
176
     0
 40
1.0
176
     0
 90
        2
176
     1
  1
strokes_ogs.tif
176
     1
290
     0
176
     1
 40
1.0
176
     1
 40
1.0
176
     1
  0
VISUALSTYLE
  5
3D
102
{ACAD_REACTORS
330
2A
102
}
330
2A
100
AcDbVisualStyle
  2
EdgeColorOff
 70
    22
177
     3
291
     1
 70
    58
 90
        2
176
     0
 90
        2
176
     0
 90
        0
176
     0
 90
        0
176
     0
 40
0.6
176
     0
 40
30.0
176
     0
 62
     7
420
 16777215
176
     0
 90
        1
176
     0
 90
        4
176
     0
 62
     7
176
     0
 62
   257
176
     0
 90
        1
176
     0
 90
        1
176
     0
 40
1.0
176
     0
 90
        8
176
     2
 62
     7
176
     0
 40
1.0
176
     0
 90
        1
176
     0
 90
        6
176
     0
 90
        2
176
     0
 62
     7
176
     0
 90
        5
176
     0
 90
        0
176
     0
 90
        0
176
     0
290
     0
176
     0
 90
        1
176
     0
 40
0.0
176
     0
 90
        0
176
     0
290
     0
176
     0
290
     1
176
     0
290
     1
176
     0
290
     0
176
     0
290
     0
176
     0
290
     0
176
     0
290
     0
176
     0
290
     0
176
     0
290
     0
176
     0
 90
       50
176
     0
 40
0.0
176
     0
 40
1.0
176
     0
 90
        0
176
     0
 62
    18
420
        0
176
     0
 90
       50
176
     0
 90
        3
176
     0
 62
     5
420
      255
176
     0
290
     0
176
     0
 90
       50
176
     0
 90
       50
176
     0
 90
       50
176
     0
290
     0
176
     0
 90
       50
176
     0
 62
   256
176
     0
 40
1.0
176
     0
 90
        2
176
     0
  1
strokes_ogs.tif
176
     0
290
     0
176
     0
 40
1.0
176
     0
 40
1.0
176
     0
  0
VISUALSTYLE
  5
39
102
{ACAD_REACTORS
330
2A
102
}
330
2A
100
AcDbVisualStyle
  2
Facepattern
 70
    15
177
     3
291
     1
 70
    58
 90
        2
176
     1
 90
        2
176
     1
 90
        0
176
     1
 90
        0
176
     1
 40
0.6
176
     1
 40
30.0
176
     1
 62
     7
420
 16777215
176
     1
 90
        1
176
     1
 90
        4
176
     1
 62
     7
176
     1
 62
   257
176
     1
 90
        1
176
     1
 90
        1
176
     1
 40
1.0
176
     1
 90
        8
176
     1
 62
     7
176
     1
 40
1.0
176
     1
 90
        1
176
     1
 90
        6
176
     1
 90
        2
176
     1
 62
     7
176
     1
 90
        5
176
     1
 90
        0
176
     1
 90
        0
176
     1
290
     0
176
     1
 90
        1
176
     1
 40
0.0
176
     1
 90
        0
176
     1
290
     0
176
     1
290
     1
176
     1
290
     1
176
     1
290
     0
176
     1
290
     0
176
     1
290
     0
176
     1
290
     0
176
     1
290
     0
176
     1
290
     0
176
     1
 90
       50
176
     1
 40
0.0
176
     1
 40
1.0
176
     1
 90
        0
176
     1
 62
    18
420
        0
176
     1
 90
       50
176
     1
 90
        3
176
     1
 62
     5
420
      255
176
     1
290
     0
176
     1
 90
       50
176
     1
 90
       50
176
     1
 90
       50
176
     1
290
     0
176
     1
 90
       50
176
     1
 62
   256
176
     0
 40
1.0
176
     0
 90
        2
176
     1
  1
strokes_ogs.tif
176
     1
290
     0
176
     1
 40
1.0
176
     1
 40
1.0
176
     1
  0
VISUALSTYLE
  5
2B
102
{ACAD_REACTORS
330
2A
102
}
330
2A
100
AcDbVisualStyle
  2
Flat
 70
     0
177
     3
291
     1
 70
    58
 90
        2
176
     1
 90
        1
176
     1
 90
        1
176
     1
 90
        2
176
     1
 40
0.6
176
     1
 40
30.0
176
     1
 62
     7
420
 16777215
176
     1
 90
        0
176
     1
 90
        0
176
     1
 62
     7
176
     1
 62
   257
176
     1
 90
        1
176
     1
 90
        1
176
     1
 40
1.0
176
     1
 90
        8
176
     1
 62
     7
176
     1
 40
1.0
176
     1
 90
        1
176
     1
 90
        6
176
     1
 90
        2
176
     1
 62
     7
176
     1
 90
        5
176
     1
 90
        0
176
     1
 90
        0
176
     1
290
     0
176
     1
 90
       13
176
     1
 40
0.0
176
     1
 90
        0
176
     1
290
     0
176
     1
290
     1
176
     1
290
     1
176
     1
290
     0
176
     1
290
     0
176
     1
290
     0
176
     1
290
     0
176
     1
290
     0
176
     1
290
     0
176
     1
 90
       50
176
     1
 40
0.0
176
     1
 40
1.0
176
     1
 90
        0
176
     1
 62
    18
420
        0
176
     1
 90
       50
176
     1
 90
        3
176
     1
 62
     5
420
      255
176
     1
290
     0
176
     1
 90
       50
176
     1
 90
       50
176
     1
 90
       50
176
     1
290
     0
176
     1
 90
       50
176
     1
 62
   256
176
     0
 40
1.0
176
     0
 90
        2
176
     1
  1
strokes_ogs.tif
176
     1
290
     0
176
     1
 40
1.0
176
     1
 40
1.0
176
     1
  0
VISUALSTYLE
  5
2C
102
{ACAD_REACTORS
330
2A
102
}
330
2A
100
AcDbVisualStyle
  2
FlatWithEdges
 70
     1
177
     3
291
     1
 70
    58
 90
        2
176
     1
 90
        1
176
     1
 90
        1
176
     1
 90
        2
176
     1
 40
0.6
176
     1
 40
30.0
176
     1
 62
     7
420
 16777215
176
     1
 90
        1
176
     1
 90
        0
176
     1
 62
     7
176
     1
 62
   257
176
     1
 90
        1
176
     1
 90
        1
176
     1
 40
1.0
176
     1
 90
        0
176
     1
 62
   257
176
     1
 40
1.0
176
     1
 90
        1
176
     1
 90
        6
176
     1
 90
        2
176
     1
 62
     7
176
     1
 90
        5
176
     1
 90
        0
176
     1
 90
        0
176
     1
290
     0
176
     1
 90
       13
176
     1
 40
0.0
176
     1
 90
        0
176
     1
290
     0
176
     1
290
     1
176
     1
290
     1
176
     1
290
     0
176
     1
290
     0
176
     1
290
     0
176
     1
290
     0
176
     1
290
     0
176
     1
290
     0
176
     1
 90
       50
176
     1
 40
0.0
176
     1
 40
1.0
176
     1
 90
        0
176
     1
 62
    18
420
        0
176
     1
 90
       50
176
     1
 90
        3
176
     1
 62
     5
420
      255
176
     1
290
     0
176
     1
 90
       50
176
     1
 90
       50
176
     1
 90
       50
176
     1
290
     0
176
     1
 90
       50
176
     1
 62
   256
176
     0
 40
1.0
176
     0
 90
        2
176
     1
  1
strokes_ogs.tif
176
     1
290
     0
176
     1
 40
1.0
176
     1
 40
1.0
176
     1
  0
VISUALSTYLE
  5
2D
102
{ACAD_REACTORS
330
2A
102
}
330
2A
100
AcDbVisualStyle
  2
Gouraud
 70
     2
177
     3
291
     1
 70
    58
 90
        2
176
     1
 90
        2
176
     1
 90
        1
176
     1
 90
        2
176
     1
 40
0.6
176
     1
 40
30.0
176
     1
 62
     7
420
 16777215
176
     1
 90
        0
176
     1
 90
        0
176
     1
 62
     7
176
     1
 62
   257
176
     1
 90
        1
176
     1
 90
        1
176
     1
 40
1.0
176
     1
 90
        0
176
     1
 62
     7
176
     1
 40
1.0
176
     1
 90
        1
176
     1
 90
        6
176
     1
 90
        2
176
     1
 62
     7
176
     1
 90
        5
176
     1
 90
        0
176
     1
 90
        0
176
     1
290
     0
176
     1
 90
       13
176
     1
 40
0.0
176
     1
 90
        0
176
     1
290
     0
176
     1
290
     1
176
     1
290
     1
176
     1
290
     0
176
     1
290
     0
176
     1
290
     0
176
     1
290
     0
176
     1
290
     0
176
     1
290
     0
176
     1
 90
       50
176
     1
 40
0.0
176
     1
 40
1.0
176
     1
 90
        0
176
     1
 62
    18
420
        0
176
     1
 90
       50
176
     1
 90
        3
176
     1
 62
     5
420
      255
176
     1
290
     0
176
     1
 90
       50
176
     1
 90
       50
176
     1
 90
       50
176
     1
290
     0
176
     1
 90
       50
176
     1
 62
   256
176
     0
 40
1.0
176
     0
 90
        2
176
     1
  1
strokes_ogs.tif
176
     1
290
     0
176
     1
 40
1.0
176
     1
 40
1.0
176
     1
  0
VISUALSTYLE
  5
2E
102
{ACAD_REACTORS
330
2A
102
}
330
2A
100
AcDbVisualStyle
  2
GouraudWithEdges
 70
     3
177
     3
291
     1
 70
    58
 90
        2
176
     1
 90
        2
176
     1
 90
        1
176
     1
 90
        2
176
     1
 40
0.6
176
     1
 40
30.0
176
     1
 62
     7
420
 16777215
176
     1
 90
        1
176
     1
 90
        0
176
     1
 62
     7
176
     1
 62
   257
176
     1
 90
        1
176
     1
 90
        1
176
     1
 40
1.0
176
     1
 90
        0
176
     1
 62
   257
176
     1
 40
1.0
176
     1
 90
        1
176
     1
 90
        6
176
     1
 90
        2
176
     1
 62
     7
176
     1
 90
        5
176
     1
 90
        0
176
     1
 90
        0
176
     1
290
     0
176
     1
 90
       13
176
     1
 40
0.0
176
     1
 90
        0
176
     1
290
     0
176
     1
290
     1
176
     1
290
     1
176
     1
290
     0
176
     1
290
     0
176
     1
290
     0
176
     1
290
     0
176
     1
290
     0
176
     1
290
     0
176
     1
 90
       50
176
     1
 40
0.0
176
     1
 40
1.0
176
     1
 90
        0
176
     1
 62
    18
420
        0
176
     1
 90
       50
176
     1
 90
        3
176
     1
 62
     5
420
      255
176
     1
290
     0
176
     1
 90
       50
176
     1
 90
       50
176
     1
 90
       50
176
     1
290
     0
176
     1
 90
       50
176
     1
 62
   256
176
     0
 40
1.0
176
     0
 90
        2
176
     1
  1
strokes_ogs.tif
176
     1
290
     0
176
     1
 40
1.0
176
     1
 40
1.0
176
     1
  0
VISUALSTYLE
  5
31
102
{ACAD_REACTORS
330
2A
102
}
330
2A
100
AcDbVisualStyle
  2
Hidden
 70
     6
177
     3
291
     0
 70
    58
 90
        1
176
     1
 90
        2
176
     1
 90
        2
176
     1
 90
        0
176
     1
 40
0.6
176
     1
 40
30.0
176
     1
 62
     7
420
 16777215
176
     1
 90
        2
176
     1
 90
        2
176
     1
 62
     7
176
     1
 62
   257
176
     1
 90
        2
176
     1
 90
        1
176
     1
 40
40.0
176
     1
 90
        0
176
     1
 62
   257
176
     1
 40
1.0
176
     1
 90
        1
176
     1
 90
        6
176
     1
 90
        2
176
     1
 62
     7
176
     1
 90
        3
176
     1
 90
        0
176
     1
 90
        0
176
     1
290
     0
176
     1
 90
        1
176
     1
 40
0.0
176
     1
 90
        0
176
     1
290
     0
176
     1
290
     1
176
     1
290
     1
176
     1
290
     0
176
     1
290
     0
176
     1
290
     0
176
     1
290
     0
176
     1
290
     0
176
     1
290
     0
176
     1
 90
       50
176
     1
 40
0.0
176
     1
 40
1.0
176
     1
 90
        0
176
     1
 62
    18
420
        0
176
     1
 90
       50
176
     1
 90
        3
176
     1
 62
     5
420
      255
176
     1
290
     0
176
     1
 90
       50
176
     1
 90
       50
176
     1
 90
       50
176
     1
290
     0
176
     1
 90
       50
176
     1
 62
   256
176
     0
 40
1.0
176
     0
 90
        2
176
     1
  1
strokes_ogs.tif
176
     1
290
     0
176
     1
 40
1.0
176
     1
 40
1.0
176
     1
  0
VISUALSTYLE
  5
3B
102
{ACAD_REACTORS
330
2A
102
}
330
2A
100
AcDbVisualStyle
  2
JitterOff
 70
    20
177
     3
291
     1
 70
    58
 90
        2
176
     0
 90
        2
176
     0
 90
        0
176
     0
 90
        0
176
     0
 40
0.6
176
     0
 40
30.0
176
     0
 62
     7
420
 16777215
176
     0
 90
        1
176
     0
 90
        4
176
     0
 62
     7
176
     0
 62
   257
176
     0
 90
        1
176
     0
 90
        1
176
     0
 40
1.0
176
     0
 90
       10
176
     2
 62
     7
176
     0
 40
1.0
176
     0
 90
        1
176
     0
 90
        6
176
     0
 90
        2
176
     0
 62
     7
176
     0
 90
        5
176
     0
 90
        0
176
     0
 90
        0
176
     0
290
     0
176
     0
 90
        1
176
     0
 40
0.0
176
     0
 90
        0
176
     0
290
     0
176
     0
290
     1
176
     0
290
     1
176
     0
290
     0
176
     0
290
     0
176
     0
290
     0
176
     0
290
     0
176
     0
290
     0
176
     0
290
     0
176
     0
 90
       50
176
     0
 40
0.0
176
     0
 40
1.0
176
     0
 90
        0
176
     0
 62
    18
420
        0
176
     0
 90
       50
176
     0
 90
        3
176
     0
 62
     5
420
      255
176
     0
290
     0
176
     0
 90
       50
176
     0
 90
       50
176
     0
 90
       50
176
     0
290
     0
176
     0
 90
       50
176
     0
 62
   256
176
     0
 40
1.0
176
     0
 90
        2
176
     0
  1
strokes_ogs.tif
176
     0
290
     0
176
     0
 40
1.0
176
     0
 40
1.0
176
     0
  0
VISUALSTYLE
  5
38
102
{ACAD_REACTORS
330
2A
102
}
330
2A
100
AcDbVisualStyle
  2
Linepattern
 70
    14
177
     3
291
     1
 70
    58
 90
        2
176
     1
 90
        2
176
     1
 90
        0
176
     1
 90
        0
176
     1
 40
0.6
176
     1
 40
30.0
176
     1
 62
     7
420
 16777215
176
     1
 90
        1
176
     1
 90
        4
176
     1
 62
     7
176
     1
 62
   257
176
     1
 90
        7
176
     1
 90
        7
176
     1
 40
1.0
176
     1
 90
        8
176
     1
 62
     7
176
     1
 40
1.0
176
     1
 90
        1
176
     1
 90
        6
176
     1
 90
        2
176
     1
 62
     7
176
     1
 90
        5
176
     1
 90
        0
176
     1
 90
        0
176
     1
290
     0
176
     1
 90
        1
176
     1
 40
0.0
176
     1
 90
        0
176
     1
290
     0
176
     1
290
     1
176
     1
290
     1
176
     1
290
     0
176
     1
290
     0
176
     1
290
     0
176
     1
290
     0
176
     1
290
     0
176
     1
290
     0
176
     1
 90
       50
176
     1
 40
0.0
176
     1
 40
1.0
176
     1
 90
        0
176
     1
 62
    18
420
        0
176
     1
 90
       50
176
     1
 90
        3
176
     1
 62
     5
420
      255
176
     1
290
     0
176
     1
 90
       50
176
     1
 90
       50
176
     1
 90
       50
176
     1
290
     0
176
     1
 90
       50
176
     1
 62
   256
176
     0
 40
1.0
176
     0
 90
        2
176
     1
  1
strokes_ogs.tif
176
     1
290
     0
176
     1
 40
1.0
176
     1
 40
1.0
176
     1
  0
VISUALSTYLE
  5
3C
102
{ACAD_REACTORS
330
2A
102
}
330
2A
100
AcDbVisualStyle
  2
OverhangOff
 70
    21
177
     3
291
     1
 70
    58
 90
        2
176
     0
 90
        2
176
     0
 90
        0
176
     0
 90
        0
176
     0
 40
0.6
176
     0
 40
30.0
176
     0
 62
     7
420
 16777215
176
     0
 90
        1
176
     0
 90
        4
176
     0
 62
     7
176
     0
 62
   257
176
     0
 90
        1
176
     0
 90
        1
176
     0
 40
1.0
176
     0
 90
        9
176
     2
 62
     7
176
     0
 40
1.0
176
     0
 90
        1
176
     0
 90
        6
176
     0
 90
        2
176
     0
 62
     7
176
     0
 90
        5
176
     0
 90
        0
176
     0
 90
        0
176
     0
290
     0
176
     0
 90
        1
176
     0
 40
0.0
176
     0
 90
        0
176
     0
290
     0
176
     0
290
     1
176
     0
290
     1
176
     0
290
     0
176
     0
290
     0
176
     0
290
     0
176
     0
290
     0
176
     0
290
     0
176
     0
290
     0
176
     0
 90
       50
176
     0
 40
0.0
176
     0
 40
1.0
176
     0
 90
        0
176
     0
 62
    18
420
        0
176
     0
 90
       50
176
     0
 90
        3
176
     0
 62
     5
420
      255
176
     0
290
     0
176
     0
 90
       50
176
     0
 90
       50
176
     0
 90
       50
176
     0
290
     0
176
     0
 90
       50
176
     0
 62
   256
176
     0
 40
1.0
176
     0
 90
        2
176
     0
  1
strokes_ogs.tif
176
     0
290
     0
176
     0
 40
1.0
176
     0
 40
1.0
176
     0
  0
VISUALSTYLE
  5
33
102
{ACAD_REACTORS
330
2A
102
}
330
2A
100
AcDbVisualStyle
  2
Realistic
 70
     8
177
     3
291
     0
 70
    58
 90
        2
176
     1
 90
        3
176
     1
 90
        0
176
     1
 90
        2
176
     1
 40
0.6
176
     1
 40
30.0
176
     1
 62
     7
420
 16777215
176
     1
 90
        0
176
     1
 90
        0
176
     1
 62
     7
176
     1
 62
   257
176
     1
 90
        1
176
     1
 90
        1
176
     1
 40
1.0
176
     1
 90
        8
176
     1
 62
   257
176
     1
 40
1.0
176
     1
 90
        1
176
     1
 90
        6
176
     1
 90
        2
176
     1
 62
     7
176
     1
 90
        3
176
     1
 90
        0
176
     1
 90
        0
176
     1
290
     0
176
     1
 90
       13
176
     1
 40
0.0
176
     1
 90
        0
176
     1
290
     0
176
     1
290
     1
176
     1
290
     1
176
     1
290
     0
176
     1
290
     0
176
     1
290
     0
176
     1
290
     0
176
     1
290
     0
176
     1
290
     0
176
     1
 90
       50
176
     1
 40
0.0
176
     1
 40
1.0
176
     1
 90
        0
176
     1
 62
    18
420
        0
176
     1
 90
       50
176
     1
 90
        3
176
     1
 62
     5
420
      255
176
     1
290
     0
176
     1
 90
       50
176
     1
 90
       50
176
     1
 90
       50
176
     1
290
     0
176
     1
 90
       50
176
     1
 62
   256
176
     0
 40
1.0
176
     0
 90
        2
176
     1
  1
strokes_ogs.tif
176
     1
290
     0
176
     1
 40
1.0
176
     1
 40
1.0
176
     1
  0
VISUALSTYLE
  5
42
102
{ACAD_REACTORS
330
2A
102
}
330
2A
100
AcDbVisualStyle
  2
Shaded
 70
    27
177
     3
291
     0
 70
    58
 90
        2
176
     1
 90
        2
176
     1
 90
        1
176
     1
 90
        2
176
     1
 40
0.6
176
     1
 40
30.0
176
     1
 62
     7
420
 16777215
176
     1
 90
        0
176
     1
 90
        4
176
     1
 62
     7
176
     1
 62
   257
176
     1
 90
        1
176
     1
 90
        1
176
     1
 40
1.0
176
     1
 90
        8
176
     1
 62
   257
176
     1
 40
1.0
176
     1
 90
        1
176
     1
 90
        6
176
     1
 90
        2
176
     1
 62
     8
420
  7895160
176
     1
 90
        3
176
     1
 90
        0
176
     1
 90
        0
176
     1
290
     0
176
     1
 90
        5
176
     1
 40
0.0
176
     1
 90
        0
176
     1
290
     0
176
     1
290
     1
176
     1
290
     1
176
     1
290
     0
176
     1
290
     0
176
     1
290
     0
176
     1
290
     0
176
     1
290
     0
176
     1
290
     0
176
     1
 90
       50
176
     1
 40
0.0
176
     1
 40
1.0
176
     1
 90
        0
176
     1
 62
    18
420
        0
176
     1
 90
       50
176
     1
 90
        3
176
     1
 62
     5
420
      255
176
     1
290
     0
176
     1
 90
       50
176
     1
 90
       50
176
     1
 90
       50
176
     1
290
     0
176
     1
 90
       50
176
     1
 62
   256
176
     0
 40
1.0
176
     0
 90
        2
176
     1
  1
strokes_ogs.tif
176
     1
290
     0
176
     1
 40
1.0
176
     1
 40
1.0
176
     1
  0
VISUALSTYLE
  5
41
102
{ACAD_REACTORS
330
2A
102
}
330
2A
100
AcDbVisualStyle
  2
Shaded with edges
 70
    26
177
     3
291
     0
 70
    58
 90
        2
176
     1
 90
        2
176
     1
 90
        1
176
     1
 90
        2
176
     1
 40
0.6
176
     1
 40
30.0
176
     1
 62
     7
420
 16777215
176
     1
 90
        1
176
     1
 90
       10
176
     1
 62
     7
176
     1
 62
   257
176
     1
 90
        2
176
     1
 90
        1
176
     1
 40
1.0
176
     1
 90
        8
176
     1
 62
   257
176
     1
 40
1.0
176
     1
 90
        1
176
     1
 90
        6
176
     1
 90
        2
176
     1
 62
     7
176
     1
 90
        3
176
     1
 90
        0
176
     1
 90
        0
176
     1
290
     0
176
     1
 90
        5
176
     1
 40
0.0
176
     1
 90
        0
176
     1
290
     0
176
     1
290
     1
176
     1
290
     1
176
     1
290
     0
176
     1
290
     0
176
     1
290
     0
176
     1
290
     0
176
     1
290
     0
176
     1
290
     0
176
     1
 90
       50
176
     1
 40
0.0
176
     1
 40
1.0
176
     1
 90
        0
176
     1
 62
    18
420
        0
176
     1
 90
       50
176
     1
 90
        3
176
     1
 62
     5
420
      255
176
     1
290
     0
176
     1
 90
       50
176
     1
 90
       50
176
     1
 90
       50
176
     1
290
     0
176
     1
 90
       50
176
     1
 62
   256
176
     0
 40
1.0
176
     0
 90
        2
176
     1
  1
strokes_ogs.tif
176
     1
290
     0
176
     1
 40
1.0
176
     1
 40
1.0
176
     1
  0
VISUALSTYLE
  5
3E
102
{ACAD_REACTORS
330
2A
102
}
330
2A
100
AcDbVisualStyle
  2
Shades of Gray
 70
    23
177
     3
291
     0
 70
    58
 90
        2
176
     1
 90
        2
176
     1
 90
        3
176
     1
 90
        0
176
     1
 40
0.6
176
     1
 40
30.0
176
     1
 62
     7
420
 16777215
176
     1
 90
        2
176
     1
 90
        2
176
     1
 62
     7
176
     1
 62
     7
176
     1
 90
        1
176
     1
 90
        1
176
     1
 40
40.0
176
     1
 90
        8
176
     1
 62
     7
176
     1
 40
1.0
176
     1
 90
        1
176
     1
 90
        6
176
     1
 90
        2
176
     1
 62
     7
176
     1
 90
        3
176
     1
 90
        0
176
     1
 90
        0
176
     1
290
     0
176
     1
 90
        1
176
     1
 40
0.0
176
     1
 90
        0
176
     1
290
     0
176
     1
290
     1
176
     1
290
     1
176
     1
290
     0
176
     1
290
     0
176
     1
290
     0
176
     1
290
     0
176
     1
290
     0
176
     1
290
     0
176
     1
 90
       50
176
     1
 40
0.0
176
     1
 40
1.0
176
     1
 90
        0
176
     1
 62
    18
420
        0
176
     1
 90
       50
176
     1
 90
        3
176
     1
 62
     5
420
      255
176
     1
290
     0
176
     1
 90
       50
176
     1
 90
       50
176
     1
 90
       50
176
     1
290
     0
176
     1
 90
       50
176
     1
 62
   256
176
     0
 40
1.0
176
     0
 90
        2
176
     1
  1
strokes_ogs.tif
176
     1
290
     0
176
     1
 40
1.0
176
     1
 40
1.0
176
     1
  0
VISUALSTYLE
  5
3F
102
{ACAD_REACTORS
330
2A
102
}
330
2A
100
AcDbVisualStyle
  2
Sketchy
 70
    24
177
     3
291
     0
 70
    58
 90
        1
176
     1
 90
        2
176
     1
 90
        2
176
     1
 90
        0
176
     1
 40
0.6
176
     1
 40
30.0
176
     1
 62
     7
420
 16777215
176
     1
 90
        2
176
     1
 90
        2
176
     1
 62
     7
176
     1
 62
     7
176
     1
 90
        1
176
     1
 90
        1
176
     1
 40
40.0
176
     1
 90
       11
176
     1
 62
     7
176
     1
 40
1.0
176
     1
 90
        1
176
     1
 90
        6
176
     1
 90
        2
176
     1
 62
     7
176
     1
 90
        6
176
     1
 90
        0
176
     1
 90
        0
176
     1
290
     0
176
     1
 90
        1
176
     1
 40
0.0
176
     1
 90
        0
176
     1
290
     0
176
     1
290
     1
176
     1
290
     1
176
     1
290
     0
176
     1
290
     0
176
     1
290
     0
176
     1
290
     0
176
     1
290
     0
176
     1
290
     0
176
     1
 90
       50
176
     1
 40
0.0
176
     1
 40
1.0
176
     1
 90
        0
176
     1
 62
    18
420
        0
176
     1
 90
       50
176
     1
 90
        3
176
     1
 62
     5
420
      255
176
     1
290
     0
176
     1
 90
       50
176
     1
 90
       50
176
     1
 90
       50
176
     1
290
     0
176
     1
 90
       50
176
     1
 62
   256
176
     0
 40
1.0
176
     0
 90
        2
176
     1
  1
strokes_ogs.tif
176
     1
290
     0
176
     1
 40
1.0
176
     1
 40
1.0
176
     1
  0
VISUALSTYLE
  5
37
102
{ACAD_REACTORS
330
2A
102
}
330
2A
100
AcDbVisualStyle
  2
Thicken
 70
    13
177
     3
291
     1
 70
    58
 90
        2
176
     1
 90
        2
176
     1
 90
        0
176
     1
 90
        0
176
     1
 40
0.6
176
     1
 40
30.0
176
     1
 62
     7
420
 16777215
176
     1
 90
        1
176
     1
 90
        4
176
     1
 62
     7
176
     1
 62
   257
176
     1
 90
        1
176
     1
 90
        1
176
     1
 40
1.0
176
     1
 90
       12
176
     1
 62
     7
176
     1
 40
1.0
176
     1
 90
        1
176
     1
 90
        6
176
     1
 90
        2
176
     1
 62
     7
176
     1
 90
        5
176
     1
 90
        0
176
     1
 90
        0
176
     1
290
     0
176
     1
 90
        1
176
     1
 40
0.0
176
     1
 90
        0
176
     1
290
     0
176
     1
290
     1
176
     1
290
     1
176
     1
290
     0
176
     1
290
     0
176
     1
290
     0
176
     1
290
     0
176
     1
290
     0
176
     1
290
     0
176
     1
 90
       50
176
     1
 40
0.0
176
     1
 40
1.0
176
     1
 90
        0
176
     1
 62
    18
420
        0
176
     1
 90
       50
176
     1
 90
        3
176
     1
 62
     5
420
      255
176
     1
290
     0
176
     1
 90
       50
176
     1
 90
       50
176
     1
 90
       50
176
     1
290
     0
176
     1
 90
       50
176
     1
 62
   256
176
     0
 40
1.0
176
     0
 90
        2
176
     1
  1
strokes_ogs.tif
176
     1
290
     0
176
     1
 40
1.0
176
     1
 40
1.0
176
     1
  0
VISUALSTYLE
  5
30
102
{ACAD_REACTORS
330
2A
102
}
330
2A
100
AcDbVisualStyle
  2
Wireframe
 70
     5
177
     3
291
     0
 70
    58
 90
        0
176
     1
 90
        2
176
     1
 90
        0
176
     1
 90
        0
176
     1
 40
0.6
176
     1
 40
30.0
176
     1
 62
     7
420
 16777215
176
     1
 90
        1
176
     1
 90
        4
176
     1
 62
     7
176
     1
 62
   257
176
     1
 90
        1
176
     1
 90
        1
176
     1
 40
1.0
176
     1
 90
        0
176
     1
 62
   257
176
     1
 40
1.0
176
     1
 90
        1
176
     1
 90
        6
176
     1
 90
        2
176
     1
 62
     7
176
     1
 90
        3
176
     1
 90
        0
176
     1
 90
        0
176
     1
290
     0
176
     1
 90
        1
176
     1
 40
0.0
176
     1
 90
        0
176
     1
290
     0
176
     1
290
     1
176
     1
290
     1
176
     1
290
     0
176
     1
290
     0
176
     1
290
     0
176
     1
290
     0
176
     1
290
     0
176
     1
290
     0
176
     1
 90
       50
176
     1
 40
0.0
176
     1
 40
1.0
176
     1
 90
        0
176
     1
 62
    18
420
        0
176
     1
 90
       50
176
     1
 90
        3
176
     1
 62
     5
420
      255
176
     1
290
     0
176
     1
 90
       50
176
     1
 90
       50
176
     1
 90
       50
176
     1
290
     0
176
     1
 90
       50
176
     1
 62
   256
176
     0
 40
1.0
176
     0
 90
        2
176
     1
  1
strokes_ogs.tif
176
     1
290
     0
176
     1
 40
1.0
176
     1
 40
1.0
176
     1
  0
VISUALSTYLE
  5
40
102
{ACAD_REACTORS
330
2A
102
}
330
2A
100
AcDbVisualStyle
  2
X-Ray
 70
    25
177
     3
291
     0
 70
    58
 90
        2
176
     1
 90
        2
176
     1
 90
        1
176
     1
 90
        1
176
     1
 40
0.5
176
     1
 40
30.0
176
     1
 62
     7
420
 16777215
176
     1
 90
        1
176
     1
 90
        0
176
     1
 62
     7
176
     1
 62
   257
176
     1
 90
        1
176
     1
 90
        1
176
     1
 40
1.0
176
     1
 90
        8
176
     1
 62
     7
176
     1
 40
1.0
176
     1
 90
        1
176
     1
 90
        6
176
     1
 90
        2
176
     1
 62
     7
176
     1
 90
        3
176
     1
 90
        0
176
     1
 90
        0
176
     1
290
     0
176
     1
 90
       13
176
     1
 40
0.0
176
     1
 90
        0
176
     1
290
     0
176
     1
290
     1
176
     1
290
     1
176
     1
290
     0
176
     1
290
     0
176
     1
290
     0
176
     1
290
     0
176
     1
290
     0
176
     1
290
     0
176
     1
 90
       50
176
     1
 40
0.0
176
     1
 40
1.0
176
     1
 90
        0
176
     1
 62
    18
420
        0
176
     1
 90
       50
176
     1
 90
        3
176
     1
 62
     5
420
      255
176
     1
290
     0
176
     1
 90
       50
176
     1
 90
       50
176
     1
 90
       50
176
     1
290
     0
176
     1
 90
       50
176
     1
 62
   256
176
     0
 40
1.0
176
     0
 90
        2
176
     1
  1
strokes_ogs.tif
176
     1
290
     0
176
     1
 40
1.0
176
     1
 40
1.0
176
     1
  0
DICTIONARYVAR
  5
32F
102
{ACAD_REACTORS
330
32E
102
}
330
32E
100
DictionaryVariables
280
     0
  1
1:1
  0
DICTIONARYVAR
  5
334
102
{ACAD_REACTORS
330
32E
102
}
330
32E
100
DictionaryVariables
280
     0
  1
Standard
  0
DICTIONARYVAR
  5
333
102
{ACAD_REACTORS
330
32E
102
}
330
32E
100
DictionaryVariables
280
     0
  1
Standard
  0
DICTIONARY
  5
330
330
6A
100
AcDbDictionary
280
     1
281
     1
  3
ACAD_ROUNDTRIP_2008_TABLESTYLE_CELLSTYLEMAP
360
331
  0
CELLSTYLEMAP
  5
331
102
{ACAD_REACTORS
330
330
102
}
330
330
100
AcDbCellStyleMap
 90
        3
300
CELLSTYLE
  1
TABLEFORMAT_BEGIN
 90
        5
170
     1
 91
        0
 92
    32768
 62
   257
 93
        1
300
CONTENTFORMAT
  1
CONTENTFORMAT_BEGIN
 90
        0
 91
        0
 92
        4
 93
        0
300

 40
0.0
140
1.0
 94
        5
 62
     0
340
11
144
0.25
309
CONTENTFORMAT_END
171
     1
301
MARGIN
  1
CELLMARGIN_BEGIN
 40
0.06
 40
0.06
 40
0.06
 40
0.06
 40
0.06
 40
0.06
309
CELLMARGIN_END
 94
        6
 95
        1
302
GRIDFORMAT
  1
GRIDFORMAT_BEGIN
 90
        0
 91
        1
 62
     0
 92
       -2
340
14
 93
        0
 40
0.045
309
GRIDFORMAT_END
 95
        2
302
GRIDFORMAT
  1
GRIDFORMAT_BEGIN
 90
        0
 91
        1
 62
     0
 92
       -2
340
14
 93
        0
 40
0.045
309
GRIDFORMAT_END
 95
        4
302
GRIDFORMAT
  1
GRIDFORMAT_BEGIN
 90
        0
 91
        1
 62
     0
 92
       -2
340
14
 93
        0
 40
0.045
309
GRIDFORMAT_END
 95
        8
302
GRIDFORMAT
  1
GRIDFORMAT_BEGIN
 90
        0
 91
        1
 62
     0
 92
       -2
340
14
 93
        0
 40
0.045
309
GRIDFORMAT_END
 95
       16
302
GRIDFORMAT
  1
GRIDFORMAT_BEGIN
 90
        0
 91
        1
 62
     0
 92
       -2
340
14
 93
        0
 40
0.045
309
GRIDFORMAT_END
 95
       32
302
GRIDFORMAT
  1
GRIDFORMAT_BEGIN
 90
        0
 91
        1
 62
     0
 92
       -2
340
14
 93
        0
 40
0.045
309
GRIDFORMAT_END
309
TABLEFORMAT_END
  1
CELLSTYLE_BEGIN
 90
        1
 91
        1
300
_TITLE
309
CELLSTYLE_END
300
CELLSTYLE
  1
TABLEFORMAT_BEGIN
 90
        5
170
     1
 91
        0
 92
        0
 62
   257
 93
        1
300
CONTENTFORMAT
  1
CONTENTFORMAT_BEGIN
 90
        0
 91
        0
 92
        4
 93
        0
300

 40
0.0
140
1.0
 94
        5
 62
     0
340
11
144
0.18
309
CONTENTFORMAT_END
171
     1
301
MARGIN
  1
CELLMARGIN_BEGIN
 40
0.06
 40
0.06
 40
0.06
 40
0.06
 40
0.06
 40
0.06
309
CELLMARGIN_END
 94
        6
 95
        1
302
GRIDFORMAT
  1
GRIDFORMAT_BEGIN
 90
        0
 91
        1
 62
     0
 92
       -2
340
14
 93
        0
 40
0.045
309
GRIDFORMAT_END
 95
        2
302
GRIDFORMAT
  1
GRIDFORMAT_BEGIN
 90
        0
 91
        1
 62
     0
 92
       -2
340
14
 93
        0
 40
0.045
309
GRIDFORMAT_END
 95
        4
302
GRIDFORMAT
  1
GRIDFORMAT_BEGIN
 90
        0
 91
        1
 62
     0
 92
       -2
340
14
 93
        0
 40
0.045
309
GRIDFORMAT_END
 95
        8
302
GRIDFORMAT
  1
GRIDFORMAT_BEGIN
 90
        0
 91
        1
 62
     0
 92
       -2
340
14
 93
        0
 40
0.045
309
GRIDFORMAT_END
 95
       16
302
GRIDFORMAT
  1
GRIDFORMAT_BEGIN
 90
        0
 91
        1
 62
     0
 92
       -2
340
14
 93
        0
 40
0.045
309
GRIDFORMAT_END
 95
       32
302
GRIDFORMAT
  1
GRIDFORMAT_BEGIN
 90
        0
 91
        1
 62
     0
 92
       -2
340
14
 93
        0
 40
0.045
309
GRIDFORMAT_END
309
TABLEFORMAT_END
  1
CELLSTYLE_BEGIN
 90
        2
 91
        1
300
_HEADER
309
CELLSTYLE_END
300
CELLSTYLE
  1
TABLEFORMAT_BEGIN
 90
        5
170
     1
 91
        0
 92
        0
 62
   257
 93
        1
300
CONTENTFORMAT
  1
CONTENTFORMAT_BEGIN
 90
        0
 91
        0
 92
        4
 93
        0
300

 40
0.0
140
1.0
 94
        2
 62
     0
340
11
144
0.18
309
CONTENTFORMAT_END
171
     1
301
MARGIN
  1
CELLMARGIN_BEGIN
 40
0.06
 40
0.06
 40
0.06
 40
0.06
 40
0.06
 40
0.06
309
CELLMARGIN_END
 94
        6
 95
        1
302
GRIDFORMAT
  1
GRIDFORMAT_BEGIN
 90
        0
 91
        1
 62
     0
 92
       -2
340
14
 93
        0
 40
0.045
309
GRIDFORMAT_END
 95
        2
302
GRIDFORMAT
  1
GRIDFORMAT_BEGIN
 90
        0
 91
        1
 62
     0
 92
       -2
340
14
 93
        0
 40
0.045
309
GRIDFORMAT_END
 95
        4
302
GRIDFORMAT
  1
GRIDFORMAT_BEGIN
 90
        0
 91
        1
 62
     0
 92
       -2
340
14
 93
        0
 40
0.045
309
GRIDFORMAT_END
 95
        8
302
GRIDFORMAT
  1
GRIDFORMAT_BEGIN
 90
        0
 91
        1
 62
     0
 92
       -2
340
14
 93
        0
 40
0.045
309
GRIDFORMAT_END
 95
       16
302
GRIDFORMAT
  1
GRIDFORMAT_BEGIN
 90
        0
 91
        1
 62
     0
 92
       -2
340
14
 93
        0
 40
0.045
309
GRIDFORMAT_END
 95
       32
302
GRIDFORMAT
  1
GRIDFORMAT_BEGIN
 90
        0
 91
        1
 62
     0
 92
       -2
340
14
 93
        0
 40
0.045
309
GRIDFORMAT_END
309
TABLEFORMAT_END
  1
CELLSTYLE_BEGIN
 90
        3
 91
        2
300
_DATA
309
CELLSTYLE_END
  0
ENDSEC
  0
EOF
