  0
SECTION
  2
HEADER
  9
$ACADVER
  1
AC1032
  9
$ACADMAINTVER
 90
       55
  9
$DWGCODEPAGE
  3
ANSI_932
  9
$LASTSAVEDBY
  1
client05
  9
$REQUIREDVERSIONS
160
                 0
  9
$INSBASE
 10
0.0
 20
0.0
 30
0.0
  9
$EXTMIN
 10
-108.5722568525732
 20
-46.70245398773004
 30
0.0
  9
$EXTMAX
 10
241.5272352445063
 20
330.1025512595976
 30
0.0
  9
$LIMMIN
 10
0.0
 20
0.0
  9
$LIMMAX
 10
297.0
 20
210.0
  9
$ORTHOMODE
 70
     0
  9
$REGENMODE
 70
     1
  9
$FILLMODE
 70
     1
  9
$QTEXTMODE
 70
     0
  9
$MIRRTEXT
 70
     1
  9
$LTSCALE
 40
0.25
  9
$ATTMODE
 70
     1
  9
$TEXTSIZE
 40
5.0
  9
$TRACEWID
 40
0.05
  9
$TEXTSTYLE
  7
Standard
  9
$CLAYER
  8
0
  9
$CELTYPE
  6
ByLayer
  9
$CECOLOR
 62
   256
  9
$CELTSCALE
 40
1.0
  9
$DISPSILH
 70
     0
  9
$DIMSCALE
 40
1.0
  9
$DIMASZ
 40
4.0
  9
$DIMEXO
 40
2.0
  9
$DIMDLI
 40
10.0
  9
$DIMRND
 40
0.0
  9
$DIMDLE
 40
0.0
  9
$DIMEXE
 40
2.0
  9
$DIMTP
 40
0.0
  9
$DIMTM
 40
0.0
  9
$DIMTXT
 40
3.5
  9
$DIMCEN
 40
0.09
  9
$DIMTSZ
 40
0.0
  9
$DIMTOL
 70
     0
  9
$DIMLIM
 70
     0
  9
$DIMTIH
 70
     0
  9
$DIMTOH
 70
     0
  9
$DIMSE1
 70
     0
  9
$DIMSE2
 70
     0
  9
$DIMTAD
 70
     3
  9
$DIMZIN
 70
     8
  9
$DIMBLK
  1

  9
$DIMASO
 70
     1
  9
$DIMSHO
 70
     1
  9
$DIMPOST
  1

  9
$DIMAPOST
  1

  9
$DIMALT
 70
     0
  9
$DIMALTD
 70
     2
  9
$DIMALTF
 40
25.4
  9
$DIMLFAC
 40
1.0
  9
$DIMTOFL
 70
     1
  9
$DIMTVP
 40
0.7
  9
$DIMTIX
 70
     0
  9
$DIMSOXD
 70
     0
  9
$DIMSAH
 70
     0
  9
$DIMBLK1
  1

  9
$DIMBLK2
  1

  9
$DIMSTYLE
  2
Standard
  9
$DIMCLRD
 70
     0
  9
$DIMCLRE
 70
     0
  9
$DIMCLRT
 70
     0
  9
$DIMTFAC
 40
0.5
  9
$DIMGAP
 40
0.09
  9
$DIMJUST
 70
     0
  9
$DIMSD1
 70
     0
  9
$DIMSD2
 70
     0
  9
$DIMTOLJ
 70
     1
  9
$DIMTZIN
 70
     8
  9
$DIMALTZ
 70
     0
  9
$DIMALTTZ
 70
     0
  9
$DIMUPT
 70
     1
  9
$DIMDEC
 70
     2
  9
$DIMTDEC
 70
     4
  9
$DIMALTU
 70
     2
  9
$DIMALTTD
 70
     2
  9
$DIMTXSTY
  7
Standard
  9
$DIMAUNIT
 70
     0
  9
$DIMADEC
 70
     0
  9
$DIMALTRND
 40
0.0
  9
$DIMAZIN
 70
     0
  9
$DIMDSEP
 70
    46
  9
$DIMATFIT
 70
     2
  9
$DIMFRAC
 70
     0
  9
$DIMLDRBLK
  1

  9
$DIMLUNIT
 70
     2
  9
$DIMLWD
 70
    -2
  9
$DIMLWE
 70
    -2
  9
$DIMTMOVE
 70
     2
  9
$DIMFXL
 40
1.0
  9
$DIMFXLON
 70
     0
  9
$DIMJOGANG
 40
0.7853981633974483
  9
$DIMTFILL
 70
     0
  9
$DIMTFILLCLR
 70
     0
  9
$DIMARCSYM
 70
     0
  9
$DIMLTYPE
  6

  9
$DIMLTEX1
  6

  9
$DIMLTEX2
  6

  9
$DIMTXTDIRECTION
 70
     0
  9
$LUNITS
 70
     2
  9
$LUPREC
 70
     4
  9
$SKETCHINC
 40
0.1
  9
$FILLETRAD
 40
0.5
  9
$AUNITS
 70
     0
  9
$AUPREC
 70
     0
  9
$MENU
  1
.
  9
$ELEVATION
 40
0.0
  9
$PELEVATION
 40
0.0
  9
$THICKNESS
 40
0.0
  9
$LIMCHECK
 70
     0
  9
$CHAMFERA
 40
0.0
  9
$CHAMFERB
 40
0.0
  9
$CHAMFERC
 40
0.0
  9
$CHAMFERD
 40
0.0
  9
$SKPOLY
 70
     0
  9
$TDCREATE
 40
2459817.940648148
  9
$TDUCREATE
 40
2459817.565648148
  9
$TDUPDATE
 40
2459817.565649305
  9
$TDUUPDATE
 40
2459817.190649305
  9
$TDINDWG
 40
0.0000000116
  9
$TDUSRTIMER
 40
0.0000000116
  9
$USRTIMER
 70
     1
  9
$ANGBASE
 50
0.0
  9
$ANGDIR
 70
     0
  9
$PDMODE
 70
     0
  9
$PDSIZE
 40
0.0
  9
$PLINEWID
 40
0.0
  9
$SPLFRAME
 70
     0
  9
$SPLINETYPE
 70
     6
  9
$SPLINESEGS
 70
     8
  9
$HANDSEED
  5
271
  9
$SURFTAB1
 70
     6
  9
$SURFTAB2
 70
     6
  9
$SURFTYPE
 70
     6
  9
$SURFU
 70
     6
  9
$SURFV
 70
     6
  9
$UCSBASE
  2

  9
$UCSNAME
  2

  9
$UCSORG
 10
0.0
 20
0.0
 30
0.0
  9
$UCSXDIR
 10
1.0
 20
0.0
 30
0.0
  9
$UCSYDIR
 10
0.0
 20
1.0
 30
0.0
  9
$UCSORTHOREF
  2

  9
$UCSORTHOVIEW
 70
     0
  9
$UCSORGTOP
 10
0.0
 20
0.0
 30
0.0
  9
$UCSORGBOTTOM
 10
0.0
 20
0.0
 30
0.0
  9
$UCSORGLEFT
 10
0.0
 20
0.0
 30
0.0
  9
$UCSORGRIGHT
 10
0.0
 20
0.0
 30
0.0
  9
$UCSORGFRONT
 10
0.0
 20
0.0
 30
0.0
  9
$UCSORGBACK
 10
0.0
 20
0.0
 30
0.0
  9
$PUCSBASE
  2

  9
$PUCSNAME
  2

  9
$PUCSORG
 10
0.0
 20
0.0
 30
0.0
  9
$PUCSXDIR
 10
1.0
 20
0.0
 30
0.0
  9
$PUCSYDIR
 10
0.0
 20
1.0
 30
0.0
  9
$PUCSORTHOREF
  2

  9
$PUCSORTHOVIEW
 70
     0
  9
$PUCSORGTOP
 10
0.0
 20
0.0
 30
0.0
  9
$PUCSORGBOTTOM
 10
0.0
 20
0.0
 30
0.0
  9
$PUCSORGLEFT
 10
0.0
 20
0.0
 30
0.0
  9
$PUCSORGRIGHT
 10
0.0
 20
0.0
 30
0.0
  9
$PUCSORGFRONT
 10
0.0
 20
0.0
 30
0.0
  9
$PUCSORGBACK
 10
0.0
 20
0.0
 30
0.0
  9
$USERI1
 70
     0
  9
$USERI2
 70
     0
  9
$USERI3
 70
     0
  9
$USERI4
 70
     0
  9
$USERI5
 70
     0
  9
$USERR1
 40
0.0
  9
$USERR2
 40
0.0
  9
$USERR3
 40
0.0
  9
$USERR4
 40
0.0
  9
$USERR5
 40
0.0
  9
$WORLDVIEW
 70
     1
  9
$SHADEDGE
 70
     3
  9
$SHADEDIF
 70
    70
  9
$TILEMODE
 70
     1
  9
$MAXACTVP
 70
    64
  9
$PINSBASE
 10
0.0
 20
0.0
 30
0.0
  9
$PLIMCHECK
 70
     0
  9
$PEXTMIN
 10
0.0
 20
0.0
 30
0.0
  9
$PEXTMAX
 10
297.0
 20
210.0
 30
0.0
  9
$PLIMMIN
 10
0.0
 20
0.0
  9
$PLIMMAX
 10
297.0
 20
210.0
  9
$UNITMODE
 70
     0
  9
$VISRETAIN
 70
     1
  9
$PLINEGEN
 70
     0
  9
$PSLTSCALE
 70
     1
  9
$TREEDEPTH
 70
  3020
  9
$CMLSTYLE
  2
Standard
  9
$CMLJUST
 70
     0
  9
$CMLSCALE
 40
1.0
  9
$PROXYGRAPHICS
 70
     1
  9
$MEASUREMENT
 70
     1
  9
$CELWEIGHT
370
    -1
  9
$ENDCAPS
280
     0
  9
$JOINSTYLE
280
     0
  9
$LWDISPLAY
290
     0
  9
$INSUNITS
 70
     4
  9
$HYPERLINKBASE
  1

  9
$STYLESHEET
  1

  9
$XEDIT
290
     1
  9
$CEPSNTYPE
380
     0
  9
$PSTYLEMODE
290
     1
  9
$FINGERPRINTGUID
  2
{26131655-0699-4b09-9123-2abe02870bbc}
  9
$VERSIONGUID
  2
{FAEB1C32-E019-11D5-929B-00C0DF256EC4}
  9
$EXTNAMES
290
     1
  9
$PSVPSCALE
 40
0.0
  9
$OLESTARTUP
290
     0
  9
$SORTENTS
280
   127
  9
$INDEXCTL
280
     0
  9
$HIDETEXT
280
     1
  9
$XCLIPFRAME
280
     2
  9
$HALOGAP
280
     0
  9
$OBSCOLOR
 70
   257
  9
$OBSLTYPE
280
     0
  9
$INTERSECTIONDISPLAY
280
     0
  9
$INTERSECTIONCOLOR
 70
   257
  9
$DIMASSOC
280
     1
  9
$PROJECTNAME
  1

  9
$CAMERADISPLAY
290
     0
  9
$LENSLENGTH
 40
50.0
  9
$CAMERAHEIGHT
 40
0.0
  9
$STEPSPERSEC
 40
2.0
  9
$STEPSIZE
 40
6.0
  9
$3DDWFPREC
 40
2.0
  9
$PSOLWIDTH
 40
0.25
  9
$PSOLHEIGHT
 40
4.0
  9
$LOFTANG1
 40
1.570796326794897
  9
$LOFTANG2
 40
1.570796326794897
  9
$LOFTMAG1
 40
0.0
  9
$LOFTMAG2
 40
0.0
  9
$LOFTPARAM
 70
     7
  9
$LOFTNORMALS
280
     1
  9
$LATITUDE
 40
37.795
  9
$LONGITUDE
 40
-122.394
  9
$NORTHDIRECTION
 40
0.0
  9
$TIMEZONE
 70
 -8000
  9
$LIGHTGLYPHDISPLAY
280
     1
  9
$TILEMODELIGHTSYNCH
280
     1
  9
$CMATERIAL
347
44
  9
$SOLIDHIST
280
     0
  9
$SHOWHIST
280
     1
  9
$DWFFRAME
280
     2
  9
$DGNFRAME
280
     2
  9
$REALWORLDSCALE
290
     1
  9
$INTERFERECOLOR
 62
   256
  9
$CSHADOW
280
     0
  9
$SHADOWPLANELOCATION
 40
0.0
  0
ENDSEC
  0
SECTION
  2
CLASSES
  0
CLASS
  1
ACDBDICTIONARYWDFLT
  2
AcDbDictionaryWithDefault
  3
ObjectDBX Classes
 90
        0
 91
        3
280
     0
281
     0
  0
CLASS
  1
VISUALSTYLE
  2
AcDbVisualStyle
  3
ObjectDBX Classes
 90
     4095
 91
        3
280
     0
281
     0
  0
CLASS
  1
MATERIAL
  2
AcDbMaterial
  3
ObjectDBX Classes
 90
     1153
 91
        3
280
     0
281
     0
  0
CLASS
  1
SCALE
  2
AcDbScale
  3
ObjectDBX Classes
 90
     1153
 91
        3
280
     0
281
     0
  0
CLASS
  1
TABLESTYLE
  2
AcDbTableStyle
  3
ObjectDBX Classes
 90
     4095
 91
        3
280
     0
281
     0
  0
CLASS
  1
MLEADERSTYLE
  2
AcDbMLeaderStyle
  3
ACDB_MLEADERSTYLE_CLASS
 90
     4095
 91
        3
280
     0
281
     0
  0
CLASS
  1
SUN
  2
AcDbSun
  3
SCENEOE
 90
     1153
 91
        3
280
     0
281
     0
  0
CLASS
  1
DICTIONARYVAR
  2
AcDbDictionaryVar
  3
ObjectDBX Classes
 90
        0
 91
        3
280
     0
281
     0
  0
CLASS
  1
CELLSTYLEMAP
  2
AcDbCellStyleMap
  3
ObjectDBX Classes
 90
     1152
 91
        3
280
     0
281
     0
  0
ENDSEC
  0
SECTION
  2
TABLES
  0
TABLE
  2
VPORT
  5
8
330
0
100
AcDbSymbolTable
 70
     1
  0
VPORT
  5
29
330
8
100
AcDbSymbolTableRecord
100
AcDbViewportTableRecord
  2
*Active
 70
     0
 10
0.0
 20
0.0
 11
1.0
 21
1.0
 12
10.42990654205607
 22
4.5
 13
0.0
 23
0.0
 14
0.5
 24
0.5
 15
0.5
 25
0.5
 16
0.0
 26
0.0
 36
1.0
 17
0.0
 27
0.0
 37
0.0
 40
9.0
 41
1.972972972850329
 42
50.0
 43
0.0
 44
0.0
 50
0.0
 51
0.0
 71
     0
 72
   100
 73
     1
 74
     3
 75
     0
 76
     0
 77
     0
 78
     0
281
     0
 65
     1
110
0.0
120
0.0
130
0.0
111
1.0
121
0.0
131
0.0
112
0.0
122
1.0
132
0.0
 79
     0
146
0.0
348
2F
 60
     3
 61
     5
292
     1
282
     1
141
0.0
142
0.0
 63
   250
361
6D
  0
ENDTAB
  0
TABLE
  2
LTYPE
  5
5
330
0
100
AcDbSymbolTable
 70
     9
  0
LTYPE
  5
14
330
5
100
AcDbSymbolTableRecord
100
AcDbLinetypeTableRecord
  2
ByBlock
 70
     0
  3

 72
    65
 73
     0
 40
0.0
  0
LTYPE
  5
15
330
5
100
AcDbSymbolTableRecord
100
AcDbLinetypeTableRecord
  2
ByLayer
 70
     0
  3

 72
    65
 73
     0
 40
0.0
  0
LTYPE
  5
16
330
5
100
AcDbSymbolTableRecord
100
AcDbLinetypeTableRecord
  2
Continuous
 70
     0
  3
Solid line
 72
    65
 73
     0
 40
0.0
  0
LTYPE
  5
BC
330
5
100
AcDbSymbolTableRecord
100
AcDbLinetypeTableRecord
  2
DOT
 70
     0
  3
DOT
 72
    65
 73
     2
 40
4.0
 49
6.0
 74
     0
 49
-2.0
 74
     0
  0
LTYPE
  5
BD
330
5
100
AcDbSymbolTableRecord
100
AcDbLinetypeTableRecord
  2
HIDDEN
 70
     0
  3
HIDDEN
 72
    65
 73
     2
 40
4.2
 49
8.4
 74
     0
 49
-4.2
 74
     0
  0
LTYPE
  5
BE
330
5
100
AcDbSymbolTableRecord
100
AcDbLinetypeTableRecord
  2
DASHDOT
 70
     0
  3
DASHDOT
 72
    65
 73
     4
 40
14.5
 49
30.0
 74
     0
 49
-9.0
 74
     0
 49
2.5
 74
     0
 49
-9.0
 74
     0
  0
LTYPE
  5
BF
330
5
100
AcDbSymbolTableRecord
100
AcDbLinetypeTableRecord
  2
PHANTOM
 70
     0
  3
PHANTOM
 72
    65
 73
     6
 40
12.0
 49
30.0
 74
     0
 49
-9.0
 74
     0
 49
2.5
 74
     0
 49
-5.0
 74
     0
 49
2.5
 74
     0
 49
-9.0
 74
     0
  0
LTYPE
  5
C0
330
5
100
AcDbSymbolTableRecord
100
AcDbLinetypeTableRecord
  2
ACAD_ISO14W100
 70
     0
  3
ACAD_ISO14W100
 72
    65
 73
     8
 40
1.5
 49
12.0
 74
     0
 49
-3.0
 74
     0
 49
0.5
 74
     0
 49
-3.0
 74
     0
 49
0.5
 74
     0
 49
-3.0
 74
     0
 49
0.5
 74
     0
 49
-3.0
 74
     0
  0
LTYPE
  5
C1
330
5
100
AcDbSymbolTableRecord
100
AcDbLinetypeTableRecord
  2
ACAD_ISO06W100
 70
     0
  3
ACAD_ISO06W100
 72
    65
 73
     8
 40
13.5
 49
24.0
 74
     0
 49
-3.0
 74
     0
 49
0.5
 74
     0
 49
-3.0
 74
     0
 49
0.5
 74
     0
 49
-3.0
 74
     0
 49
0.5
 74
     0
 49
-3.0
 74
     0
  0
LTYPE
  5
C2
330
5
100
AcDbSymbolTableRecord
100
AcDbLinetypeTableRecord
  2
ACAD_ISO11W100
 70
     0
  3
ACAD_ISO11W100
 72
    65
 73
     6
 40
15.5
 49
12.0
 74
     0
 49
-3.0
 74
     0
 49
12.0
 74
     0
 49
-3.0
 74
     0
 49
0.5
 74
     0
 49
-3.0
 74
     0
  0
LTYPE
  5
C3
330
5
100
AcDbSymbolTableRecord
100
AcDbLinetypeTableRecord
  2
ACAD_ISO13W100
 70
     0
  3
ACAD_ISO13W100
 72
    65
 73
     8
 40
13.0
 49
12.0
 74
     0
 49
-3.0
 74
     0
 49
12.0
 74
     0
 49
-3.0
 74
     0
 49
0.5
 74
     0
 49
-3.0
 74
     0
 49
0.5
 74
     0
 49
-3.0
 74
     0
  0
ENDTAB
  0
TABLE
  2
LAYER
  5
2
330
0
100
AcDbSymbolTable
 70
    23
  0
LAYER
  5
10
330
2
100
AcDbSymbolTableRecord
100
AcDbLayerTableRecord
  2
0
 70
     0
 62
     7
  6
Continuous
370
    -3
390
F
347
46
348
0
  0
LAYER
  5
C4
330
2
100
AcDbSymbolTableRecord
100
AcDbLayerTableRecord
  2
1
 70
     0
 62
     7
  6
Continuous
370
     9
390
F
347
46
348
0
  0
LAYER
  5
C5
330
2
100
AcDbSymbolTableRecord
100
AcDbLayerTableRecord
  2
2
 70
     0
 62
   136
420
    32896
  6
Continuous
370
     9
390
F
347
46
348
0
  0
LAYER
  5
C6
330
2
100
AcDbSymbolTableRecord
100
AcDbLayerTableRecord
  2
3
 70
     0
 62
   216
420
  8388736
  6
Continuous
370
     9
390
F
347
46
348
0
  0
LAYER
  5
C7
330
2
100
AcDbSymbolTableRecord
100
AcDbLayerTableRecord
  2
4
 70
     0
 62
    56
420
  8421376
  6
Continuous
370
     9
390
F
347
46
348
0
  0
LAYER
  5
C8
330
2
100
AcDbSymbolTableRecord
100
AcDbLayerTableRecord
  2
5
 70
     0
 62
    96
420
    32768
  6
Continuous
370
     9
390
F
347
46
348
0
  0
LAYER
  5
C9
330
2
100
AcDbSymbolTableRecord
100
AcDbLayerTableRecord
  2
6
 70
     0
 62
    16
420
  8388608
  6
Continuous
370
     9
390
F
347
46
348
0
  0
LAYER
  5
CA
330
2
100
AcDbSymbolTableRecord
100
AcDbLayerTableRecord
  2
7
 70
     0
 62
     4
  6
Continuous
370
     9
390
F
347
46
348
0
  0
LAYER
  5
CB
330
2
100
AcDbSymbolTableRecord
100
AcDbLayerTableRecord
  2
8
 70
     0
 62
     6
  6
Continuous
370
     9
390
F
347
46
348
0
  0
LAYER
  5
CC
330
2
100
AcDbSymbolTableRecord
100
AcDbLayerTableRecord
  2
9
 70
     0
 62
     2
  6
Continuous
370
     9
390
F
347
46
348
0
  0
LAYER
  5
CD
330
2
100
AcDbSymbolTableRecord
100
AcDbLayerTableRecord
  2
10
 70
     0
 62
     3
  6
Continuous
370
     9
390
F
347
46
348
0
  0
LAYER
  5
CE
330
2
100
AcDbSymbolTableRecord
100
AcDbLayerTableRecord
  2
11
 70
     0
 62
     8
420
  8421504
  6
Continuous
370
     9
390
F
347
46
348
0
  0
LAYER
  5
CF
330
2
100
AcDbSymbolTableRecord
100
AcDbLayerTableRecord
  2
12
 70
     0
 62
   138
420
    20560
  6
Continuous
370
     9
390
F
347
46
348
0
  0
LAYER
  5
D0
330
2
100
AcDbSymbolTableRecord
100
AcDbLayerTableRecord
  2
13
 70
     0
 62
   218
420
  5242960
  6
Continuous
370
     9
390
F
347
46
348
0
  0
LAYER
  5
D1
330
2
100
AcDbSymbolTableRecord
100
AcDbLayerTableRecord
  2
14
 70
     0
 62
    58
420
  5263360
  6
Continuous
370
     9
390
F
347
46
348
0
  0
LAYER
  5
D2
330
2
100
AcDbSymbolTableRecord
100
AcDbLayerTableRecord
  2
15
 70
     0
 62
    98
420
    20480
  6
Continuous
370
     9
390
F
347
46
348
0
  0
LAYER
  5
D3
330
2
100
AcDbSymbolTableRecord
100
AcDbLayerTableRecord
  2
16
 70
     0
 62
    18
420
  5242880
  6
Continuous
370
     9
390
F
347
46
348
0
  0
LAYER
  5
D4
330
2
100
AcDbSymbolTableRecord
100
AcDbLayerTableRecord
  2
17
 70
     0
 62
   132
420
    49344
  6
Continuous
370
     9
390
F
347
46
348
0
  0
LAYER
  5
D5
330
2
100
AcDbSymbolTableRecord
100
AcDbLayerTableRecord
  2
18
 70
     0
 62
   212
420
 12583104
  6
Continuous
370
     9
390
F
347
46
348
0
  0
LAYER
  5
D6
330
2
100
AcDbSymbolTableRecord
100
AcDbLayerTableRecord
  2
19
 70
     0
 62
    52
420
 12632064
  6
Continuous
370
     9
390
F
347
46
348
0
  0
LAYER
  5
D7
330
2
100
AcDbSymbolTableRecord
100
AcDbLayerTableRecord
  2
20
 70
     0
 62
   251
420
  5263440
  6
Continuous
370
     9
390
F
347
46
348
0
  0
LAYER
  5
D8
330
2
100
AcDbSymbolTableRecord
100
AcDbLayerTableRecord
  2
21
 70
     0
 62
     7
  6
Continuous
370
     9
390
F
347
46
348
0
  0
LAYER
  5
D9
330
2
100
AcDbSymbolTableRecord
100
AcDbLayerTableRecord
  2
101
 70
     0
 62
     7
  6
Continuous
370
     9
390
F
347
46
348
0
  0
ENDTAB
  0
TABLE
  2
STYLE
  5
3
330
0
100
AcDbSymbolTable
 70
     2
  0
STYLE
  5
11
330
3
100
AcDbSymbolTableRecord
100
AcDbTextStyleTableRecord
  2
Standard
 70
     0
 40
0.0
 41
1.0
 50
0.0
 71
     0
 42
5.0
  3
txt
  4
bigfont
  0
STYLE
  5
6F
330
3
100
AcDbSymbolTableRecord
100
AcDbTextStyleTableRecord
  2
T_STANDARD
 70
     4
 40
10.0
 41
1.0
 50
0.0
 71
     0
 42
5.0
  3
txt
  4
bigfont
1001
ACAD
1000

1071
      256
  0
ENDTAB
  0
TABLE
  2
VIEW
  5
6
330
0
100
AcDbSymbolTable
 70
     0
  0
ENDTAB
  0
TABLE
  2
UCS
  5
7
330
0
100
AcDbSymbolTable
 70
     0
  0
ENDTAB
  0
TABLE
  2
APPID
  5
9
330
0
100
AcDbSymbolTable
 70
     2
  0
APPID
  5
12
330
9
100
AcDbSymbolTableRecord
100
AcDbRegAppTableRecord
  2
ACAD
 70
     0
  0
APPID
  5
6E
330
9
100
AcDbSymbolTableRecord
100
AcDbRegAppTableRecord
  2
ODA
 70
     0
  0
ENDTAB
  0
TABLE
  2
DIMSTYLE
  5
A
330
0
100
AcDbSymbolTable
 70
     1
100
AcDbDimStyleTable
  0
DIMSTYLE
105
27
330
A
100
AcDbSymbolTableRecord
100
AcDbDimStyleTableRecord
  2
Standard
 70
     0
178
     0
340
11
  0
ENDTAB
  0
TABLE
  2
BLOCK_RECORD
  5
1
330
0
100
AcDbSymbolTable
 70
    16
  0
BLOCK_RECORD
  5
1F
330
1
100
AcDbSymbolTableRecord
100
AcDbBlockTableRecord
  2
*Model_Space
340
22
 70
     0
280
     1
281
     0
  0
BLOCK_RECORD
  5
1B
330
1
100
AcDbSymbolTableRecord
100
AcDbBlockTableRecord
  2
*Paper_Space
340
1E
 70
     0
280
     1
281
     0
  0
BLOCK_RECORD
  5
23
330
1
100
AcDbSymbolTableRecord
100
AcDbBlockTableRecord
  2
*Paper_Space0
340
26
 70
     0
280
     1
281
     0
  0
BLOCK_RECORD
  5
70
330
1
100
AcDbSymbolTableRecord
100
AcDbBlockTableRecord
  2
_ORIGIN
340
0
 70
     0
280
     1
281
     0
  0
BLOCK_RECORD
  5
75
330
1
100
AcDbSymbolTableRecord
100
AcDbBlockTableRecord
  2
_DOTBLANK
340
0
 70
     0
280
     1
281
     0
  0
BLOCK_RECORD
  5
7A
330
1
100
AcDbSymbolTableRecord
100
AcDbBlockTableRecord
  2
_DOT
340
0
 70
     0
280
     1
281
     0
  0
BLOCK_RECORD
  5
7F
330
1
100
AcDbSymbolTableRecord
100
AcDbBlockTableRecord
  2
_OPEN
340
0
 70
     0
280
     1
281
     0
  0
BLOCK_RECORD
  5
85
330
1
100
AcDbSymbolTableRecord
100
AcDbBlockTableRecord
  2
_CLOSED
340
0
 70
     0
280
     1
281
     0
  0
BLOCK_RECORD
  5
8C
330
1
100
AcDbSymbolTableRecord
100
AcDbBlockTableRecord
  2
_CLOSEDBLANK
340
0
 70
     0
280
     1
281
     0
  0
BLOCK_RECORD
  5
92
330
1
100
AcDbSymbolTableRecord
100
AcDbBlockTableRecord
  2
_ARROWFILLED
340
0
 70
     0
280
     1
281
     0
  0
BLOCK_RECORD
  5
96
330
1
100
AcDbSymbolTableRecord
100
AcDbBlockTableRecord
  2
_BOXBLANK
340
0
 70
     0
280
     1
281
     0
  0
BLOCK_RECORD
  5
9E
330
1
100
AcDbSymbolTableRecord
100
AcDbBlockTableRecord
  2
_BOXFILLED
340
0
 70
     0
280
     1
281
     0
  0
BLOCK_RECORD
  5
A3
330
1
100
AcDbSymbolTableRecord
100
AcDbBlockTableRecord
  2
_INTEGRAL
340
0
 70
     0
280
     1
281
     0
  0
BLOCK_RECORD
  5
A8
330
1
100
AcDbSymbolTableRecord
100
AcDbBlockTableRecord
  2
_OBLIQUE
340
0
 70
     0
280
     1
281
     0
  0
BLOCK_RECORD
  5
AC
330
1
100
AcDbSymbolTableRecord
100
AcDbBlockTableRecord
  2
_NONE
340
0
 70
     0
280
     1
281
     0
  0
BLOCK_RECORD
  5
AF
330
1
100
AcDbSymbolTableRecord
100
AcDbBlockTableRecord
  2
MARK_OPEN
340
0
 70
     0
280
     1
281
     0
  0
BLOCK_RECORD
  5
B4
330
1
100
AcDbSymbolTableRecord
100
AcDbBlockTableRecord
  2
MARK_ORIGIN
340
0
 70
     0
280
     1
281
     0
  0
BLOCK_RECORD
  5
B8
330
1
100
AcDbSymbolTableRecord
100
AcDbBlockTableRecord
  2
MARK_DOT
340
0
 70
     0
280
     1
281
     0
  0
ENDTAB
  0
ENDSEC
  0
SECTION
  2
BLOCKS
  0
BLOCK
  5
20
330
1F
100
AcDbEntity
  8
0
100
AcDbBlockBegin
  2
*Model_Space
 70
     0
 10
0.0
 20
0.0
 30
0.0
  3
*Model_Space
  1

  0
ENDBLK
  5
21
330
1F
100
AcDbEntity
  8
0
100
AcDbBlockEnd
  0
BLOCK
  5
1C
330
1B
100
AcDbEntity
 67
     1
  8
0
100
AcDbBlockBegin
  2
*Paper_Space
 70
     0
 10
0.0
 20
0.0
 30
0.0
  3
*Paper_Space
  1

  0
ENDBLK
  5
1D
330
1B
100
AcDbEntity
 67
     1
  8
0
100
AcDbBlockEnd
  0
BLOCK
  5
24
330
23
100
AcDbEntity
  8
0
100
AcDbBlockBegin
  2
*Paper_Space0
 70
     0
 10
0.0
 20
0.0
 30
0.0
  3
*Paper_Space0
  1

  0
ENDBLK
  5
25
330
23
100
AcDbEntity
  8
0
100
AcDbBlockEnd
  0
BLOCK
  5
73
330
70
100
AcDbEntity
  8
0
100
AcDbBlockBegin
  2
_ORIGIN
 70
     0
 10
0.0
 20
0.0
 30
0.0
  3
_ORIGIN
  1

  0
CIRCLE
  5
71
330
70
100
AcDbEntity
  8
0
 62
     0
100
AcDbCircle
 10
0.0
 20
0.0
 30
0.0
 40
0.5
  0
LINE
  5
72
330
70
100
AcDbEntity
  8
0
 62
     0
100
AcDbLine
 10
0.0
 20
0.0
 30
0.0
 11
-1.0
 21
0.0
 31
0.0
  0
ENDBLK
  5
74
330
70
100
AcDbEntity
  8
0
100
AcDbBlockEnd
  0
BLOCK
  5
78
330
75
100
AcDbEntity
  8
0
100
AcDbBlockBegin
  2
_DOTBLANK
 70
     0
 10
0.0
 20
0.0
 30
0.0
  3
_DOTBLANK
  1

  0
CIRCLE
  5
76
330
75
100
AcDbEntity
  8
0
 62
     0
100
AcDbCircle
 10
0.0
 20
0.0
 30
0.0
 40
0.5
  0
LINE
  5
77
330
75
100
AcDbEntity
  8
0
 62
     0
100
AcDbLine
 10
-0.5
 20
0.0
 30
0.0
 11
-1.0
 21
0.0
 31
0.0
  0
ENDBLK
  5
79
330
75
100
AcDbEntity
  8
0
100
AcDbBlockEnd
  0
BLOCK
  5
7D
330
7A
100
AcDbEntity
  8
0
100
AcDbBlockBegin
  2
_DOT
 70
     0
 10
0.0
 20
0.0
 30
0.0
  3
_DOT
  1

  0
LWPOLYLINE
  5
7B
330
7A
100
AcDbEntity
  8
0
 62
     0
100
AcDbPolyline
 90
        2
 70
     1
 43
0.5
 10
-0.25
 20
0.0
 42
1.0
 10
0.25
 20
0.0
 42
1.0
  0
LINE
  5
7C
330
7A
100
AcDbEntity
  8
0
 62
     0
100
AcDbLine
 10
-0.5
 20
0.0
 30
0.0
 11
-1.0
 21
0.0
 31
0.0
  0
ENDBLK
  5
7E
330
7A
100
AcDbEntity
  8
0
100
AcDbBlockEnd
  0
BLOCK
  5
83
330
7F
100
AcDbEntity
  8
0
100
AcDbBlockBegin
  2
_OPEN
 70
     0
 10
0.0
 20
0.0
 30
0.0
  3
_OPEN
  1

  0
LINE
  5
80
330
7F
100
AcDbEntity
  8
0
 62
     0
100
AcDbLine
 10
0.0
 20
0.0
 30
0.0
 11
-1.0
 21
0.1666666666666667
 31
0.0
  0
LINE
  5
81
330
7F
100
AcDbEntity
  8
0
 62
     0
100
AcDbLine
 10
0.0
 20
0.0
 30
0.0
 11
-1.0
 21
-0.1666666666666667
 31
0.0
  0
LINE
  5
82
330
7F
100
AcDbEntity
  8
0
 62
     0
100
AcDbLine
 10
0.0
 20
0.0
 30
0.0
 11
-1.0
 21
0.0
 31
0.0
  0
ENDBLK
  5
84
330
7F
100
AcDbEntity
  8
0
100
AcDbBlockEnd
  0
BLOCK
  5
8A
330
85
100
AcDbEntity
  8
0
100
AcDbBlockBegin
  2
_CLOSED
 70
     0
 10
0.0
 20
0.0
 30
0.0
  3
_CLOSED
  1

  0
LINE
  5
86
330
85
100
AcDbEntity
  8
0
 62
     0
100
AcDbLine
 10
0.0
 20
0.0
 30
0.0
 11
-1.0
 21
0.1666666666666667
 31
0.0
  0
LINE
  5
87
330
85
100
AcDbEntity
  8
0
 62
     0
100
AcDbLine
 10
0.0
 20
0.0
 30
0.0
 11
-1.0
 21
-0.1666666666666667
 31
0.0
  0
LINE
  5
88
330
85
100
AcDbEntity
  8
0
 62
     0
100
AcDbLine
 10
-1.0
 20
0.1666666666666667
 30
0.0
 11
-1.0
 21
-0.1666666666666667
 31
0.0
  0
LINE
  5
89
330
85
100
AcDbEntity
  8
0
 62
     0
100
AcDbLine
 10
0.0
 20
0.0
 30
0.0
 11
-1.0
 21
0.0
 31
0.0
  0
ENDBLK
  5
8B
330
85
100
AcDbEntity
  8
0
100
AcDbBlockEnd
  0
BLOCK
  5
90
330
8C
100
AcDbEntity
  8
0
100
AcDbBlockBegin
  2
_CLOSEDBLANK
 70
     0
 10
0.0
 20
0.0
 30
0.0
  3
_CLOSEDBLANK
  1

  0
LINE
  5
8D
330
8C
100
AcDbEntity
  8
0
 62
     0
100
AcDbLine
 10
0.0
 20
0.0
 30
0.0
 11
-1.0
 21
0.1666666666666667
 31
0.0
  0
LINE
  5
8E
330
8C
100
AcDbEntity
  8
0
 62
     0
100
AcDbLine
 10
0.0
 20
0.0
 30
0.0
 11
-1.0
 21
-0.1666666666666667
 31
0.0
  0
LINE
  5
8F
330
8C
100
AcDbEntity
  8
0
 62
     0
100
AcDbLine
 10
-1.0
 20
0.1666666666666667
 30
0.0
 11
-1.0
 21
-0.1666666666666667
 31
0.0
  0
ENDBLK
  5
91
330
8C
100
AcDbEntity
  8
0
100
AcDbBlockEnd
  0
BLOCK
  5
94
330
92
100
AcDbEntity
  8
0
100
AcDbBlockBegin
  2
_ARROWFILLED
 70
     0
 10
0.0
 20
0.0
 30
0.0
  3
_ARROWFILLED
  1

  0
SOLID
  5
93
330
92
100
AcDbEntity
  8
0
 62
     0
100
AcDbTrace
 10
0.0
 20
0.0
 30
0.0
 11
-1.0
 21
-0.1666666666666667
 31
0.0
 12
-1.0
 22
0.1666666666666667
 32
0.0
 13
0.0
 23
0.0
 33
0.0
  0
ENDBLK
  5
95
330
92
100
AcDbEntity
  8
0
100
AcDbBlockEnd
  0
BLOCK
  5
9C
330
96
100
AcDbEntity
  8
0
100
AcDbBlockBegin
  2
_BOXBLANK
 70
     0
 10
0.0
 20
0.0
 30
0.0
  3
_BOXBLANK
  1

  0
LINE
  5
97
330
96
100
AcDbEntity
  8
0
 62
     0
100
AcDbLine
 10
-0.5
 20
-0.5
 30
0.0
 11
0.5
 21
-0.5
 31
0.0
  0
LINE
  5
98
330
96
100
AcDbEntity
  8
0
 62
     0
100
AcDbLine
 10
0.5
 20
-0.5
 30
0.0
 11
0.5
 21
0.5
 31
0.0
  0
LINE
  5
99
330
96
100
AcDbEntity
  8
0
 62
     0
100
AcDbLine
 10
0.5
 20
0.5
 30
0.0
 11
-0.5
 21
0.5
 31
0.0
  0
LINE
  5
9A
330
96
100
AcDbEntity
  8
0
 62
     0
100
AcDbLine
 10
-0.5
 20
0.5
 30
0.0
 11
-0.5
 21
-0.5
 31
0.0
  0
LINE
  5
9B
330
96
100
AcDbEntity
  8
0
 62
     0
100
AcDbLine
 10
-0.5
 20
0.0
 30
0.0
 11
-1.0
 21
0.0
 31
0.0
  0
ENDBLK
  5
9D
330
96
100
AcDbEntity
  8
0
100
AcDbBlockEnd
  0
BLOCK
  5
A1
330
9E
100
AcDbEntity
  8
0
100
AcDbBlockBegin
  2
_BOXFILLED
 70
     0
 10
0.0
 20
0.0
 30
0.0
  3
_BOXFILLED
  1

  0
SOLID
  5
9F
330
9E
100
AcDbEntity
  8
0
 62
     0
100
AcDbTrace
 10
-0.5
 20
0.5
 30
0.0
 11
0.5
 21
0.5
 31
0.0
 12
-0.5
 22
-0.5
 32
0.0
 13
0.5
 23
-0.5
 33
0.0
  0
LINE
  5
A0
330
9E
100
AcDbEntity
  8
0
 62
     0
100
AcDbLine
 10
-0.5
 20
0.0
 30
0.0
 11
-1.0
 21
0.0
 31
0.0
  0
ENDBLK
  5
A2
330
9E
100
AcDbEntity
  8
0
100
AcDbBlockEnd
  0
BLOCK
  5
A6
330
A3
100
AcDbEntity
  8
0
100
AcDbBlockBegin
  2
_INTEGRAL
 70
     0
 10
0.0
 20
0.0
 30
0.0
  3
_INTEGRAL
  1

  0
ARC
  5
A4
330
A3
100
AcDbEntity
  8
0
 62
     0
100
AcDbCircle
 10
0.444888
 20
-0.0913346
 30
0.0
 40
0.4541666
100
AcDbArc
 50
101.9999999999999
 51
167.9999999999998
  0
ARC
  5
A5
330
A3
100
AcDbEntity
  8
0
 62
     0
100
AcDbCircle
 10
-0.444888
 20
0.0913346
 30
0.0
 40
0.4541666
100
AcDbArc
 50
281.9999999999997
 51
347.9999999999997
  0
ENDBLK
  5
A7
330
A3
100
AcDbEntity
  8
0
100
AcDbBlockEnd
  0
BLOCK
  5
AA
330
A8
100
AcDbEntity
  8
0
100
AcDbBlockBegin
  2
_OBLIQUE
 70
     0
 10
0.0
 20
0.0
 30
0.0
  3
_OBLIQUE
  1

  0
LINE
  5
A9
330
A8
100
AcDbEntity
  8
0
 62
     0
100
AcDbLine
 10
-0.5
 20
-0.5
 30
0.0
 11
0.5
 21
0.5
 31
0.0
  0
ENDBLK
  5
AB
330
A8
100
AcDbEntity
  8
0
100
AcDbBlockEnd
  0
BLOCK
  5
AD
330
AC
100
AcDbEntity
  8
0
100
AcDbBlockBegin
  2
_NONE
 70
     0
 10
0.0
 20
0.0
 30
0.0
  3
_NONE
  1

  0
ENDBLK
  5
AE
330
AC
100
AcDbEntity
  8
0
100
AcDbBlockEnd
  0
BLOCK
  5
B2
330
AF
100
AcDbEntity
  8
0
100
AcDbBlockBegin
  2
MARK_OPEN
 70
     0
 10
0.0
 20
0.0
 30
0.0
  3
MARK_OPEN
  1

  0
LINE
  5
B0
330
AF
100
AcDbEntity
  8
0
 62
     0
100
AcDbLine
 10
0.0
 20
0.0
 30
0.0
 11
-1.0
 21
0.1666666666666667
 31
0.0
  0
LINE
  5
B1
330
AF
100
AcDbEntity
  8
0
 62
     0
100
AcDbLine
 10
0.0
 20
0.0
 30
0.0
 11
-1.0
 21
-0.1666666666666667
 31
0.0
  0
ENDBLK
  5
B3
330
AF
100
AcDbEntity
  8
0
100
AcDbBlockEnd
  0
BLOCK
  5
B6
330
B4
100
AcDbEntity
  8
0
100
AcDbBlockBegin
  2
MARK_ORIGIN
 70
     0
 10
0.0
 20
0.0
 30
0.0
  3
MARK_ORIGIN
  1

  0
CIRCLE
  5
B5
330
B4
100
AcDbEntity
  8
0
 62
     0
100
AcDbCircle
 10
0.0
 20
0.0
 30
0.0
 40
0.5
  0
ENDBLK
  5
B7
330
B4
100
AcDbEntity
  8
0
100
AcDbBlockEnd
  0
BLOCK
  5
BA
330
B8
100
AcDbEntity
  8
0
100
AcDbBlockBegin
  2
MARK_DOT
 70
     0
 10
0.0
 20
0.0
 30
0.0
  3
MARK_DOT
  1

  0
LWPOLYLINE
  5
B9
330
B8
100
AcDbEntity
  8
0
 62
     0
100
AcDbPolyline
 90
        2
 70
     1
 43
0.5
 10
-0.25
 20
0.0
 42
1.0
 10
0.25
 20
0.0
 42
1.0
  0
ENDBLK
  5
BB
330
B8
100
AcDbEntity
  8
0
100
AcDbBlockEnd
  0
ENDSEC
  0
SECTION
  2
ENTITIES
  0
LINE
  5
DA
330
1F
100
AcDbEntity
  8
101
  6
Continuous
 62
     7
370
    30
100
AcDbLine
 10
63.39096486335757
 20
214.5454545454546
 30
0.0
 11
62.45346486335757
 21
161.9976265822781
 31
0.0
  0
LINE
  5
DB
330
1F
100
AcDbEntity
  8
101
  6
Continuous
 62
     7
370
    30
100
AcDbLine
 10
62.45346486335757
 20
161.9976265822781
 30
0.0
 11
57.14096486335757
 21
162.1680811277326
 31
0.0
  0
LINE
  5
DC
330
1F
100
AcDbEntity
  8
101
  6
Continuous
 62
     7
370
    30
100
AcDbLine
 10
57.14096486335757
 20
162.1680811277326
 30
0.0
 11
56.81426031790302
 21
161.9976265822781
 31
0.0
  0
LINE
  5
DD
330
1F
100
AcDbEntity
  8
101
  6
Continuous
 62
     7
370
    30
100
AcDbLine
 10
56.81426031790302
 20
161.9976265822781
 30
0.0
 11
56.82846486335757
 21
161.2873993095508
 31
0.0
  0
LINE
  5
DE
330
1F
100
AcDbEntity
  8
101
  6
Continuous
 62
     7
370
    30
100
AcDbLine
 10
56.82846486335757
 20
161.2873993095508
 30
0.0
 11
58.03585122699393
 21
141.5430811277326
 31
0.0
  0
LINE
  5
DF
330
1F
100
AcDbEntity
  8
101
  6
Continuous
 62
     7
370
    30
100
AcDbLine
 10
58.03585122699393
 20
141.5430811277326
 30
0.0
 11
58.03585122699393
 21
136.6567174913689
 31
0.0
  0
LINE
  5
E0
330
1F
100
AcDbEntity
  8
101
  6
Continuous
 62
     7
370
    30
100
AcDbLine
 10
58.03585122699393
 20
136.6567174913689
 30
0.0
 11
57.75176031790303
 21
131.4862629459144
 31
0.0
  0
LINE
  5
E1
330
1F
100
AcDbEntity
  8
101
  6
Continuous
 62
     7
370
    30
100
AcDbLine
 10
57.75176031790303
 20
131.4862629459144
 30
0.0
 11
57.35403304517575
 21
125.5771720368235
 31
0.0
  0
LINE
  5
E2
330
1F
100
AcDbEntity
  8
101
  6
Continuous
 62
     7
370
    30
100
AcDbLine
 10
57.35403304517575
 20
125.5771720368235
 30
0.0
 11
56.61539668153939
 21
117.7220584004598
 31
0.0
  0
LINE
  5
E3
330
1F
100
AcDbEntity
  8
101
  6
Continuous
 62
     7
370
    30
100
AcDbLine
 10
56.61539668153939
 20
117.7220584004598
 30
0.0
 11
56.51596486335757
 21
115.8896720368235
 31
0.0
  0
LINE
  5
E4
330
1F
100
AcDbEntity
  8
101
  6
Continuous
 62
     7
370
    30
100
AcDbLine
 10
56.51596486335757
 20
115.8896720368235
 30
0.0
 11
56.5585784997212
 21
115.5487629459144
 31
0.0
  0
LINE
  5
E5
330
1F
100
AcDbEntity
  8
101
  6
Continuous
 62
     7
370
    30
100
AcDbLine
 10
56.5585784997212
 20
115.5487629459144
 30
0.0
 11
57.21198759063029
 21
115.2078538550053
 31
0.0
  0
LINE
  5
E6
330
1F
100
AcDbEntity
  8
101
  6
Continuous
 62
     7
370
    30
100
AcDbLine
 10
57.21198759063029
 20
115.2078538550053
 30
0.0
 11
58.51880577244847
 21
114.7959220368235
 31
0.0
  0
LINE
  5
E7
330
1F
100
AcDbEntity
  8
101
  6
Continuous
 62
     7
370
    30
100
AcDbLine
 10
58.51880577244847
 20
114.7959220368235
 30
0.0
 11
60.29437395426666
 21
114.5544447640962
 31
0.0
  0
LINE
  5
E8
330
1F
100
AcDbEntity
  8
101
  6
Continuous
 62
     7
370
    30
100
AcDbLine
 10
60.29437395426666
 20
114.5544447640962
 30
0.0
 11
62.73755577244849
 21
114.4123993095508
 31
0.0
  0
LINE
  5
E9
330
1F
100
AcDbEntity
  8
101
  6
Continuous
 62
     7
370
    30
100
AcDbLine
 10
62.73755577244849
 20
114.4123993095508
 30
0.0
 11
65.59266940881213
 21
114.4550129459144
 31
0.0
  0
LINE
  5
EA
330
1F
100
AcDbEntity
  8
101
  6
Continuous
 62
     7
370
    30
100
AcDbLine
 10
65.59266940881213
 20
114.4550129459144
 30
0.0
 11
67.38244213608486
 21
114.5402402186417
 31
0.0
  0
LINE
  5
EB
330
1F
100
AcDbEntity
  8
101
  6
Continuous
 62
     7
370
    30
100
AcDbLine
 10
67.38244213608486
 20
114.5402402186417
 30
0.0
 11
68.64664668153941
 21
114.6680811277326
 31
0.0
  0
LINE
  5
EC
330
1F
100
AcDbEntity
  8
101
  6
Continuous
 62
     7
370
    30
100
AcDbLine
 10
68.64664668153941
 20
114.6680811277326
 30
0.0
 11
69.3284648633576
 21
114.9521720368235
 31
0.0
  0
LINE
  5
ED
330
1F
100
AcDbEntity
  8
101
  6
Continuous
 62
     7
370
    30
100
AcDbLine
 10
69.3284648633576
 20
114.9521720368235
 30
0.0
 11
69.75460122699396
 21
115.2220584004599
 31
0.0
  0
LINE
  5
EE
330
1F
100
AcDbEntity
  8
101
  6
Continuous
 62
     7
370
    30
100
AcDbLine
 10
69.75460122699396
 20
115.2220584004599
 30
0.0
 11
69.88244213608488
 21
115.5061493095508
 31
0.0
  0
LINE
  5
EF
330
1F
100
AcDbEntity
  8
101
  6
Continuous
 62
     7
370
    30
100
AcDbLine
 10
69.88244213608488
 20
115.5061493095508
 30
0.0
 11
69.39948759063033
 21
124.3697856731871
 31
0.0
  0
LINE
  5
F0
330
1F
100
AcDbEntity
  8
101
  6
Continuous
 62
     7
370
    30
100
AcDbLine
 10
69.39948759063033
 20
124.3697856731871
 30
0.0
 11
69.03016940881213
 21
132.0118311277326
 31
0.0
  0
LINE
  5
F1
330
1F
100
AcDbEntity
  8
101
  6
Continuous
 62
     7
370
    30
100
AcDbLine
 10
69.03016940881213
 20
132.0118311277326
 30
0.0
 11
69.00176031790305
 21
135.3072856731872
 31
0.0
  0
LINE
  5
F2
330
1F
100
AcDbEntity
  8
101
  6
Continuous
 62
     7
370
    30
100
AcDbLine
 10
69.00176031790305
 20
135.3072856731872
 30
0.0
 11
68.97335122699397
 21
138.2618311277326
 31
0.0
  0
LINE
  5
F3
330
1F
100
AcDbEntity
  8
101
  6
Continuous
 62
     7
370
    30
100
AcDbLine
 10
68.97335122699397
 20
138.2618311277326
 30
0.0
 11
69.28585122699397
 21
143.8584220368235
 31
0.0
  0
LINE
  5
F4
330
1F
100
AcDbEntity
  8
101
  6
Continuous
 62
     7
370
    30
100
AcDbLine
 10
69.28585122699397
 20
143.8584220368235
 30
0.0
 11
69.88244213608489
 21
149.8243311277326
 31
0.0
  0
LINE
  5
F5
330
1F
100
AcDbEntity
  8
101
  6
Continuous
 62
     7
370
    30
100
AcDbLine
 10
69.88244213608489
 20
149.8243311277326
 30
0.0
 11
70.67789668153944
 21
158.0061493095507
 31
0.0
  0
LINE
  5
F6
330
1F
100
AcDbEntity
  8
101
  6
Continuous
 62
     7
370
    30
100
AcDbLine
 10
70.67789668153944
 20
158.0061493095507
 30
0.0
 11
70.96198759063034
 21
161.528876582278
 31
0.0
  0
LINE
  5
F7
330
1F
100
AcDbEntity
  8
101
  6
Continuous
 62
     7
370
    30
100
AcDbLine
 10
70.96198759063034
 20
161.528876582278
 30
0.0
 11
70.81994213608488
 21
161.7277402186416
 31
0.0
  0
LINE
  5
F8
330
1F
100
AcDbEntity
  8
101
  6
Continuous
 62
     7
370
    30
100
AcDbLine
 10
70.81994213608488
 20
161.7277402186416
 30
0.0
 11
69.96766940881216
 21
161.8839902186417
 31
0.0
  0
LINE
  5
F9
330
1F
100
AcDbEntity
  8
101
  6
Continuous
 62
     7
370
    30
100
AcDbLine
 10
69.96766940881216
 20
161.8839902186417
 30
0.0
 11
67.68073759063033
 21
161.9408084004598
 31
0.0
  0
LINE
  5
FA
330
1F
100
AcDbEntity
  8
101
  6
Continuous
 62
     7
370
    30
100
AcDbLine
 10
67.68073759063033
 20
161.9408084004598
 30
0.0
 11
66.34551031790306
 21
161.8981947640961
 31
0.0
  0
LINE
  5
FB
330
1F
100
AcDbEntity
  8
101
  6
Continuous
 62
     7
370
    30
100
AcDbLine
 10
66.34551031790306
 20
161.8981947640961
 30
0.0
 11
64.27164668153941
 21
161.9408084004598
 31
0.0
  0
LINE
  5
FC
330
1F
100
AcDbEntity
  8
101
  6
Continuous
 62
     7
370
    30
100
AcDbLine
 10
64.27164668153941
 20
161.9408084004598
 30
0.0
 11
62.45346486335757
 21
161.9976265822781
 31
0.0
  0
LINE
  5
FD
330
1F
100
AcDbEntity
  8
101
  6
Continuous
 62
     7
370
    30
100
AcDbLine
 10
58.2063057724485
 20
161.8839902186416
 30
0.0
 11
60.59266940881214
 21
161.7987629459143
 31
0.0
  0
LINE
  5
FE
330
1F
100
AcDbEntity
  8
101
  6
Continuous
 62
     7
370
    30
100
AcDbLine
 10
60.59266940881214
 20
161.7987629459143
 30
0.0
 11
63.37676031790305
 21
161.6567174913689
 31
0.0
  0
LINE
  5
FF
330
1F
100
AcDbEntity
  8
101
  6
Continuous
 62
     7
370
    30
100
AcDbLine
 10
63.37676031790305
 20
161.6567174913689
 30
0.0
 11
66.31710122699397
 21
161.6141038550052
 31
0.0
  0
LINE
  5
100
330
1F
100
AcDbEntity
  8
101
  6
Continuous
 62
     7
370
    30
100
AcDbLine
 10
66.31710122699397
 20
161.6141038550052
 30
0.0
 11
68.34835122699397
 21
161.5998993095507
 31
0.0
  0
LINE
  5
101
330
1F
100
AcDbEntity
  8
101
  6
Continuous
 62
     7
370
    30
100
AcDbLine
 10
68.34835122699397
 20
161.5998993095507
 30
0.0
 11
69.47051031790306
 21
161.6283084004598
 31
0.0
  0
LINE
  5
102
330
1F
100
AcDbEntity
  8
101
  6
Continuous
 62
     7
370
    30
100
AcDbLine
 10
69.47051031790306
 20
161.6283084004598
 30
0.0
 11
70.3440898633576
 21
161.5750413550053
 31
0.0
  0
LINE
  5
103
330
1F
100
AcDbEntity
  8
101
  6
Continuous
 62
     7
370
    30
100
AcDbLine
 10
70.3440898633576
 20
161.5750413550053
 30
0.0
 11
70.77377736335761
 21
161.5892459004598
 31
0.0
  0
LINE
  5
104
330
1F
100
AcDbEntity
  8
101
  6
Continuous
 62
     7
370
    30
100
AcDbLine
 10
70.77377736335761
 20
161.5892459004598
 30
0.0
 11
70.83985729271879
 21
161.6998589993541
 31
0.0
  0
LINE
  5
105
330
1F
100
AcDbEntity
  8
101
  6
Continuous
 62
     7
370
    30
100
AcDbLine
 10
66.34551031790306
 20
161.8981947640961
 30
0.0
 11
67.4534648633576
 21
214.5454545454546
 31
0.0
  0
LINE
  5
106
330
1F
100
AcDbEntity
  8
101
  6
Continuous
 62
     7
370
    30
100
AcDbLine
 10
56.51596486335757
 20
115.8896720368235
 30
0.0
 11
55.97619213608483
 21
115.1687913550051
 31
0.0
  0
LINE
  5
107
330
1F
100
AcDbEntity
  8
101
  6
Continuous
 62
     7
370
    30
100
AcDbLine
 10
55.97619213608483
 20
115.1687913550051
 30
0.0
 11
55.80573759063029
 21
113.6915186277324
 31
0.0
  0
LINE
  5
108
330
1F
100
AcDbEntity
  8
101
  6
Continuous
 62
     7
370
    30
100
AcDbLine
 10
55.80573759063029
 20
113.6915186277324
 30
0.0
 11
55.66369213608483
 21
110.4812913550051
 31
0.0
  0
LINE
  5
109
330
1F
100
AcDbEntity
  8
101
  6
Continuous
 62
     7
370
    30
100
AcDbLine
 10
55.66369213608483
 20
110.4812913550051
 30
0.0
 11
55.35119213608484
 21
108.3506095368233
 31
0.0
  0
LINE
  5
10A
330
1F
100
AcDbEntity
  8
101
  6
Continuous
 62
     7
370
    30
100
AcDbLine
 10
55.35119213608484
 20
108.3506095368233
 30
0.0
 11
54.92505577244847
 21
107.3847004459142
 31
0.0
  0
LINE
  5
10B
330
1F
100
AcDbEntity
  8
101
  6
Continuous
 62
     7
370
    30
100
AcDbLine
 10
54.92505577244847
 20
107.3847004459142
 30
0.0
 11
54.12960122699393
 21
106.2767459004597
 31
0.0
  0
LINE
  5
10C
330
1F
100
AcDbEntity
  8
101
  6
Continuous
 62
     7
370
    30
100
AcDbLine
 10
54.12960122699393
 20
106.2767459004597
 30
0.0
 11
53.50460122699393
 21
105.8790186277324
 31
0.0
  0
LINE
  5
10D
330
1F
100
AcDbEntity
  8
101
  6
Continuous
 62
     7
370
    30
100
AcDbLine
 10
53.50460122699393
 20
105.8790186277324
 30
0.0
 11
49.78301031790301
 21
105.3108368095506
 31
0.0
  0
LINE
  5
10E
330
1F
100
AcDbEntity
  8
101
  6
Continuous
 62
     7
370
    30
100
AcDbLine
 10
49.78301031790301
 20
105.3108368095506
 30
0.0
 11
42.908010317903
 21
104.4301549913687
 31
0.0
  0
LINE
  5
10F
330
1F
100
AcDbEntity
  8
101
  6
Continuous
 62
     7
370
    30
100
AcDbLine
 10
42.908010317903
 20
104.4301549913687
 30
0.0
 11
39.64096486335754
 21
103.8335640822778
 31
0.0
  0
LINE
  5
110
330
1F
100
AcDbEntity
  8
101
  6
Continuous
 62
     7
370
    30
100
AcDbLine
 10
39.64096486335754
 20
103.8335640822778
 30
0.0
 11
36.88528304517571
 21
103.0097004459142
 31
0.0
  0
LINE
  5
111
330
1F
100
AcDbEntity
  8
101
  6
Continuous
 62
     7
370
    30
100
AcDbLine
 10
36.88528304517571
 20
103.0097004459142
 30
0.0
 11
34.66937395426662
 21
102.0437913550051
 31
0.0
  0
LINE
  5
112
330
1F
100
AcDbEntity
  8
101
  6
Continuous
 62
     7
370
    30
100
AcDbLine
 10
34.66937395426662
 20
102.0437913550051
 30
0.0
 11
32.99323759063025
 21
101.0210640822778
 31
0.0
  0
LINE
  5
113
330
1F
100
AcDbEntity
  8
101
  6
Continuous
 62
     7
370
    30
100
AcDbLine
 10
32.99323759063025
 20
101.0210640822778
 30
0.0
 11
32.11255577244843
 21
99.94151862773236
 31
0.0
  0
LINE
  5
114
330
1F
100
AcDbEntity
  8
101
  6
Continuous
 62
     7
370
    30
100
AcDbLine
 10
32.11255577244843
 20
99.94151862773236
 30
0.0
 11
32.05573759063024
 21
99.28810953682327
 31
0.0
  0
LINE
  5
115
330
1F
100
AcDbEntity
  8
101
  6
Continuous
 62
     7
370
    30
100
AcDbLine
 10
32.05573759063024
 20
99.28810953682327
 30
0.0
 11
32.02732849972116
 21
96.93015499136872
 31
0.0
  0
LINE
  5
116
330
1F
100
AcDbEntity
  8
101
  6
Continuous
 62
     7
370
    30
100
AcDbLine
 10
32.02732849972116
 20
96.93015499136872
 30
0.0
 11
32.93641940881207
 21
95.65174590045963
 31
0.0
  0
LINE
  5
117
330
1F
100
AcDbEntity
  8
101
  6
Continuous
 62
     7
370
    30
100
AcDbLine
 10
32.93641940881207
 20
95.65174590045963
 30
0.0
 11
34.27164668153934
 21
94.82788226409599
 31
0.0
  0
LINE
  5
118
330
1F
100
AcDbEntity
  8
101
  6
Continuous
 62
     7
370
    30
100
AcDbLine
 10
34.27164668153934
 20
94.82788226409599
 30
0.0
 11
37.19778304517572
 21
93.49265499136872
 31
0.0
  0
LINE
  5
119
330
1F
100
AcDbEntity
  8
101
  6
Continuous
 62
     7
370
    30
100
AcDbLine
 10
37.19778304517572
 20
93.49265499136872
 30
0.0
 11
41.54437395426663
 21
92.10060953682327
 31
0.0
  0
LINE
  5
11A
330
1F
100
AcDbEntity
  8
101
  6
Continuous
 62
     7
370
    30
100
AcDbLine
 10
41.54437395426663
 20
92.10060953682327
 30
0.0
 11
47.16937395426665
 21
91.0494731731869
 31
0.0
  0
LINE
  5
11B
330
1F
100
AcDbEntity
  8
101
  6
Continuous
 62
     7
370
    30
100
AcDbLine
 10
47.16937395426665
 20
91.0494731731869
 30
0.0
 11
52.11255577244848
 21
90.53810953682323
 31
0.0
  0
LINE
  5
11C
330
1F
100
AcDbEntity
  8
101
  6
Continuous
 62
     7
370
    30
100
AcDbLine
 10
52.11255577244848
 20
90.53810953682323
 30
0.0
 11
57.85119213608485
 21
90.05515499136868
 31
0.0
  0
LINE
  5
11D
330
1F
100
AcDbEntity
  8
101
  6
Continuous
 62
     7
370
    30
100
AcDbLine
 10
57.85119213608485
 20
90.05515499136868
 30
0.0
 11
63.19210122699396
 21
89.82788226409596
 31
0.0
  0
LINE
  5
11E
330
1F
100
AcDbEntity
  8
101
  6
Continuous
 62
     7
370
    30
100
AcDbLine
 10
63.19210122699396
 20
89.82788226409596
 30
0.0
 11
69.75460122699397
 21
89.91310953682323
 31
0.0
  0
LINE
  5
11F
330
1F
100
AcDbEntity
  8
101
  6
Continuous
 62
     7
370
    30
100
AcDbLine
 10
69.75460122699397
 20
89.91310953682323
 30
0.0
 11
76.23187395426672
 21
90.28242771864137
 31
0.0
  0
LINE
  5
120
330
1F
100
AcDbEntity
  8
101
  6
Continuous
 62
     7
370
    30
100
AcDbLine
 10
76.23187395426672
 20
90.28242771864137
 30
0.0
 11
81.629601226994
 21
91.02106408227773
 31
0.0
  0
LINE
  5
121
330
1F
100
AcDbEntity
  8
101
  6
Continuous
 62
     7
370
    30
100
AcDbLine
 10
81.629601226994
 20
91.02106408227773
 30
0.0
 11
85.57846486335765
 21
91.70288226409592
 31
0.0
  0
LINE
  5
122
330
1F
100
AcDbEntity
  8
101
  6
Continuous
 62
     7
370
    30
100
AcDbLine
 10
85.57846486335765
 20
91.70288226409592
 30
0.0
 11
88.47619213608493
 21
92.61197317318684
 31
0.0
  0
LINE
  5
123
330
1F
100
AcDbEntity
  8
101
  6
Continuous
 62
     7
370
    30
100
AcDbLine
 10
88.47619213608493
 20
92.61197317318684
 30
0.0
 11
91.57278304517584
 21
94.0040186277323
 31
0.0
  0
LINE
  5
124
330
1F
100
AcDbEntity
  8
101
  6
Continuous
 62
     7
370
    30
100
AcDbLine
 10
91.57278304517584
 20
94.0040186277323
 30
0.0
 11
92.87960122699403
 21
95.02674590045957
 31
0.0
  0
LINE
  5
125
330
1F
100
AcDbEntity
  8
101
  6
Continuous
 62
     7
370
    30
100
AcDbLine
 10
92.87960122699403
 20
95.02674590045957
 30
0.0
 11
93.41937395426676
 21
96.10629135500503
 31
0.0
  0
LINE
  5
126
330
1F
100
AcDbEntity
  8
101
  6
Continuous
 62
     7
370
    30
100
AcDbLine
 10
93.41937395426676
 20
96.10629135500503
 30
0.0
 11
93.47619213608495
 21
98.66310953682321
 31
0.0
  0
LINE
  5
127
330
1F
100
AcDbEntity
  8
101
  6
Continuous
 62
     7
370
    30
100
AcDbLine
 10
93.47619213608495
 20
98.66310953682321
 30
0.0
 11
92.93641940881221
 21
99.77106408227776
 31
0.0
  0
LINE
  5
128
330
1F
100
AcDbEntity
  8
101
  6
Continuous
 62
     7
370
    30
100
AcDbLine
 10
92.93641940881221
 20
99.77106408227776
 30
0.0
 11
91.54437395426676
 21
100.9642459004596
 31
0.0
  0
LINE
  5
129
330
1F
100
AcDbEntity
  8
101
  6
Continuous
 62
     7
370
    30
100
AcDbLine
 10
91.54437395426676
 20
100.9642459004596
 30
0.0
 11
88.13528304517584
 21
102.3278822640959
 31
0.0
  0
LINE
  5
12A
330
1F
100
AcDbEntity
  8
101
  6
Continuous
 62
     7
370
    30
100
AcDbLine
 10
88.13528304517584
 20
102.3278822640959
 30
0.0
 11
83.36255577244854
 21
103.5210640822777
 31
0.0
  0
LINE
  5
12B
330
1F
100
AcDbEntity
  8
101
  6
Continuous
 62
     7
370
    30
100
AcDbLine
 10
83.36255577244854
 20
103.5210640822777
 30
0.0
 11
80.18073759063036
 21
104.231291355005
 31
0.0
  0
LINE
  5
12C
330
1F
100
AcDbEntity
  8
101
  6
Continuous
 62
     7
370
    30
100
AcDbLine
 10
80.18073759063036
 20
104.231291355005
 30
0.0
 11
76.11823759063034
 21
104.9699277186414
 31
0.0
  0
LINE
  5
12D
330
1F
100
AcDbEntity
  8
101
  6
Continuous
 62
     7
370
    30
100
AcDbLine
 10
76.11823759063034
 20
104.9699277186414
 30
0.0
 11
72.25460122699397
 21
105.7085640822777
 31
0.0
  0
LINE
  5
12E
330
1F
100
AcDbEntity
  8
101
  6
Continuous
 62
     7
370
    30
100
AcDbLine
 10
73.27732849972125
 20
104.856291355005
 30
0.0
 11
72.25460122699397
 21
105.7085640822777
 31
0.0
  0
LINE
  5
12F
330
1F
100
AcDbEntity
  8
101
  6
Continuous
 62
     7
370
    30
100
AcDbLine
 10
72.25460122699397
 20
105.7085640822777
 30
0.0
 11
71.28869213608488
 21
106.7597004459141
 31
0.0
  0
LINE
  5
130
330
1F
100
AcDbEntity
  8
101
  6
Continuous
 62
     7
370
    30
100
AcDbLine
 10
71.28869213608488
 20
106.7597004459141
 30
0.0
 11
70.80573759063034
 21
108.1233368095505
 31
0.0
  0
LINE
  5
131
330
1F
100
AcDbEntity
  8
101
  6
Continuous
 62
     7
370
    30
100
AcDbLine
 10
70.80573759063034
 20
108.1233368095505
 30
0.0
 11
70.57846486335761
 21
109.231291355005
 31
0.0
  0
LINE
  5
132
330
1F
100
AcDbEntity
  8
101
  6
Continuous
 62
     7
370
    30
100
AcDbLine
 10
70.57846486335761
 20
109.231291355005
 30
0.0
 11
70.32278304517578
 21
114.4869731731868
 31
0.0
  0
LINE
  5
133
330
1F
100
AcDbEntity
  8
101
  6
Continuous
 62
     7
370
    30
100
AcDbLine
 10
70.32278304517578
 20
114.4869731731868
 30
0.0
 11
70.25176031790306
 21
114.9770299913687
 31
0.0
  0
LINE
  5
134
330
1F
100
AcDbEntity
  8
101
  6
Continuous
 62
     7
370
    30
100
AcDbLine
 10
70.25176031790306
 20
114.9770299913687
 30
0.0
 11
70.03869213608488
 21
115.2824277186414
 31
0.0
  0
LINE
  5
135
330
1F
100
AcDbEntity
  8
101
  6
Continuous
 62
     7
370
    30
100
AcDbLine
 10
70.03869213608488
 20
115.2824277186414
 30
0.0
 11
69.88244213608488
 21
115.5061493095508
 31
0.0
  0
LINE
  5
136
330
1F
100
AcDbEntity
  8
101
  6
Continuous
 62
     7
370
    30
100
AcDbLine
 10
72.39664668153944
 20
103.5565754459141
 30
0.0
 11
71.45914668153944
 21
102.9599845368232
 31
0.0
  0
LINE
  5
137
330
1F
100
AcDbEntity
  8
101
  6
Continuous
 62
     7
370
    30
100
AcDbLine
 10
71.45914668153944
 20
102.9599845368232
 30
0.0
 11
69.07278304517578
 21
102.4770299913686
 31
0.0
  0
LINE
  5
138
330
1F
100
AcDbEntity
  8
101
  6
Continuous
 62
     7
370
    30
100
AcDbLine
 10
33.2532622739388
 20
95.45624711133888
 30
0.0
 11
33.30573759063028
 21
93.22987090045955
 31
0.0
  0
LINE
  5
139
330
1F
100
AcDbEntity
  8
101
  6
Continuous
 62
     7
370
    30
100
AcDbLine
 10
33.30573759063028
 20
93.22987090045955
 30
0.0
 11
33.43357849972119
 21
87.76112090045952
 31
0.0
  0
LINE
  5
13A
330
1F
100
AcDbEntity
  8
101
  6
Continuous
 62
     7
370
    30
100
AcDbLine
 10
33.43357849972119
 20
87.76112090045952
 30
0.0
 11
33.54721486335755
 21
87.17873453682316
 31
0.0
  0
LINE
  5
13B
330
1F
100
AcDbEntity
  8
101
  6
Continuous
 62
     7
370
    30
100
AcDbLine
 10
33.54721486335755
 20
87.17873453682316
 30
0.0
 11
34.24323759063028
 21
85.97134817318678
 31
0.0
  0
LINE
  5
13C
330
1F
100
AcDbEntity
  8
101
  6
Continuous
 62
     7
370
    30
100
AcDbLine
 10
34.24323759063028
 20
85.97134817318678
 30
0.0
 11
35.33698759063028
 21
85.00543908227769
 31
0.0
  0
LINE
  5
13D
330
1F
100
AcDbEntity
  8
101
  6
Continuous
 62
     7
370
    30
100
AcDbLine
 10
35.33698759063028
 20
85.00543908227769
 30
0.0
 11
36.60119213608483
 21
84.38043908227769
 31
0.0
  0
LINE
  5
13E
330
1F
100
AcDbEntity
  8
101
  6
Continuous
 62
     7
370
    30
100
AcDbLine
 10
36.60119213608483
 20
84.38043908227769
 30
0.0
 11
38.91653304517574
 21
83.32930271864132
 31
0.0
  0
LINE
  5
13F
330
1F
100
AcDbEntity
  8
101
  6
Continuous
 62
     7
370
    30
100
AcDbLine
 10
38.91653304517574
 20
83.32930271864132
 30
0.0
 11
40.64948759063029
 21
82.7611209004595
 31
0.0
  0
LINE
  5
140
330
1F
100
AcDbEntity
  8
101
  6
Continuous
 62
     7
370
    30
100
AcDbLine
 10
40.64948759063029
 20
82.7611209004595
 30
0.0
 11
44.86823759063029
 21
81.6389618095504
 31
0.0
  0
LINE
  5
141
330
1F
100
AcDbEntity
  8
101
  6
Continuous
 62
     7
370
    30
100
AcDbLine
 10
44.86823759063029
 20
81.6389618095504
 30
0.0
 11
48.27732849972121
 21
81.0139618095504
 31
0.0
  0
LINE
  5
142
330
1F
100
AcDbEntity
  8
101
  6
Continuous
 62
     7
370
    30
100
AcDbLine
 10
48.27732849972121
 20
81.0139618095504
 30
0.0
 11
52.28301031790303
 21
80.47418908227763
 31
0.0
  0
LINE
  5
143
330
1F
100
AcDbEntity
  8
101
  6
Continuous
 62
     7
370
    30
100
AcDbLine
 10
52.28301031790303
 20
80.47418908227763
 30
0.0
 11
56.20346486335758
 21
79.94862090045945
 31
0.0
  0
LINE
  5
144
330
1F
100
AcDbEntity
  8
101
  6
Continuous
 62
     7
370
    30
100
AcDbLine
 10
56.20346486335758
 20
79.94862090045945
 30
0.0
 11
59.44210122699396
 21
79.7781663550049
 31
0.0
  0
LINE
  5
145
330
1F
100
AcDbEntity
  8
101
  6
Continuous
 62
     7
370
    30
100
AcDbLine
 10
59.44210122699396
 20
79.7781663550049
 30
0.0
 11
66.65801031790306
 21
79.77816635500493
 31
0.0
  0
LINE
  5
146
330
1F
100
AcDbEntity
  8
101
  6
Continuous
 62
     7
370
    30
100
AcDbLine
 10
66.65801031790306
 20
79.77816635500493
 30
0.0
 11
70.60687395426669
 21
79.74975726409583
 31
0.0
  0
LINE
  5
147
330
1F
100
AcDbEntity
  8
101
  6
Continuous
 62
     7
370
    30
100
AcDbLine
 10
70.60687395426669
 20
79.74975726409583
 30
0.0
 11
75.06710122699397
 21
80.14748453682311
 31
0.0
  0
LINE
  5
148
330
1F
100
AcDbEntity
  8
101
  6
Continuous
 62
     7
370
    30
100
AcDbLine
 10
75.06710122699397
 20
80.14748453682311
 30
0.0
 11
78.84551031790308
 21
80.68725726409583
 31
0.0
  0
LINE
  5
149
330
1F
100
AcDbEntity
  8
101
  6
Continuous
 62
     7
370
    30
100
AcDbLine
 10
78.84551031790308
 20
80.68725726409583
 30
0.0
 11
84.32846486335762
 21
81.8520299913686
 31
0.0
  0
LINE
  5
14A
330
1F
100
AcDbEntity
  8
101
  6
Continuous
 62
     7
370
    30
100
AcDbLine
 10
84.32846486335762
 20
81.8520299913686
 30
0.0
 11
86.629601226994
 21
82.59066635500497
 31
0.0
  0
LINE
  5
14B
330
1F
100
AcDbEntity
  8
101
  6
Continuous
 62
     7
370
    30
100
AcDbLine
 10
86.629601226994
 20
82.59066635500497
 30
0.0
 11
88.67505577244854
 21
83.4145299913686
 31
0.0
  0
LINE
  5
14C
330
1F
100
AcDbEntity
  8
101
  6
Continuous
 62
     7
370
    30
100
AcDbLine
 10
88.67505577244854
 20
83.4145299913686
 30
0.0
 11
90.37960122699401
 21
84.40884817318678
 31
0.0
  0
LINE
  5
14D
330
1F
100
AcDbEntity
  8
101
  6
Continuous
 62
     7
370
    30
100
AcDbLine
 10
90.37960122699401
 20
84.40884817318678
 30
0.0
 11
91.51596486335765
 21
85.57362090045952
 31
0.0
  0
LINE
  5
14E
330
1F
100
AcDbEntity
  8
101
  6
Continuous
 62
     7
370
    30
100
AcDbLine
 10
91.51596486335765
 20
85.57362090045952
 30
0.0
 11
91.99891940881218
 21
86.48271180955042
 31
0.0
  0
LINE
  5
14F
330
1F
100
AcDbEntity
  8
101
  6
Continuous
 62
     7
370
    30
100
AcDbLine
 10
91.99891940881218
 20
86.48271180955042
 30
0.0
 11
92.11255577244856
 21
88.18725726409588
 31
0.0
  0
LINE
  5
150
330
1F
100
AcDbEntity
  8
101
  6
Continuous
 62
     7
370
    30
100
AcDbLine
 10
92.11255577244856
 20
88.18725726409588
 30
0.0
 11
92.30394245581208
 21
94.57623034040414
 31
0.0
  0
LINE
  5
151
330
1F
100
AcDbEntity
  8
101
  6
Continuous
 62
     7
370
    30
100
AcDbLine
 10
92.28706151113641
 20
94.01270157685556
 30
0.0
 11
91.65801031790306
 21
93.30089362773231
 31
0.0
  0
LINE
  5
152
330
1F
100
AcDbEntity
  8
101
  6
Continuous
 62
     7
370
    30
100
AcDbLine
 10
91.65801031790306
 20
93.30089362773231
 30
0.0
 11
90.37960122699397
 21
92.42021180955048
 31
0.0
  0
LINE
  5
153
330
1F
100
AcDbEntity
  8
101
  6
Continuous
 62
     7
370
    30
100
AcDbLine
 10
90.37960122699397
 20
92.42021180955048
 30
0.0
 11
88.27732849972125
 21
91.53952999136867
 31
0.0
  0
LINE
  5
154
330
1F
100
AcDbEntity
  8
101
  6
Continuous
 62
     7
370
    30
100
AcDbLine
 10
88.27732849972125
 20
91.53952999136867
 30
0.0
 11
86.00460122699397
 21
90.94293908227775
 31
0.0
  0
LINE
  5
155
330
1F
100
AcDbEntity
  8
101
  6
Continuous
 62
     7
370
    30
100
AcDbLine
 10
86.00460122699397
 20
90.94293908227775
 30
0.0
 11
83.58982849972124
 21
90.28952999136865
 31
0.0
  0
LINE
  5
156
330
1F
100
AcDbEntity
  8
101
  6
Continuous
 62
     7
370
    30
100
AcDbLine
 10
83.58982849972124
 20
90.28952999136865
 30
0.0
 11
79.9250557724485
 21
89.63612090045957
 31
0.0
  0
LINE
  5
157
330
1F
100
AcDbEntity
  8
101
  6
Continuous
 62
     7
370
    30
100
AcDbLine
 10
79.9250557724485
 20
89.63612090045957
 30
0.0
 11
75.74891940881213
 21
89.15316635500503
 31
0.0
  0
LINE
  5
158
330
1F
100
AcDbEntity
  8
101
  6
Continuous
 62
     7
370
    30
100
AcDbLine
 10
75.74891940881213
 20
89.15316635500503
 30
0.0
 11
72.45346486335758
 21
88.81225726409595
 31
0.0
  0
LINE
  5
159
330
1F
100
AcDbEntity
  8
101
  6
Continuous
 62
     7
370
    30
100
AcDbLine
 10
72.45346486335758
 20
88.81225726409595
 30
0.0
 11
68.13528304517575
 21
88.58498453682319
 31
0.0
  0
LINE
  5
15A
330
1F
100
AcDbEntity
  8
101
  6
Continuous
 62
     7
370
    30
100
AcDbLine
 10
68.13528304517575
 20
88.58498453682319
 30
0.0
 11
63.67505577244847
 21
88.49975726409592
 31
0.0
  0
LINE
  5
15B
330
1F
100
AcDbEntity
  8
101
  6
Continuous
 62
     7
370
    30
100
AcDbLine
 10
63.67505577244847
 20
88.49975726409592
 30
0.0
 11
58.36255577244846
 21
88.69862090045956
 31
0.0
  0
LINE
  5
15C
330
1F
100
AcDbEntity
  8
101
  6
Continuous
 62
     7
370
    30
100
AcDbLine
 10
58.36255577244846
 20
88.69862090045956
 30
0.0
 11
52.90801031790301
 21
89.09634817318683
 31
0.0
  0
LINE
  5
15D
330
1F
100
AcDbEntity
  8
101
  6
Continuous
 62
     7
370
    30
100
AcDbLine
 10
52.90801031790301
 20
89.09634817318683
 30
0.0
 11
48.30573759063027
 21
89.55089362773228
 31
0.0
  0
LINE
  5
15E
330
1F
100
AcDbEntity
  8
101
  6
Continuous
 62
     7
370
    30
100
AcDbLine
 10
48.30573759063027
 20
89.55089362773228
 30
0.0
 11
44.07278304517572
 21
90.34634817318683
 31
0.0
  0
LINE
  5
15F
330
1F
100
AcDbEntity
  8
101
  6
Continuous
 62
     7
370
    30
100
AcDbLine
 10
44.07278304517572
 20
90.34634817318683
 30
0.0
 11
40.20914668153935
 21
91.42589362773224
 31
0.0
  0
LINE
  5
160
330
1F
100
AcDbEntity
  8
101
  6
Continuous
 62
     7
370
    30
100
AcDbLine
 10
40.20914668153935
 20
91.42589362773224
 30
0.0
 11
36.74323759063025
 21
92.70430271864133
 31
0.0
  0
LINE
  5
161
330
1F
100
AcDbEntity
  8
101
  6
Continuous
 62
     7
370
    30
100
AcDbLine
 10
36.74323759063025
 20
92.70430271864133
 30
0.0
 11
34.75460122699388
 21
93.72702999136861
 31
0.0
  0
LINE
  5
162
330
1F
100
AcDbEntity
  8
101
  6
Continuous
 62
     7
370
    30
100
AcDbLine
 10
34.75460122699388
 20
93.72702999136861
 30
0.0
 11
33.84551031790298
 21
94.45146180955042
 31
0.0
  0
LINE
  5
163
330
1F
100
AcDbEntity
  8
101
  6
Continuous
 62
     7
370
    30
100
AcDbLine
 10
33.84551031790298
 20
94.45146180955042
 30
0.0
 11
33.49039668153934
 21
94.93441635500497
 31
0.0
  0
LINE
  5
164
330
1F
100
AcDbEntity
  8
101
  6
Continuous
 62
     7
370
    30
100
AcDbLine
 10
33.49039668153934
 20
94.93441635500497
 30
0.0
 11
33.2532622739388
 21
95.45624711133888
 31
0.0
  0
LINE
  5
165
330
1F
100
AcDbEntity
  8
101
  6
Continuous
 62
     7
370
    30
100
AcDbLine
 10
32.8227830451757
 20
98.72702999136861
 30
0.0
 11
33.95914668153934
 21
97.27816635500497
 31
0.0
  0
LINE
  5
166
330
1F
100
AcDbEntity
  8
101
  6
Continuous
 62
     7
370
    30
100
AcDbLine
 10
33.95914668153934
 20
97.27816635500497
 30
0.0
 11
36.17505577244843
 21
96.05657544591406
 31
0.0
  0
LINE
  5
167
330
1F
100
AcDbEntity
  8
101
  6
Continuous
 62
     7
370
    30
100
AcDbLine
 10
36.17505577244843
 20
96.05657544591406
 30
0.0
 11
40.0102830451757
 21
95.00543908227769
 31
0.0
  0
LINE
  5
168
330
1F
100
AcDbEntity
  8
101
  6
Continuous
 62
     7
370
    30
100
AcDbLine
 10
40.0102830451757
 20
95.00543908227769
 30
0.0
 11
45.80573759063026
 21
93.55657544591404
 31
0.0
  0
LINE
  5
169
330
1F
100
AcDbEntity
  8
101
  6
Continuous
 62
     7
370
    30
100
AcDbLine
 10
45.80573759063026
 20
93.55657544591404
 30
0.0
 11
51.88528304517573
 21
92.76112090045949
 31
0.0
  0
LINE
  5
16A
330
1F
100
AcDbEntity
  8
101
  6
Continuous
 62
     7
370
    30
100
AcDbLine
 10
51.88528304517573
 20
92.76112090045949
 30
0.0
 11
57.33982849972118
 21
92.36339362773225
 31
0.0
  0
LINE
  5
16B
330
1F
100
AcDbEntity
  8
101
  6
Continuous
 62
     7
370
    30
100
AcDbLine
 10
57.33982849972118
 20
92.36339362773225
 30
0.0
 11
64.27164668153938
 21
92.2213481731868
 31
0.0
  0
LINE
  5
16C
330
1F
100
AcDbEntity
  8
101
  6
Continuous
 62
     7
370
    30
100
AcDbLine
 10
64.27164668153938
 20
92.2213481731868
 30
0.0
 11
70.4364194088121
 21
92.30657544591408
 31
0.0
  0
LINE
  5
16D
330
1F
100
AcDbEntity
  8
101
  6
Continuous
 62
     7
370
    30
100
AcDbLine
 10
70.4364194088121
 20
92.30657544591408
 30
0.0
 11
76.80005577244847
 21
92.78952999136862
 31
0.0
  0
LINE
  5
16E
330
1F
100
AcDbEntity
  8
101
  6
Continuous
 62
     7
370
    30
100
AcDbLine
 10
76.80005577244847
 20
92.78952999136862
 30
0.0
 11
83.05005577244849
 21
93.49975726409588
 31
0.0
  0
LINE
  5
16F
330
1F
100
AcDbEntity
  8
101
  6
Continuous
 62
     7
370
    30
100
AcDbLine
 10
83.05005577244849
 20
93.49975726409588
 30
0.0
 11
86.48755577244849
 21
94.29521180955042
 31
0.0
  0
LINE
  5
170
330
1F
100
AcDbEntity
  8
101
  6
Continuous
 62
     7
370
    30
100
AcDbLine
 10
86.48755577244849
 20
94.29521180955042
 30
0.0
 11
89.3000557724485
 21
95.00543908227769
 31
0.0
  0
LINE
  5
171
330
1F
100
AcDbEntity
  8
101
  6
Continuous
 62
     7
370
    30
100
AcDbLine
 10
89.3000557724485
 20
95.00543908227769
 30
0.0
 11
91.06141940881213
 21
95.88612090045952
 31
0.0
  0
LINE
  5
172
330
1F
100
AcDbEntity
  8
101
  6
Continuous
 62
     7
370
    30
100
AcDbLine
 10
91.06141940881213
 20
95.88612090045952
 30
0.0
 11
92.25460122699396
 21
96.62475726409588
 31
0.0
  0
LINE
  5
173
330
1F
100
AcDbEntity
  8
101
  6
Continuous
 62
     7
370
    30
100
AcDbLine
 10
92.25460122699396
 20
96.62475726409588
 30
0.0
 11
93.16369213608486
 21
97.50543908227769
 31
0.0
  0
LINE
  5
174
330
1F
100
AcDbEntity
  8
101
  6
Continuous
 62
     7
370
    30
100
AcDbLine
 10
93.16369213608486
 20
97.50543908227769
 30
0.0
 11
93.46529333751185
 21
98.17266360103386
 31
0.0
  0
LINE
  5
175
330
1F
100
AcDbEntity
  8
101
  6
Continuous
 62
     7
370
    30
100
AcDbLine
 10
37.85037075918588
 20
83.81332731473488
 30
0.0
 11
37.83698759063028
 21
59.60771180955034
 31
0.0
  0
LINE
  5
176
330
1F
100
AcDbEntity
  8
101
  6
Continuous
 62
     7
370
    30
100
AcDbLine
 10
39.93926031790301
 20
57.70430271864124
 30
0.0
 11
39.85403304517573
 21
72.1929390822776
 31
0.0
  0
LINE
  5
177
330
1F
100
AcDbEntity
  8
101
  6
Continuous
 62
     7
370
    30
100
AcDbLine
 10
39.85403304517573
 20
72.1929390822776
 30
0.0
 11
39.9320839375011
 21
82.99633521296087
 31
0.0
  0
LINE
  5
178
330
1F
100
AcDbEntity
  8
101
  6
Continuous
 62
     7
370
    30
100
AcDbLine
 10
41.60267049163613
 20
82.50758066753201
 30
0.0
 11
41.61539668153937
 21
67.93157544591388
 31
0.0
  0
LINE
  5
179
330
1F
100
AcDbEntity
  8
101
  6
Continuous
 62
     7
370
    30
100
AcDbLine
 10
41.61539668153937
 20
67.93157544591388
 30
0.0
 11
41.70062395426665
 21
56.76680271864115
 31
0.0
  0
LINE
  5
17A
330
1F
100
AcDbEntity
  8
101
  6
Continuous
 62
     7
370
    30
100
AcDbLine
 10
39.900491605905
 20
64.29498375830319
 30
0.0
 11
40.93357849972119
 21
64.92021180955025
 31
0.0
  0
LINE
  5
17B
330
1F
100
AcDbEntity
  8
101
  6
Continuous
 62
     7
370
    30
100
AcDbLine
 10
40.93357849972119
 20
64.92021180955025
 30
0.0
 11
41.63622096563425
 21
65.20359422948435
 31
0.0
  0
LINE
  5
17C
330
1F
100
AcDbEntity
  8
101
  6
Continuous
 62
     7
370
    30
100
AcDbLine
 10
41.61539668153937
 20
67.93157544591388
 30
0.0
 11
40.47903304517574
 21
67.53384817318661
 31
0.0
  0
LINE
  5
17D
330
1F
100
AcDbEntity
  8
101
  6
Continuous
 62
     7
370
    30
100
AcDbLine
 10
40.47903304517574
 20
67.53384817318661
 30
0.0
 11
39.88361286468497
 21
67.16436976570779
 31
0.0
  0
LINE
  5
17E
330
1F
100
AcDbEntity
  8
101
  6
Continuous
 62
     7
370
    30
100
AcDbLine
 10
37.8405216686746
 20
65.99966106662143
 30
0.0
 11
36.64380577244846
 21
65.20430271864116
 31
0.0
  0
LINE
  5
17F
330
1F
100
AcDbEntity
  8
101
  6
Continuous
 62
     7
370
    30
100
AcDbLine
 10
36.64380577244846
 20
65.20430271864116
 30
0.0
 11
35.59266940881209
 21
64.20998453682297
 31
0.0
  0
LINE
  5
180
330
1F
100
AcDbEntity
  8
101
  6
Continuous
 62
     7
370
    30
100
AcDbLine
 10
35.59266940881209
 20
64.20998453682297
 30
0.0
 11
34.93926031790301
 21
63.13043908227752
 31
0.0
  0
LINE
  5
181
330
1F
100
AcDbEntity
  8
101
  6
Continuous
 62
     7
370
    30
100
AcDbLine
 10
34.93926031790301
 20
63.13043908227752
 30
0.0
 11
34.45630577244846
 21
61.79521180955025
 31
0.0
  0
LINE
  5
182
330
1F
100
AcDbEntity
  8
101
  6
Continuous
 62
     7
370
    30
100
AcDbLine
 10
34.45630577244846
 20
61.79521180955025
 30
0.0
 11
34.42789668153937
 21
60.45998453682297
 31
0.0
  0
LINE
  5
183
330
1F
100
AcDbEntity
  8
101
  6
Continuous
 62
     7
370
    30
100
AcDbLine
 10
34.42789668153937
 20
60.45998453682297
 30
0.0
 11
34.88244213608482
 21
58.86907544591388
 31
0.0
  0
LINE
  5
184
330
1F
100
AcDbEntity
  8
101
  6
Continuous
 62
     7
370
    30
100
AcDbLine
 10
34.88244213608482
 20
58.86907544591388
 30
0.0
 11
36.16085122699392
 21
57.30657544591389
 31
0.0
  0
LINE
  5
185
330
1F
100
AcDbEntity
  8
101
  6
Continuous
 62
     7
370
    30
100
AcDbLine
 10
36.16085122699392
 20
57.30657544591389
 30
0.0
 11
37.58130577244847
 21
55.77248453682298
 31
0.0
  0
LINE
  5
186
330
1F
100
AcDbEntity
  8
101
  6
Continuous
 62
     7
370
    30
100
AcDbLine
 10
37.58130577244847
 20
55.77248453682298
 30
0.0
 11
39.76880577244847
 21
54.52248453682297
 31
0.0
  0
LINE
  5
187
330
1F
100
AcDbEntity
  8
101
  6
Continuous
 62
     7
370
    30
100
AcDbLine
 10
39.76880577244847
 20
54.52248453682297
 30
0.0
 11
42.60971486335756
 21
53.35771180955025
 31
0.0
  0
LINE
  5
188
330
1F
100
AcDbEntity
  8
101
  6
Continuous
 62
     7
370
    30
100
AcDbLine
 10
42.60971486335756
 20
53.35771180955025
 30
0.0
 11
46.5585784997212
 21
51.96566635500479
 31
0.0
  0
LINE
  5
189
330
1F
100
AcDbEntity
  8
101
  6
Continuous
 62
     7
370
    30
100
AcDbLine
 10
46.5585784997212
 20
51.96566635500479
 30
0.0
 11
50.08130577244848
 21
51.22702999136843
 31
0.0
  0
LINE
  5
18A
330
1F
100
AcDbEntity
  8
101
  6
Continuous
 62
     7
370
    30
100
AcDbLine
 10
50.08130577244848
 20
51.22702999136843
 30
0.0
 11
54.68357849972121
 21
50.48839362773205
 31
0.0
  0
LINE
  5
18B
330
1F
100
AcDbEntity
  8
101
  6
Continuous
 62
     7
370
    30
100
AcDbLine
 10
54.68357849972121
 20
50.48839362773205
 30
0.0
 11
59.37107849972121
 21
50.17589362773205
 31
0.0
  0
LINE
  5
18C
330
1F
100
AcDbEntity
  8
101
  6
Continuous
 62
     7
370
    30
100
AcDbLine
 10
59.37107849972121
 20
50.17589362773205
 30
0.0
 11
63.60403304517576
 21
50.0338481731866
 31
0.0
  0
LINE
  5
18D
330
1F
100
AcDbEntity
  8
101
  6
Continuous
 62
     7
370
    30
100
AcDbLine
 10
63.60403304517576
 20
50.0338481731866
 30
0.0
 11
68.31994213608486
 21
50.23271180955023
 31
0.0
  0
LINE
  5
18E
330
1F
100
AcDbEntity
  8
101
  6
Continuous
 62
     7
370
    30
100
AcDbLine
 10
68.31994213608486
 20
50.23271180955023
 30
0.0
 11
71.84266940881213
 21
50.40316635500478
 31
0.0
  0
LINE
  5
18F
330
1F
100
AcDbEntity
  8
101
  6
Continuous
 62
     7
370
    30
100
AcDbLine
 10
71.84266940881213
 20
50.40316635500478
 30
0.0
 11
74.82562395426669
 21
50.77248453682298
 31
0.0
  0
LINE
  5
190
330
1F
100
AcDbEntity
  8
101
  6
Continuous
 62
     7
370
    30
100
AcDbLine
 10
74.82562395426669
 20
50.77248453682298
 30
0.0
 11
79.39948759063033
 21
51.62475726409571
 31
0.0
  0
LINE
  5
191
330
1F
100
AcDbEntity
  8
101
  6
Continuous
 62
     7
370
    30
100
AcDbLine
 10
79.39948759063033
 20
51.62475726409571
 30
0.0
 11
82.63812395426669
 21
52.81793908227753
 31
0.0
  0
LINE
  5
192
330
1F
100
AcDbEntity
  8
101
  6
Continuous
 62
     7
370
    30
100
AcDbLine
 10
82.63812395426669
 20
52.81793908227753
 30
0.0
 11
85.67789668153944
 21
54.03952999136843
 31
0.0
  0
LINE
  5
193
330
1F
100
AcDbEntity
  8
101
  6
Continuous
 62
     7
370
    30
100
AcDbLine
 10
85.67789668153944
 20
54.03952999136843
 30
0.0
 11
87.86539668153944
 21
55.51680271864116
 31
0.0
  0
LINE
  5
194
330
1F
100
AcDbEntity
  8
101
  6
Continuous
 62
     7
370
    30
100
AcDbLine
 10
87.86539668153944
 20
55.51680271864116
 30
0.0
 11
89.14380577244853
 21
56.70998453682298
 31
0.0
  0
LINE
  5
195
330
1F
100
AcDbEntity
  8
101
  6
Continuous
 62
     7
370
    30
100
AcDbLine
 10
89.14380577244853
 20
56.70998453682298
 30
0.0
 11
90.05289668153944
 21
58.13043908227753
 31
0.0
  0
LINE
  5
196
330
1F
100
AcDbEntity
  8
101
  6
Continuous
 62
     7
370
    30
100
AcDbLine
 10
90.05289668153944
 20
58.13043908227753
 30
0.0
 11
90.45062395426672
 21
59.43725726409571
 31
0.0
  0
LINE
  5
197
330
1F
100
AcDbEntity
  8
101
  6
Continuous
 62
     7
370
    30
100
AcDbLine
 10
90.45062395426672
 20
59.43725726409571
 30
0.0
 11
90.36539668153944
 21
60.88612090045935
 31
0.0
  0
LINE
  5
198
330
1F
100
AcDbEntity
  8
101
  6
Continuous
 62
     7
370
    30
100
AcDbLine
 10
90.36539668153944
 20
60.88612090045935
 30
0.0
 11
90.08130577244853
 21
62.13612090045935
 31
0.0
  0
LINE
  5
199
330
1F
100
AcDbEntity
  8
101
  6
Continuous
 62
     7
370
    30
100
AcDbLine
 10
90.08130577244853
 20
62.13612090045935
 30
0.0
 11
89.48471486335762
 21
63.15884817318663
 31
0.0
  0
LINE
  5
19A
330
1F
100
AcDbEntity
  8
101
  6
Continuous
 62
     7
370
    30
100
AcDbLine
 10
89.48471486335762
 20
63.15884817318663
 30
0.0
 11
88.03585122699398
 21
64.66452999136844
 31
0.0
  0
LINE
  5
19B
330
1F
100
AcDbEntity
  8
101
  6
Continuous
 62
     7
370
    30
100
AcDbLine
 10
37.83855828908849
 20
62.44857291027794
 30
0.0
 11
37.44636259063027
 21
62.22134817318659
 31
0.0
  0
LINE
  5
19C
330
1F
100
AcDbEntity
  8
101
  6
Continuous
 62
     7
370
    30
100
AcDbLine
 10
37.44636259063027
 20
62.22134817318659
 30
0.0
 11
37.10545349972118
 21
61.66737090045932
 31
0.0
  0
LINE
  5
19D
330
1F
100
AcDbEntity
  8
101
  6
Continuous
 62
     7
370
    30
100
AcDbLine
 10
37.10545349972118
 20
61.66737090045932
 30
0.0
 11
37.12676031790299
 21
60.9429390822775
 31
0.0
  0
LINE
  5
19E
330
1F
100
AcDbEntity
  8
101
  6
Continuous
 62
     7
370
    30
100
AcDbLine
 10
37.12676031790299
 20
60.9429390822775
 30
0.0
 11
37.29721486335754
 21
60.28952999136841
 31
0.0
  0
LINE
  5
19F
330
1F
100
AcDbEntity
  8
101
  6
Continuous
 62
     7
370
    30
100
AcDbLine
 10
37.29721486335754
 20
60.28952999136841
 30
0.0
 11
37.83698759063028
 21
59.60771180955034
 31
0.0
  0
LINE
  5
1A0
330
1F
100
AcDbEntity
  8
101
  6
Continuous
 62
     7
370
    30
100
AcDbLine
 10
37.83698759063028
 20
59.60771180955034
 30
0.0
 11
38.83130577244845
 21
58.54237090045932
 31
0.0
  0
LINE
  5
1A1
330
1F
100
AcDbEntity
  8
101
  6
Continuous
 62
     7
370
    30
100
AcDbLine
 10
38.83130577244845
 20
58.54237090045932
 30
0.0
 11
39.93926031790301
 21
57.70430271864124
 31
0.0
  0
LINE
  5
1A2
330
1F
100
AcDbEntity
  8
101
  6
Continuous
 62
     7
370
    30
100
AcDbLine
 10
39.93926031790301
 20
57.70430271864124
 30
0.0
 11
41.70062395426665
 21
56.76680271864115
 31
0.0
  0
LINE
  5
1A3
330
1F
100
AcDbEntity
  8
101
  6
Continuous
 62
     7
370
    30
100
AcDbLine
 10
41.70062395426665
 20
56.76680271864115
 30
0.0
 11
44.74039668153936
 21
55.60202999136841
 31
0.0
  0
LINE
  5
1A4
330
1F
100
AcDbEntity
  8
101
  6
Continuous
 62
     7
370
    30
100
AcDbLine
 10
44.74039668153936
 20
55.60202999136841
 30
0.0
 11
47.79437395426663
 21
54.6929390822775
 31
0.0
  0
LINE
  5
1A5
330
1F
100
AcDbEntity
  8
101
  6
Continuous
 62
     7
370
    30
100
AcDbLine
 10
47.79437395426663
 20
54.6929390822775
 30
0.0
 11
50.63528304517573
 21
54.0963481731866
 31
0.0
  0
LINE
  5
1A6
330
1F
100
AcDbEntity
  8
101
  6
Continuous
 62
     7
370
    30
100
AcDbLine
 10
50.63528304517573
 20
54.0963481731866
 30
0.0
 11
55.01028304517573
 21
53.32930271864115
 31
0.0
  0
LINE
  5
1A7
330
1F
100
AcDbEntity
  8
101
  6
Continuous
 62
     7
370
    30
100
AcDbLine
 10
55.01028304517573
 20
53.32930271864115
 30
0.0
 11
57.90801031790301
 21
53.1304390822775
 31
0.0
  0
LINE
  5
1A8
330
1F
100
AcDbEntity
  8
101
  6
Continuous
 62
     7
370
    30
100
AcDbLine
 10
57.90801031790301
 20
53.1304390822775
 30
0.0
 11
61.9989194088121
 21
52.90316635500477
 31
0.0
  0
LINE
  5
1A9
330
1F
100
AcDbEntity
  8
101
  6
Continuous
 62
     7
370
    30
100
AcDbLine
 10
61.9989194088121
 20
52.90316635500477
 30
0.0
 11
67.48187395426665
 21
52.90316635500479
 31
0.0
  0
LINE
  5
1AA
330
1F
100
AcDbEntity
  8
101
  6
Continuous
 62
     7
370
    30
100
AcDbLine
 10
67.48187395426665
 20
52.90316635500479
 30
0.0
 11
71.94210122699393
 21
53.24407544591388
 31
0.0
  0
LINE
  5
1AB
330
1F
100
AcDbEntity
  8
101
  6
Continuous
 62
     7
370
    30
100
AcDbLine
 10
71.94210122699393
 20
53.24407544591388
 30
0.0
 11
76.26028304517575
 21
53.92589362773206
 31
0.0
  0
LINE
  5
1AC
330
1F
100
AcDbEntity
  8
101
  6
Continuous
 62
     7
370
    30
100
AcDbLine
 10
76.26028304517575
 20
53.92589362773206
 30
0.0
 11
80.74891940881211
 21
55.14748453682297
 31
0.0
  0
LINE
  5
1AD
330
1F
100
AcDbEntity
  8
101
  6
Continuous
 62
     7
370
    30
100
AcDbLine
 10
80.74891940881211
 20
55.14748453682297
 30
0.0
 11
83.64664668153938
 21
56.19862090045934
 31
0.0
  0
LINE
  5
1AE
330
1F
100
AcDbEntity
  8
101
  6
Continuous
 62
     7
370
    30
100
AcDbLine
 10
83.64664668153938
 20
56.19862090045934
 30
0.0
 11
85.86255577244847
 21
57.36339362773207
 31
0.0
  0
LINE
  5
1AF
330
1F
100
AcDbEntity
  8
101
  6
Continuous
 62
     7
370
    30
100
AcDbLine
 10
85.86255577244847
 20
57.36339362773207
 30
0.0
 11
87.08414668153938
 21
58.35771180955025
 31
0.0
  0
LINE
  5
1B0
330
1F
100
AcDbEntity
  8
101
  6
Continuous
 62
     7
370
    30
100
AcDbLine
 10
87.08414668153938
 20
58.35771180955025
 30
0.0
 11
87.93641940881211
 21
59.66452999136843
 31
0.0
  0
LINE
  5
1B1
330
1F
100
AcDbEntity
  8
101
  6
Continuous
 62
     7
370
    30
100
AcDbLine
 10
87.93641940881211
 20
59.66452999136843
 30
0.0
 11
88.10687395426666
 21
61.0281663550048
 31
0.0
  0
LINE
  5
1B2
330
1F
100
AcDbEntity
  8
101
  6
Continuous
 62
     7
370
    30
100
AcDbLine
 10
83.64664668153938
 20
64.29521180955025
 30
0.0
 11
85.72051031790302
 21
63.18725726409571
 31
0.0
  0
LINE
  5
1B3
330
1F
100
AcDbEntity
  8
101
  6
Continuous
 62
     7
370
    30
100
AcDbLine
 10
83.78869213608485
 20
66.9656663550048
 30
0.0
 11
85.83414668153938
 21
65.97134817318661
 31
0.0
  0
LINE
  5
1B4
330
1F
100
AcDbEntity
  8
101
  6
Continuous
 62
     7
370
    30
100
AcDbLine
 10
85.86255577244847
 20
57.36339362773207
 30
0.0
 11
85.72051031790302
 21
63.18725726409571
 31
0.0
  0
LINE
  5
1B5
330
1F
100
AcDbEntity
  8
101
  6
Continuous
 62
     7
370
    30
100
AcDbLine
 10
85.72051031790302
 20
63.18725726409571
 30
0.0
 11
85.83414668153938
 21
65.97134817318661
 31
0.0
  0
LINE
  5
1B6
330
1F
100
AcDbEntity
  8
101
  6
Continuous
 62
     7
370
    30
100
AcDbLine
 10
85.83414668153938
 20
65.97134817318661
 30
0.0
 11
86.15042304542692
 21
82.43685607450196
 31
0.0
  0
LINE
  5
1B7
330
1F
100
AcDbEntity
  8
101
  6
Continuous
 62
     7
370
    30
100
AcDbLine
 10
88.45472382224095
 20
83.32578517809054
 30
0.0
 11
88.03585122699398
 21
64.66452999136844
 31
0.0
  0
LINE
  5
1B8
330
1F
100
AcDbEntity
  8
101
  6
Continuous
 62
     7
370
    30
100
AcDbLine
 10
88.03585122699398
 20
64.66452999136844
 30
0.0
 11
87.92221486335755
 21
61.09918908227749
 31
0.0
  0
LINE
  5
1B9
330
1F
100
AcDbEntity
  8
101
  6
Continuous
 62
     7
370
    30
100
AcDbLine
 10
87.92221486335755
 20
61.09918908227749
 30
0.0
 11
87.93641940881211
 21
59.66452999136843
 31
0.0
  0
LINE
  5
1BA
330
1F
100
AcDbEntity
  8
101
  6
Continuous
 62
     7
370
    30
100
AcDbLine
 10
85.67789668153944
 20
54.03952999136843
 30
0.0
 11
84.81141940881213
 21
32.050893627732
 31
0.0
  0
LINE
  5
1BB
330
1F
100
AcDbEntity
  8
101
  6
Continuous
 62
     7
370
    30
100
AcDbLine
 10
87.08414668153941
 20
34.8918027186411
 30
0.0
 11
87.25460122699396
 21
40.34634817318656
 31
0.0
  0
LINE
  5
1BC
330
1F
100
AcDbEntity
  8
101
  6
Continuous
 62
     7
370
    30
100
AcDbLine
 10
87.25460122699396
 20
40.34634817318656
 30
0.0
 11
87.41085122699391
 21
44.50827999136839
 31
0.0
  0
LINE
  5
1BD
330
1F
100
AcDbEntity
  8
101
  6
Continuous
 62
     7
370
    30
100
AcDbLine
 10
87.41085122699391
 20
44.50827999136839
 30
0.0
 11
87.55289668153934
 21
49.57930271864112
 31
0.0
  0
LINE
  5
1BE
330
1F
100
AcDbEntity
  8
101
  6
Continuous
 62
     7
370
    30
100
AcDbLine
 10
87.55289668153934
 20
49.57930271864112
 30
0.0
 11
87.73464839009954
 21
55.42850517117525
 31
0.0
  0
LINE
  5
1BF
330
1F
100
AcDbEntity
  8
101
  6
Continuous
 62
     7
370
    30
100
AcDbLine
 10
83.34754903014954
 20
53.10303514080989
 30
0.0
 11
82.52448759063026
 21
38.05941635500474
 31
0.0
  0
LINE
  5
1C0
330
1F
100
AcDbEntity
  8
101
  6
Continuous
 62
     7
370
    30
100
AcDbLine
 10
82.52448759063026
 20
38.05941635500474
 30
0.0
 11
82.12676031790298
 21
30.44577999136836
 31
0.0
  0
LINE
  5
1C1
330
1F
100
AcDbEntity
  8
101
  6
Continuous
 62
     7
370
    30
100
AcDbLine
 10
82.84800593061537
 20
43.97256735840393
 30
0.0
 11
85.22287304778939
 21
42.49237285948244
 31
0.0
  0
LINE
  5
1C2
330
1F
100
AcDbEntity
  8
101
  6
Continuous
 62
     7
370
    30
100
AcDbLine
 10
82.694079895398
 20
41.15916305607995
 30
0.0
 11
84.00176031790298
 21
40.24691635500474
 31
0.0
  0
LINE
  5
1C3
330
1F
100
AcDbEntity
  8
101
  6
Continuous
 62
     7
370
    30
100
AcDbLine
 10
84.00176031790298
 20
40.24691635500474
 30
0.0
 11
85.10189241879972
 21
39.42224148774483
 31
0.0
  0
LINE
  5
1C4
330
1F
100
AcDbEntity
  8
101
  6
Continuous
 62
     7
370
    30
100
AcDbLine
 10
87.2670692390912
 20
40.67845067723131
 30
0.0
 11
88.77448759063027
 21
39.05373453682292
 31
0.0
  0
LINE
  5
1C5
330
1F
100
AcDbEntity
  8
101
  6
Continuous
 62
     7
370
    30
100
AcDbLine
 10
88.77448759063027
 20
39.05373453682292
 30
0.0
 11
89.48471486335754
 21
37.15032544591383
 31
0.0
  0
LINE
  5
1C6
330
1F
100
AcDbEntity
  8
101
  6
Continuous
 62
     7
370
    30
100
AcDbLine
 10
89.48471486335754
 20
37.15032544591383
 30
0.0
 11
89.74039668153937
 21
35.55941635500474
 31
0.0
  0
LINE
  5
1C7
330
1F
100
AcDbEntity
  8
101
  6
Continuous
 62
     7
370
    30
100
AcDbLine
 10
89.74039668153937
 20
35.55941635500474
 30
0.0
 11
89.54153304517573
 21
33.96850726409565
 31
0.0
  0
LINE
  5
1C8
330
1F
100
AcDbEntity
  8
101
  6
Continuous
 62
     7
370
    30
100
AcDbLine
 10
89.54153304517573
 20
33.96850726409565
 30
0.0
 11
88.91653304517573
 21
32.60487090045928
 31
0.0
  0
LINE
  5
1C9
330
1F
100
AcDbEntity
  8
101
  6
Continuous
 62
     7
370
    30
100
AcDbLine
 10
88.91653304517573
 20
32.60487090045928
 30
0.0
 11
87.95062395426663
 21
31.04237090045928
 31
0.0
  0
LINE
  5
1CA
330
1F
100
AcDbEntity
  8
101
  6
Continuous
 62
     7
370
    30
100
AcDbLine
 10
87.95062395426663
 20
31.04237090045928
 30
0.0
 11
86.72903304517573
 21
30.019643627732
 31
0.0
  0
LINE
  5
1CB
330
1F
100
AcDbEntity
  8
101
  6
Continuous
 62
     7
370
    30
100
AcDbLine
 10
86.72903304517573
 20
30.019643627732
 30
0.0
 11
84.68357849972116
 21
28.68441635500473
 31
0.0
  0
LINE
  5
1CC
330
1F
100
AcDbEntity
  8
101
  6
Continuous
 62
     7
370
    30
100
AcDbLine
 10
84.68357849972116
 20
28.68441635500473
 30
0.0
 11
82.32562395426663
 21
27.23555271864109
 31
0.0
  0
LINE
  5
1CD
330
1F
100
AcDbEntity
  8
101
  6
Continuous
 62
     7
370
    30
100
AcDbLine
 10
82.32562395426663
 20
27.23555271864109
 30
0.0
 11
79.85403304517571
 21
26.35487090045927
 31
0.0
  0
LINE
  5
1CE
330
1F
100
AcDbEntity
  8
101
  6
Continuous
 62
     7
370
    30
100
AcDbLine
 10
79.85403304517571
 20
26.35487090045927
 30
0.0
 11
77.43926031790298
 21
25.50259817318654
 31
0.0
  0
LINE
  5
1CF
330
1F
100
AcDbEntity
  8
101
  6
Continuous
 62
     7
370
    30
100
AcDbLine
 10
77.43926031790298
 20
25.50259817318654
 30
0.0
 11
74.71198759063024
 21
24.82077999136835
 31
0.0
  0
LINE
  5
1D0
330
1F
100
AcDbEntity
  8
101
  6
Continuous
 62
     7
370
    30
100
AcDbLine
 10
74.71198759063024
 20
24.82077999136835
 30
0.0
 11
72.18357849972115
 21
24.33782544591381
 31
0.0
  0
LINE
  5
1D1
330
1F
100
AcDbEntity
  8
101
  6
Continuous
 62
     7
370
    30
100
AcDbLine
 10
72.18357849972115
 20
24.33782544591381
 30
0.0
 11
67.9790330451757
 21
23.96850726409563
 31
0.0
  0
LINE
  5
1D2
330
1F
100
AcDbEntity
  8
101
  6
Continuous
 62
     7
370
    30
100
AcDbLine
 10
67.9790330451757
 20
23.96850726409563
 30
0.0
 11
64.31426031790295
 21
23.71282544591381
 31
0.0
  0
LINE
  5
1D3
330
1F
100
AcDbEntity
  8
101
  6
Continuous
 62
     7
370
    30
100
AcDbLine
 10
64.31426031790295
 20
23.71282544591381
 30
0.0
 11
60.99039668153931
 21
23.7412345368229
 31
0.0
  0
LINE
  5
1D4
330
1F
100
AcDbEntity
  8
101
  6
Continuous
 62
     7
370
    30
100
AcDbLine
 10
60.99039668153931
 20
23.7412345368229
 30
0.0
 11
58.46198759063022
 21
23.79805271864108
 31
0.0
  0
LINE
  5
1D5
330
1F
100
AcDbEntity
  8
101
  6
Continuous
 62
     7
370
    30
100
AcDbLine
 10
58.46198759063022
 20
23.79805271864108
 30
0.0
 11
54.85403304517565
 21
24.19577999136835
 31
0.0
  0
LINE
  5
1D6
330
1F
100
AcDbEntity
  8
101
  6
Continuous
 62
     7
370
    30
100
AcDbLine
 10
54.85403304517565
 20
24.19577999136835
 30
0.0
 11
49.6835784997211
 21
25.16168908227745
 31
0.0
  0
LINE
  5
1D7
330
1F
100
AcDbEntity
  8
101
  6
Continuous
 62
     7
370
    30
100
AcDbLine
 10
49.6835784997211
 20
25.16168908227745
 30
0.0
 11
45.42221486335745
 21
26.35487090045927
 31
0.0
  0
LINE
  5
1D8
330
1F
100
AcDbEntity
  8
101
  6
Continuous
 62
     7
370
    30
100
AcDbLine
 10
45.42221486335745
 20
26.35487090045927
 30
0.0
 11
42.35403304517563
 21
27.74691635500472
 31
0.0
  0
LINE
  5
1D9
330
1F
100
AcDbEntity
  8
101
  6
Continuous
 62
     7
370
    30
100
AcDbLine
 10
42.35403304517563
 20
27.74691635500472
 30
0.0
 11
40.19494213608472
 21
28.91168908227746
 31
0.0
  0
LINE
  5
1DA
330
1F
100
AcDbEntity
  8
101
  6
Continuous
 62
     7
370
    30
100
AcDbLine
 10
40.19494213608472
 20
28.91168908227746
 30
0.0
 11
37.80857849972108
 21
30.50259817318655
 31
0.0
  0
LINE
  5
1DB
330
1F
100
AcDbEntity
  8
101
  6
Continuous
 62
     7
370
    30
100
AcDbLine
 10
37.80857849972108
 20
30.50259817318655
 30
0.0
 11
36.41653304517562
 21
32.09350726409565
 31
0.0
  0
LINE
  5
1DC
330
1F
100
AcDbEntity
  8
101
  6
Continuous
 62
     7
370
    30
100
AcDbLine
 10
36.41653304517562
 20
32.09350726409565
 30
0.0
 11
35.36539668153925
 21
33.88327999136838
 31
0.0
  0
LINE
  5
1DD
330
1F
100
AcDbEntity
  8
101
  6
Continuous
 62
     7
370
    30
100
AcDbLine
 10
35.36539668153925
 20
33.88327999136838
 30
0.0
 11
34.85403304517561
 21
35.36055271864111
 31
0.0
  0
LINE
  5
1DE
330
1F
100
AcDbEntity
  8
101
  6
Continuous
 62
     7
370
    30
100
AcDbLine
 10
34.85403304517561
 20
35.36055271864111
 30
0.0
 11
34.79721486335743
 21
37.09350726409566
 31
0.0
  0
LINE
  5
1DF
330
1F
100
AcDbEntity
  8
101
  6
Continuous
 62
     7
370
    30
100
AcDbLine
 10
34.79721486335743
 20
37.09350726409566
 30
0.0
 11
35.05289668153925
 21
39.11055271864112
 31
0.0
  0
LINE
  5
1E0
330
1F
100
AcDbEntity
  8
101
  6
Continuous
 62
     7
370
    30
100
AcDbLine
 10
35.05289668153925
 20
39.11055271864112
 30
0.0
 11
36.1608512269938
 21
40.92873453682294
 31
0.0
  0
LINE
  5
1E1
330
1F
100
AcDbEntity
  8
101
  6
Continuous
 62
     7
370
    30
100
AcDbLine
 10
36.1608512269938
 20
40.92873453682294
 30
0.0
 11
38.0358512269938
 21
42.66168908227749
 31
0.0
  0
LINE
  5
1E2
330
1F
100
AcDbEntity
  8
101
  6
Continuous
 62
     7
370
    30
100
AcDbLine
 10
39.96766940881199
 20
43.96850726409568
 30
0.0
 11
41.67221486335744
 21
44.90600726409568
 31
0.0
  0
LINE
  5
1E3
330
1F
100
AcDbEntity
  8
101
  6
Continuous
 62
     7
370
    30
100
AcDbLine
 10
37.93926031790294
 20
55.56793908227757
 30
0.0
 11
38.0358512269938
 21
42.66168908227749
 31
0.0
  0
LINE
  5
1E4
330
1F
100
AcDbEntity
  8
101
  6
Continuous
 62
     7
370
    30
100
AcDbLine
 10
38.0358512269938
 20
42.66168908227749
 30
0.0
 11
38.24891940881199
 21
34.22418908227746
 31
0.0
  0
LINE
  5
1E5
330
1F
100
AcDbEntity
  8
101
  6
Continuous
 62
     7
370
    30
100
AcDbLine
 10
40.25176031790291
 20
32.15032544591382
 30
0.0
 11
39.89664668153927
 21
41.18441635500473
 31
0.0
  0
LINE
  5
1E6
330
1F
100
AcDbEntity
  8
101
  6
Continuous
 62
     7
370
    30
100
AcDbLine
 10
39.89664668153927
 20
41.18441635500473
 30
0.0
 11
39.96766940881199
 21
43.96850726409568
 31
0.0
  0
LINE
  5
1E7
330
1F
100
AcDbEntity
  8
101
  6
Continuous
 62
     7
370
    30
100
AcDbLine
 10
39.96766940881199
 20
43.96850726409568
 30
0.0
 11
39.76880577244847
 21
54.52248453682297
 31
0.0
  0
LINE
  5
1E8
330
1F
100
AcDbEntity
  8
101
  6
Continuous
 62
     7
370
    30
100
AcDbLine
 10
38.12906301199052
 20
38.97050239640729
 30
0.0
 11
37.53869213608472
 21
38.17305271864107
 31
0.0
  0
LINE
  5
1E9
330
1F
100
AcDbEntity
  8
101
  6
Continuous
 62
     7
370
    30
100
AcDbLine
 10
37.53869213608472
 20
38.17305271864107
 30
0.0
 11
37.31141940881199
 21
36.63896180955017
 31
0.0
  0
LINE
  5
1EA
330
1F
100
AcDbEntity
  8
101
  6
Continuous
 62
     7
370
    30
100
AcDbLine
 10
37.31141940881199
 20
36.63896180955017
 30
0.0
 11
37.65232849972108
 21
35.30373453682289
 31
0.0
  0
LINE
  5
1EB
330
1F
100
AcDbEntity
  8
101
  6
Continuous
 62
     7
370
    30
100
AcDbLine
 10
37.65232849972108
 20
35.30373453682289
 30
0.0
 11
38.24891940881199
 21
34.22418908227746
 31
0.0
  0
LINE
  5
1EC
330
1F
100
AcDbEntity
  8
101
  6
Continuous
 62
     7
370
    30
100
AcDbLine
 10
38.24891940881199
 20
34.22418908227746
 30
0.0
 11
40.25176031790291
 21
32.15032544591382
 31
0.0
  0
LINE
  5
1ED
330
1F
100
AcDbEntity
  8
101
  6
Continuous
 62
     7
370
    30
100
AcDbLine
 10
40.25176031790291
 20
32.15032544591382
 30
0.0
 11
43.39096486335745
 21
30.50259817318652
 31
0.0
  0
LINE
  5
1EE
330
1F
100
AcDbEntity
  8
101
  6
Continuous
 62
     7
370
    30
100
AcDbLine
 10
43.39096486335745
 20
30.50259817318652
 30
0.0
 11
46.74323759063019
 21
29.11055271864106
 31
0.0
  0
LINE
  5
1EF
330
1F
100
AcDbEntity
  8
101
  6
Continuous
 62
     7
370
    30
100
AcDbLine
 10
46.74323759063019
 20
29.11055271864106
 30
0.0
 11
50.69210122699383
 21
28.0594163550047
 31
0.0
  0
LINE
  5
1F0
330
1F
100
AcDbEntity
  8
101
  6
Continuous
 62
     7
370
    30
100
AcDbLine
 10
50.69210122699383
 20
28.0594163550047
 30
0.0
 11
54.83982849972111
 21
27.20714362773197
 31
0.0
  0
LINE
  5
1F1
330
1F
100
AcDbEntity
  8
101
  6
Continuous
 62
     7
370
    30
100
AcDbLine
 10
54.83982849972111
 20
27.20714362773197
 30
0.0
 11
57.85119213608475
 21
26.75259817318651
 31
0.0
  0
LINE
  5
1F2
330
1F
100
AcDbEntity
  8
101
  6
Continuous
 62
     7
370
    30
100
AcDbLine
 10
57.85119213608475
 20
26.75259817318651
 30
0.0
 11
61.74323759063021
 21
26.69577999136833
 31
0.0
  0
LINE
  5
1F3
330
1F
100
AcDbEntity
  8
101
  6
Continuous
 62
     7
370
    30
100
AcDbLine
 10
61.74323759063021
 20
26.69577999136833
 30
0.0
 11
68.87391940881204
 21
26.78100726409561
 31
0.0
  0
LINE
  5
1F4
330
1F
100
AcDbEntity
  8
101
  6
Continuous
 62
     7
370
    30
100
AcDbLine
 10
68.87391940881204
 20
26.78100726409561
 30
0.0
 11
73.50460122699386
 21
27.51964362773197
 31
0.0
  0
LINE
  5
1F5
330
1F
100
AcDbEntity
  8
101
  6
Continuous
 62
     7
370
    30
100
AcDbLine
 10
73.50460122699386
 20
27.51964362773197
 30
0.0
 11
77.33982849972114
 21
28.40032544591379
 31
0.0
  0
LINE
  5
1F6
330
1F
100
AcDbEntity
  8
101
  6
Continuous
 62
     7
370
    30
100
AcDbLine
 10
77.33982849972114
 20
28.40032544591379
 30
0.0
 11
80.6068739542666
 21
29.50827999136834
 31
0.0
  0
LINE
  5
1F7
330
1F
100
AcDbEntity
  8
101
  6
Continuous
 62
     7
370
    30
100
AcDbLine
 10
80.6068739542666
 20
29.50827999136834
 30
0.0
 11
82.12676031790298
 21
30.44577999136836
 31
0.0
  0
LINE
  5
1F8
330
1F
100
AcDbEntity
  8
101
  6
Continuous
 62
     7
370
    30
100
AcDbLine
 10
82.12676031790298
 20
30.44577999136836
 30
0.0
 11
84.81141940881213
 21
32.050893627732
 31
0.0
  0
LINE
  5
1F9
330
1F
100
AcDbEntity
  8
101
  6
Continuous
 62
     7
370
    30
100
AcDbLine
 10
84.81141940881213
 20
32.050893627732
 30
0.0
 11
86.2318739542666
 21
33.20146180955016
 31
0.0
  0
LINE
  5
1FA
330
1F
100
AcDbEntity
  8
101
  6
Continuous
 62
     7
370
    30
100
AcDbLine
 10
86.2318739542666
 20
33.20146180955016
 30
0.0
 11
86.8852830451757
 21
34.05373453682289
 31
0.0
  0
LINE
  5
1FB
330
1F
100
AcDbEntity
  8
101
  6
Continuous
 62
     7
370
    30
100
AcDbLine
 10
86.8852830451757
 20
34.05373453682289
 30
0.0
 11
87.08414668153941
 21
34.8918027186411
 31
0.0
  0
LINE
  5
1FC
330
1F
100
AcDbEntity
  8
101
  6
Continuous
 62
     7
370
    30
100
AcDbLine
 10
55.07011812160366
 20
50.46262431960655
 30
0.0
 11
54.83982849972111
 21
27.20714362773197
 31
0.0
  0
LINE
  5
1FD
330
1F
100
AcDbEntity
  8
101
  6
Continuous
 62
     7
370
    30
100
AcDbLine
 10
57.02471798806083
 20
26.87734898798257
 30
0.0
 11
57.39406975072674
 21
50.30769421099835
 31
0.0
  0
LINE
  5
1FE
330
1F
100
AcDbEntity
  8
101
  6
Continuous
 62
     7
370
    30
100
AcDbLine
 10
83.64664668153938
 20
56.19862090045934
 30
0.0
 11
83.64664668153938
 21
64.29521180955025
 31
0.0
  0
LINE
  5
1FF
330
1F
100
AcDbEntity
  8
101
  6
Continuous
 62
     7
370
    30
100
AcDbLine
 10
83.64664668153938
 20
64.29521180955025
 30
0.0
 11
83.78869213608485
 21
66.9656663550048
 31
0.0
  0
LINE
  5
200
330
1F
100
AcDbEntity
  8
101
  6
Continuous
 62
     7
370
    30
100
AcDbLine
 10
83.78869213608485
 20
66.9656663550048
 30
0.0
 11
84.32846486335762
 21
81.8520299913686
 31
0.0
  0
LINE
  5
201
330
1F
100
AcDbEntity
  8
101
  6
Continuous
 62
     7
370
    30
100
AcDbLine
 10
55.43413664337965
 20
80.05175548067388
 30
0.0
 11
55.13461392452304
 21
53.32077020731339
 31
0.0
  0
LINE
  5
202
330
1F
100
AcDbEntity
  8
101
  6
Continuous
 62
     7
370
    30
100
AcDbLine
 10
57.42634944194736
 20
53.16349424043132
 30
0.0
 11
57.66733744623043
 21
79.87157497504508
 31
0.0
  0
LINE
  5
203
330
1F
100
AcDbEntity
  8
101
  6
Continuous
 62
     7
370
    30
100
AcDbLine
 10
41.88830003663813
 20
53.65349188850522
 30
0.0
 11
41.84266940881201
 21
47.99549590045923
 31
0.0
  0
LINE
  5
204
330
1F
100
AcDbEntity
  8
101
  6
Continuous
 62
     7
370
    30
100
AcDbLine
 10
41.84266940881201
 20
47.99549590045923
 30
0.0
 11
41.72903304517565
 21
42.08640499136831
 31
0.0
  0
LINE
  5
205
330
1F
100
AcDbEntity
  8
101
  6
Continuous
 62
     7
370
    30
100
AcDbLine
 10
41.72903304517565
 20
42.08640499136831
 30
0.0
 11
42.12327992267014
 21
31.16798936377354
 31
0.0
  0
LINE
  5
206
330
1F
100
AcDbEntity
  8
101
  6
Continuous
 62
     7
370
    30
100
AcDbLine
 10
39.89664668153927
 20
41.18441635500473
 30
0.0
 11
41.72903304517565
 21
42.08640499136831
 31
0.0
  0
LINE
  5
207
330
1F
100
AcDbEntity
  8
101
  6
Continuous
 62
     7
370
    30
100
AcDbLine
 10
38.42155926895188
 20
30.09394432703267
 30
0.0
 11
38.97335122699383
 21
26.54663226409559
 31
0.0
  0
LINE
  5
208
330
1F
100
AcDbEntity
  8
101
  6
Continuous
 62
     7
370
    30
100
AcDbLine
 10
38.97335122699383
 20
26.54663226409559
 30
0.0
 11
39.79721486335747
 21
24.41595044591377
 31
0.0
  0
LINE
  5
209
330
1F
100
AcDbEntity
  8
101
  6
Continuous
 62
     7
370
    30
100
AcDbLine
 10
39.79721486335747
 20
24.41595044591377
 30
0.0
 11
41.10403304517565
 21
21.91595044591375
 31
0.0
  0
LINE
  5
20A
330
1F
100
AcDbEntity
  8
101
  6
Continuous
 62
     7
370
    30
100
AcDbLine
 10
41.10403304517565
 20
21.91595044591375
 30
0.0
 11
42.92221486335748
 21
19.07504135500466
 31
0.0
  0
LINE
  5
20B
330
1F
100
AcDbEntity
  8
101
  6
Continuous
 62
     7
370
    30
100
AcDbLine
 10
42.92221486335748
 20
19.07504135500466
 30
0.0
 11
45.22335122699385
 21
16.37617771864102
 31
0.0
  0
LINE
  5
20C
330
1F
100
AcDbEntity
  8
101
  6
Continuous
 62
     7
370
    30
100
AcDbLine
 10
45.22335122699385
 20
16.37617771864102
 30
0.0
 11
47.21198759063022
 21
14.33072317318647
 31
0.0
  0
LINE
  5
20D
330
1F
100
AcDbEntity
  8
101
  6
Continuous
 62
     7
370
    30
100
AcDbLine
 10
47.21198759063022
 20
14.33072317318647
 30
0.0
 11
50.1097148633575
 21
12.22845044591374
 31
0.0
  0
LINE
  5
20E
330
1F
100
AcDbEntity
  8
101
  6
Continuous
 62
     7
370
    30
100
AcDbLine
 10
50.1097148633575
 20
12.22845044591374
 30
0.0
 11
52.6097148633575
 21
10.7795868095501
 31
0.0
  0
LINE
  5
20F
330
1F
100
AcDbEntity
  8
101
  6
Continuous
 62
     7
370
    30
100
AcDbLine
 10
52.6097148633575
 20
10.7795868095501
 30
0.0
 11
55.19494213608478
 21
9.387541355004636
 31
0.0
  0
LINE
  5
210
330
1F
100
AcDbEntity
  8
101
  6
Continuous
 62
     7
370
    30
100
AcDbLine
 10
55.02448759063023
 20
11.43299590045919
 30
0.0
 11
52.95062395426659
 21
12.6545868095501
 31
0.0
  0
LINE
  5
211
330
1F
100
AcDbEntity
  8
101
  6
Continuous
 62
     7
370
    30
100
AcDbLine
 10
52.95062395426659
 20
12.6545868095501
 30
0.0
 11
50.33698759063022
 21
14.18867771864102
 31
0.0
  0
LINE
  5
212
330
1F
100
AcDbEntity
  8
101
  6
Continuous
 62
     7
370
    30
100
AcDbLine
 10
50.33698759063022
 20
14.18867771864102
 30
0.0
 11
48.29153304517567
 21
15.97845044591374
 31
0.0
  0
LINE
  5
213
330
1F
100
AcDbEntity
  8
101
  6
Continuous
 62
     7
370
    30
100
AcDbLine
 10
48.29153304517567
 20
15.97845044591374
 30
0.0
 11
47.21198759063022
 21
17.11481408227738
 31
0.0
  0
LINE
  5
214
330
1F
100
AcDbEntity
  8
101
  6
Continuous
 62
     7
370
    30
100
AcDbLine
 10
47.21198759063022
 20
17.11481408227738
 30
0.0
 11
45.08130577244839
 21
19.5864049913683
 31
0.0
  0
LINE
  5
215
330
1F
100
AcDbEntity
  8
101
  6
Continuous
 62
     7
370
    30
100
AcDbLine
 10
45.08130577244839
 20
19.5864049913683
 30
0.0
 11
43.37676031790293
 21
21.97276862773194
 31
0.0
  0
LINE
  5
216
330
1F
100
AcDbEntity
  8
101
  6
Continuous
 62
     7
370
    30
100
AcDbLine
 10
43.37676031790293
 20
21.97276862773194
 30
0.0
 11
42.26880577244837
 21
24.16026862773194
 31
0.0
  0
LINE
  5
217
330
1F
100
AcDbEntity
  8
101
  6
Continuous
 62
     7
370
    30
100
AcDbLine
 10
42.26880577244837
 20
24.16026862773194
 30
0.0
 11
41.41653304517565
 21
26.34776862773195
 31
0.0
  0
LINE
  5
218
330
1F
100
AcDbEntity
  8
101
  6
Continuous
 62
     7
370
    30
100
AcDbLine
 10
41.41653304517565
 20
26.34776862773195
 30
0.0
 11
40.87676031790292
 21
28.10913226409559
 31
0.0
  0
LINE
  5
219
330
1F
100
AcDbEntity
  8
101
  6
Continuous
 62
     7
370
    30
100
AcDbLine
 10
40.87676031790292
 20
28.10913226409559
 30
0.0
 11
40.82447189457891
 21
28.57207434414243
 31
0.0
  0
LINE
  5
21A
330
1F
100
AcDbEntity
  8
101
  6
Continuous
 62
     7
370
    30
100
AcDbLine
 10
42.35403304517563
 20
27.74691635500472
 30
0.0
 11
42.8369875906302
 21
25.21140499136831
 31
0.0
  0
LINE
  5
21B
330
1F
100
AcDbEntity
  8
101
  6
Continuous
 62
     7
370
    30
100
AcDbLine
 10
42.8369875906302
 20
25.21140499136831
 30
0.0
 11
43.60403304517565
 21
23.10913226409558
 31
0.0
  0
LINE
  5
21C
330
1F
100
AcDbEntity
  8
101
  6
Continuous
 62
     7
370
    30
100
AcDbLine
 10
43.60403304517565
 20
23.10913226409558
 30
0.0
 11
44.17221486335747
 21
21.99407544591376
 31
0.0
  0
LINE
  5
21D
330
1F
100
AcDbEntity
  8
101
  6
Continuous
 62
     7
370
    30
100
AcDbLine
 10
44.17221486335747
 20
21.99407544591376
 30
0.0
 11
44.80431713608474
 21
20.58782544591375
 31
0.0
  0
LINE
  5
21E
330
1F
100
AcDbEntity
  8
101
  6
Continuous
 62
     7
370
    30
100
AcDbLine
 10
44.80431713608474
 20
20.58782544591375
 30
0.0
 11
45.75602168153929
 21
19.33782544591375
 31
0.0
  0
LINE
  5
21F
330
1F
100
AcDbEntity
  8
101
  6
Continuous
 62
     7
370
    30
100
AcDbLine
 10
45.75602168153929
 20
19.33782544591375
 30
0.0
 11
47.1338625906302
 21
17.45572317318648
 31
0.0
  0
LINE
  5
220
330
1F
100
AcDbEntity
  8
101
  6
Continuous
 62
     7
370
    30
100
AcDbLine
 10
47.1338625906302
 20
17.45572317318648
 30
0.0
 11
48.47656924791098
 21
15.81654376852035
 31
0.0
  0
LINE
  5
221
330
1F
100
AcDbEntity
  8
101
  6
Continuous
 62
     7
370
    30
100
AcDbLine
 10
54.85403304517565
 20
24.19577999136835
 30
0.0
 11
54.79721486335749
 21
19.85629135500467
 31
0.0
  0
LINE
  5
222
330
1F
100
AcDbEntity
  8
101
  6
Continuous
 62
     7
370
    30
100
AcDbLine
 10
54.79721486335749
 20
19.85629135500467
 30
0.0
 11
54.7688057724484
 21
16.48981408227739
 31
0.0
  0
LINE
  5
223
330
1F
100
AcDbEntity
  8
101
  6
Continuous
 62
     7
370
    30
100
AcDbLine
 10
54.7688057724484
 20
16.48981408227739
 30
0.0
 11
55.02448759063023
 21
11.43299590045919
 31
0.0
  0
LINE
  5
224
330
1F
100
AcDbEntity
  8
101
  6
Continuous
 62
     7
370
    30
100
AcDbLine
 10
55.02448759063023
 20
11.43299590045919
 30
0.0
 11
55.19494213608478
 21
9.387541355004636
 31
0.0
  0
LINE
  5
225
330
1F
100
AcDbEntity
  8
101
  6
Continuous
 62
     7
370
    30
100
AcDbLine
 10
55.19494213608478
 20
9.387541355004636
 30
0.0
 11
55.83414668153936
 21
6.816518627731924
 31
0.0
  0
LINE
  5
226
330
1F
100
AcDbEntity
  8
101
  6
Continuous
 62
     7
370
    30
100
AcDbLine
 10
55.83414668153936
 20
6.816518627731924
 30
0.0
 11
56.53016940881209
 21
5.424473173186463
 31
0.0
  0
LINE
  5
227
330
1F
100
AcDbEntity
  8
101
  6
Continuous
 62
     7
370
    30
100
AcDbLine
 10
56.53016940881209
 20
5.424473173186463
 30
0.0
 11
57.62391940881209
 21
4.330723173186463
 31
0.0
  0
LINE
  5
228
330
1F
100
AcDbEntity
  8
101
  6
Continuous
 62
     7
370
    30
100
AcDbLine
 10
57.62391940881209
 20
4.330723173186463
 30
0.0
 11
58.41937395426663
 21
3.876177718641003
 31
0.0
  0
LINE
  5
229
330
1F
100
AcDbEntity
  8
101
  6
Continuous
 62
     7
370
    30
100
AcDbLine
 10
58.41937395426663
 20
3.876177718641003
 30
0.0
 11
59.28585122699391
 21
3.83356408227737
 31
0.0
  0
LINE
  5
22A
330
1F
100
AcDbEntity
  8
101
  6
Continuous
 62
     7
370
    30
100
AcDbLine
 10
59.28585122699391
 20
3.83356408227737
 30
0.0
 11
60.13812395426663
 21
4.117654991368283
 31
0.0
  0
LINE
  5
22B
330
1F
100
AcDbEntity
  8
101
  6
Continuous
 62
     7
370
    30
100
AcDbLine
 10
60.13812395426663
 20
4.117654991368283
 30
0.0
 11
60.86255577244846
 21
4.685836809550096
 31
0.0
  0
LINE
  5
22C
330
1F
100
AcDbEntity
  8
101
  6
Continuous
 62
     7
370
    30
100
AcDbLine
 10
60.86255577244846
 20
4.685836809550096
 30
0.0
 11
61.82846486335755
 21
5.90742771864101
 31
0.0
  0
LINE
  5
22D
330
1F
100
AcDbEntity
  8
101
  6
Continuous
 62
     7
370
    30
100
AcDbLine
 10
61.82846486335755
 20
5.90742771864101
 30
0.0
 11
62.70914668153937
 21
7.171632264095557
 31
0.0
  0
LINE
  5
22E
330
1F
100
AcDbEntity
  8
101
  6
Continuous
 62
     7
370
    30
100
AcDbLine
 10
62.70914668153937
 20
7.171632264095557
 30
0.0
 11
63.10687395426664
 21
8.123336809550104
 31
0.0
  0
LINE
  5
22F
330
1F
100
AcDbEntity
  8
101
  6
Continuous
 62
     7
370
    30
100
AcDbLine
 10
61.20346486335755
 20
8.91879135500465
 30
0.0
 11
60.30857849972116
 21
7.313677718641017
 31
0.0
  0
LINE
  5
230
330
1F
100
AcDbEntity
  8
101
  6
Continuous
 62
     7
370
    30
100
AcDbLine
 10
60.30857849972116
 20
7.313677718641017
 30
0.0
 11
59.76880577244843
 21
6.575041355004643
 31
0.0
  0
LINE
  5
231
330
1F
100
AcDbEntity
  8
101
  6
Continuous
 62
     7
370
    30
100
AcDbLine
 10
59.76880577244843
 20
6.575041355004643
 30
0.0
 11
59.14380577244843
 21
6.16310953682283
 31
0.0
  0
LINE
  5
232
330
1F
100
AcDbEntity
  8
101
  6
Continuous
 62
     7
370
    30
100
AcDbLine
 10
59.14380577244843
 20
6.16310953682283
 30
0.0
 11
58.6040330451757
 21
6.177314082277377
 31
0.0
  0
LINE
  5
233
330
1F
100
AcDbEntity
  8
101
  6
Continuous
 62
     7
370
    30
100
AcDbLine
 10
58.6040330451757
 20
6.177314082277377
 30
0.0
 11
57.99323759063025
 21
6.802314082277377
 31
0.0
  0
LINE
  5
234
330
1F
100
AcDbEntity
  8
101
  6
Continuous
 62
     7
370
    30
100
AcDbLine
 10
57.99323759063025
 20
6.802314082277377
 30
0.0
 11
57.70914668153934
 21
8.364814082277377
 31
0.0
  0
LINE
  5
235
330
1F
100
AcDbEntity
  8
101
  6
Continuous
 62
     7
370
    30
100
AcDbLine
 10
57.70914668153934
 20
8.364814082277377
 30
0.0
 11
57.38244213608479
 21
10.22560953682284
 31
0.0
  0
LINE
  5
236
330
1F
100
AcDbEntity
  8
101
  6
Continuous
 62
     7
370
    30
100
AcDbLine
 10
57.38244213608479
 20
10.22560953682284
 30
0.0
 11
56.97051031790296
 21
13.27958680955012
 31
0.0
  0
LINE
  5
237
330
1F
100
AcDbEntity
  8
101
  6
Continuous
 62
     7
370
    30
100
AcDbLine
 10
56.97051031790296
 20
13.27958680955012
 30
0.0
 11
57.0131239542666
 21
16.7739049913683
 31
0.0
  0
LINE
  5
238
330
1F
100
AcDbEntity
  8
101
  6
Continuous
 62
     7
370
    30
100
AcDbLine
 10
57.0131239542666
 20
16.7739049913683
 30
0.0
 11
57.03140322476638
 21
23.95575493220088
 31
0.0
  0
LINE
  5
239
330
1F
100
AcDbEntity
  8
101
  6
Continuous
 62
     7
370
    30
100
AcDbLine
 10
57.27507869721944
 20
11.02157985944523
 30
0.0
 11
59.3284648633575
 21
11.02106408227739
 31
0.0
  0
LINE
  5
23A
330
1F
100
AcDbEntity
  8
101
  6
Continuous
 62
     7
370
    30
100
AcDbLine
 10
59.3284648633575
 20
11.02106408227739
 30
0.0
 11
61.65801031790295
 21
10.9642459004592
 31
0.0
  0
LINE
  5
23B
330
1F
100
AcDbEntity
  8
101
  6
Continuous
 62
     7
370
    30
100
AcDbLine
 10
61.65801031790295
 20
10.9642459004592
 30
0.0
 11
63.90232849972114
 21
10.9642459004592
 31
0.0
  0
LINE
  5
23C
330
1F
100
AcDbEntity
  8
101
  6
Continuous
 62
     7
370
    30
100
AcDbLine
 10
63.90232849972114
 20
10.9642459004592
 30
0.0
 11
67.33982849972115
 21
11.64606408227739
 31
0.0
  0
LINE
  5
23D
330
1F
100
AcDbEntity
  8
101
  6
Continuous
 62
     7
370
    30
100
AcDbLine
 10
67.33982849972115
 20
11.64606408227739
 30
0.0
 11
70.43641940881207
 21
12.89606408227739
 31
0.0
  0
LINE
  5
23E
330
1F
100
AcDbEntity
  8
101
  6
Continuous
 62
     7
370
    30
100
AcDbLine
 10
70.43641940881207
 20
12.89606408227739
 30
0.0
 11
73.36255577244843
 21
14.34492771864103
 31
0.0
  0
LINE
  5
23F
330
1F
100
AcDbEntity
  8
101
  6
Continuous
 62
     7
370
    30
100
AcDbLine
 10
73.36255577244843
 20
14.34492771864103
 30
0.0
 11
76.03301031790298
 21
16.53242771864104
 31
0.0
  0
LINE
  5
240
330
1F
100
AcDbEntity
  8
101
  6
Continuous
 62
     7
370
    30
100
AcDbLine
 10
76.03301031790298
 20
16.53242771864104
 30
0.0
 11
78.10687395426662
 21
19.03242771864105
 31
0.0
  0
LINE
  5
241
330
1F
100
AcDbEntity
  8
101
  6
Continuous
 62
     7
370
    30
100
AcDbLine
 10
78.10687395426662
 20
19.03242771864105
 30
0.0
 11
79.86823759063029
 21
22.04379135500469
 31
0.0
  0
LINE
  5
242
330
1F
100
AcDbEntity
  8
101
  6
Continuous
 62
     7
370
    30
100
AcDbLine
 10
79.86823759063029
 20
22.04379135500469
 30
0.0
 11
80.69210122699391
 21
24.34492771864105
 31
0.0
  0
LINE
  5
243
330
1F
100
AcDbEntity
  8
101
  6
Continuous
 62
     7
370
    30
100
AcDbLine
 10
80.69210122699391
 20
24.34492771864105
 30
0.0
 11
81.2640423372465
 21
26.85728800453047
 31
0.0
  0
LINE
  5
244
330
1F
100
AcDbEntity
  8
101
  6
Continuous
 62
     7
370
    30
100
AcDbLine
 10
84.68357849972116
 20
28.68441635500473
 30
0.0
 11
84.44210122699393
 21
26.36197317318651
 31
0.0
  0
LINE
  5
245
330
1F
100
AcDbEntity
  8
101
  6
Continuous
 62
     7
370
    30
100
AcDbLine
 10
84.44210122699393
 20
26.36197317318651
 30
0.0
 11
84.10119213608483
 21
23.69151862773196
 31
0.0
  0
LINE
  5
246
330
1F
100
AcDbEntity
  8
101
  6
Continuous
 62
     7
370
    30
100
AcDbLine
 10
84.10119213608483
 20
23.69151862773196
 30
0.0
 11
83.30573759063029
 21
21.44720044591378
 31
0.0
  0
LINE
  5
247
330
1F
100
AcDbEntity
  8
101
  6
Continuous
 62
     7
370
    30
100
AcDbLine
 10
83.30573759063029
 20
21.44720044591378
 30
0.0
 11
82.25460122699391
 21
18.77674590045923
 31
0.0
  0
LINE
  5
248
330
1F
100
AcDbEntity
  8
101
  6
Continuous
 62
     7
370
    30
100
AcDbLine
 10
82.25460122699391
 20
18.77674590045923
 30
0.0
 11
80.32278304517573
 21
16.47560953682286
 31
0.0
  0
LINE
  5
249
330
1F
100
AcDbEntity
  8
101
  6
Continuous
 62
     7
370
    30
100
AcDbLine
 10
80.32278304517573
 20
16.47560953682286
 30
0.0
 11
78.41937395426663
 21
14.4585640822774
 31
0.0
  0
LINE
  5
24A
330
1F
100
AcDbEntity
  8
101
  6
Continuous
 62
     7
370
    30
100
AcDbLine
 10
78.41937395426663
 20
14.4585640822774
 30
0.0
 11
76.80005577244845
 21
13.32220044591377
 31
0.0
  0
LINE
  5
24B
330
1F
100
AcDbEntity
  8
101
  6
Continuous
 62
     7
370
    30
100
AcDbLine
 10
76.80005577244845
 20
13.32220044591377
 30
0.0
 11
74.86823759063026
 21
12.12901862773194
 31
0.0
  0
LINE
  5
24C
330
1F
100
AcDbEntity
  8
101
  6
Continuous
 62
     7
370
    30
100
AcDbLine
 10
74.86823759063026
 20
12.12901862773194
 30
0.0
 11
72.11255577244845
 21
10.90742771864103
 31
0.0
  0
LINE
  5
24D
330
1F
100
AcDbEntity
  8
101
  6
Continuous
 62
     7
370
    30
100
AcDbLine
 10
72.11255577244845
 20
10.90742771864103
 30
0.0
 11
68.87391940881207
 21
9.998336809550118
 31
0.0
  0
LINE
  5
24E
330
1F
100
AcDbEntity
  8
101
  6
Continuous
 62
     7
370
    30
100
AcDbLine
 10
68.87391940881207
 20
9.998336809550118
 30
0.0
 11
66.14664668153935
 21
9.629018627731938
 31
0.0
  0
LINE
  5
24F
330
1F
100
AcDbEntity
  8
101
  6
Continuous
 62
     7
370
    30
100
AcDbLine
 10
66.14664668153935
 20
9.629018627731938
 30
0.0
 11
64.98187395426662
 21
9.771064082277391
 31
0.0
  0
LINE
  5
250
330
1F
100
AcDbEntity
  8
101
  6
Continuous
 62
     7
370
    30
100
AcDbLine
 10
64.98187395426662
 20
9.771064082277391
 30
0.0
 11
64.07278304517571
 21
10.09776862773194
 31
0.0
  0
LINE
  5
251
330
1F
100
AcDbEntity
  8
101
  6
Continuous
 62
     7
370
    30
100
AcDbLine
 10
64.07278304517571
 20
10.09776862773194
 30
0.0
 11
63.1352830451757
 21
10.56651862773194
 31
0.0
  0
LINE
  5
252
330
1F
100
AcDbEntity
  8
101
  6
Continuous
 62
     7
370
    30
100
AcDbLine
 10
63.1352830451757
 20
10.56651862773194
 30
0.0
 11
61.85687395426661
 21
10.9642459004592
 31
0.0
  0
LINE
  5
253
330
1F
100
AcDbEntity
  8
101
  6
Continuous
 62
     7
370
    30
100
AcDbLine
 10
57.57196401542083
 20
9.146158832778447
 30
0.0
 11
59.31426031790296
 21
9.089245900459211
 31
0.0
  0
LINE
  5
254
330
1F
100
AcDbEntity
  8
101
  6
Continuous
 62
     7
370
    30
100
AcDbLine
 10
59.31426031790296
 20
9.089245900459211
 30
0.0
 11
60.49323759063023
 21
9.10345044591375
 31
0.0
  0
LINE
  5
255
330
1F
100
AcDbEntity
  8
101
  6
Continuous
 62
     7
370
    30
100
AcDbLine
 10
60.49323759063023
 20
9.10345044591375
 30
0.0
 11
61.20346486335755
 21
8.91879135500465
 31
0.0
  0
LINE
  5
256
330
1F
100
AcDbEntity
  8
101
  6
Continuous
 62
     7
370
    30
100
AcDbLine
 10
61.20346486335755
 20
8.91879135500465
 30
0.0
 11
63.10687395426664
 21
8.123336809550104
 31
0.0
  0
LINE
  5
257
330
1F
100
AcDbEntity
  8
101
  6
Continuous
 62
     7
370
    30
100
AcDbLine
 10
63.10687395426664
 20
8.123336809550104
 30
0.0
 11
65.26596486335751
 21
7.455723173186477
 31
0.0
  0
LINE
  5
258
330
1F
100
AcDbEntity
  8
101
  6
Continuous
 62
     7
370
    30
100
AcDbLine
 10
65.26596486335751
 20
7.455723173186477
 30
0.0
 11
67.05573759063023
 21
7.413109536822837
 31
0.0
  0
LINE
  5
259
330
1F
100
AcDbEntity
  8
101
  6
Continuous
 62
     7
370
    30
100
AcDbLine
 10
67.05573759063023
 20
7.413109536822837
 30
0.0
 11
68.94494213608479
 21
7.924473173186477
 31
0.0
  0
LINE
  5
25A
330
1F
100
AcDbEntity
  8
101
  6
Continuous
 62
     7
370
    30
100
AcDbLine
 10
68.94494213608479
 20
7.924473173186477
 30
0.0
 11
72.8227830451757
 21
9.075041355004657
 31
0.0
  0
LINE
  5
25B
330
1F
100
AcDbEntity
  8
101
  6
Continuous
 62
     7
370
    30
100
AcDbLine
 10
72.8227830451757
 20
9.075041355004657
 30
0.0
 11
77.85119213608482
 21
11.26254135500466
 31
0.0
  0
LINE
  5
25C
330
1F
100
AcDbEntity
  8
101
  6
Continuous
 62
     7
370
    30
100
AcDbLine
 10
77.85119213608482
 20
11.26254135500466
 30
0.0
 11
80.6210784997212
 21
13.46424590045922
 31
0.0
  0
LINE
  5
25D
330
1F
100
AcDbEntity
  8
101
  6
Continuous
 62
     7
370
    30
100
AcDbLine
 10
80.6210784997212
 20
13.46424590045922
 30
0.0
 11
83.31994213608485
 21
16.48981408227741
 31
0.0
  0
LINE
  5
25E
330
1F
100
AcDbEntity
  8
101
  6
Continuous
 62
     7
370
    30
100
AcDbLine
 10
83.31994213608485
 20
16.48981408227741
 30
0.0
 11
84.7688057724485
 21
19.04663226409559
 31
0.0
  0
LINE
  5
25F
330
1F
100
AcDbEntity
  8
101
  6
Continuous
 62
     7
370
    30
100
AcDbLine
 10
84.7688057724485
 20
19.04663226409559
 30
0.0
 11
85.94778304517574
 21
22.11481408227742
 31
0.0
  0
LINE
  5
260
330
1F
100
AcDbEntity
  8
101
  6
Continuous
 62
     7
370
    30
100
AcDbLine
 10
85.94778304517574
 20
22.11481408227742
 30
0.0
 11
86.50176031790302
 21
24.67163226409561
 31
0.0
  0
LINE
  5
261
330
1F
100
AcDbEntity
  8
101
  6
Continuous
 62
     7
370
    30
100
AcDbLine
 10
86.50176031790302
 20
24.67163226409561
 30
0.0
 11
86.72903304517575
 21
28.23697317318653
 31
0.0
  0
LINE
  5
262
330
1F
100
AcDbEntity
  8
101
  6
Continuous
 62
     7
370
    30
100
AcDbLine
 10
86.72903304517575
 20
28.23697317318653
 30
0.0
 11
86.72903304517573
 21
30.019643627732
 31
0.0
  0
LINE
  5
263
330
1F
100
AcDbEntity
  8
101
  6
Continuous
 62
     7
370
    30
100
AcDbLine
 10
64.14279762964165
 20
11.01194225680707
 30
0.0
 11
63.90232849972115
 21
10.18299590045922
 31
0.0
  0
MTEXT
  5
264
330
1F
100
AcDbEntity
  8
101
  6
Continuous
 62
     7
370
     9
100
AcDbMText
 10
-19.64727426380364
 20
240.2760736196319
 30
0.0
 40
25.0
 41
217.5698899897461
 46
25.0
 71
     7
 72
     1
  1
{\fＭＳ ゴシック;\W0.714286;[白熱ランプ付]}
 73
     1
 44
1.0
  0
MTEXT
  5
265
330
1F
100
AcDbEntity
  8
101
  6
Continuous
 62
     7
370
     9
100
AcDbMText
 10
-52.37734561349686
 20
-46.70245398773004
 30
0.0
 40
25.0
 41
293.4182016041797
 46
25.0
 71
     7
 72
     1
  1
{\fＭＳ ゴシック;\W0.714286;松本船舶電機製作所}
 73
     1
 44
1.0
  0
MTEXT
  5
266
330
1F
100
AcDbEntity
  8
101
  6
DOT
 62
     7
370
     9
100
AcDbMText
 10
2.817091453846842
 20
303.7933384779232
 30
0.0
 40
25.0
 41
119.9335944819307
 46
25.0
 71
     7
 72
     1
  1
{\fＭＳ ゴシック;\W0.714286;（2-DG-B）}
 11
0.9999450341142114
 21
0.01048469123667707
 31
0.0
 73
     1
 44
1.0
  0
MTEXT
  5
267
330
1F
100
AcDbEntity
  8
101
  6
Continuous
 62
     7
370
     9
100
AcDbMText
 10
-108.4699755308052
 20
273.9159323017271
 30
0.0
 40
25.0
 41
447.7470127327748
 46
25.0
 71
     7
 72
     1
  1
{\fＭＳ ゴシック;\W0.714286;２型ダイニングライトブラック}
 11
0.9999916307899521
 21
0.004091252870720083
 31
0.0
 73
     1
 44
1.0
  0
ENDSEC
  0
SECTION
  2
OBJECTS
  0
DICTIONARY
  5
C
330
0
100
AcDbDictionary
281
     1
  3
ACAD_DETAILVIEWSTYLE
350
26F
  3
ACAD_GROUP
350
D
  3
ACAD_LAYOUT
350
1A
  3
ACAD_MATERIAL
350
43
  3
ACAD_MLEADERSTYLE
350
6B
  3
ACAD_MLINESTYLE
350
17
  3
ACAD_PLOTSETTINGS
350
19
  3
ACAD_PLOTSTYLENAME
350
E
  3
ACAD_SCALELIST
350
47
  3
ACAD_SECTIONVIEWSTYLE
350
270
  3
ACAD_TABLESTYLE
350
69
  3
ACAD_VISUALSTYLE
350
2A
  3
ACDB_RECOMPOSE_DATA
350
26C
  3
AcDbVariableDictionary
350
268
  0
SUN
  5
6D
330
29
100
AcDbSun
 90
        1
290
     0
 63
     7
421
 16777215
 40
1.0
291
     1
 91
  2455826
 92
 54000000
292
     0
 70
     2
 71
   256
280
     1
  0
DICTIONARY
  5
26F
102
{ACAD_REACTORS
330
C
102
}
330
C
100
AcDbDictionary
281
     1
  0
DICTIONARY
  5
D
102
{ACAD_REACTORS
330
C
102
}
330
C
100
AcDbDictionary
281
     1
  0
DICTIONARY
  5
1A
102
{ACAD_REACTORS
330
C
102
}
330
C
100
AcDbDictionary
281
     1
  3
Layout1
350
1E
  3
Layout2
350
26
  3
Model
350
22
  0
DICTIONARY
  5
43
102
{ACAD_REACTORS
330
C
102
}
330
C
100
AcDbDictionary
281
     1
  3
ByBlock
350
45
  3
ByLayer
350
44
  3
Global
350
46
  0
DICTIONARY
  5
6B
102
{ACAD_REACTORS
330
C
102
}
330
C
100
AcDbDictionary
281
     1
  3
Standard
350
6C
  0
DICTIONARY
  5
17
102
{ACAD_REACTORS
330
C
102
}
330
C
100
AcDbDictionary
281
     1
  3
Standard
350
18
  0
DICTIONARY
  5
19
102
{ACAD_REACTORS
330
C
102
}
330
C
100
AcDbDictionary
281
     1
  0
ACDBDICTIONARYWDFLT
  5
E
102
{ACAD_REACTORS
330
C
102
}
330
C
100
AcDbDictionary
281
     1
  3
Normal
350
F
100
AcDbDictionaryWithDefault
340
F
  0
DICTIONARY
  5
47
102
{ACAD_REACTORS
330
C
102
}
330
C
100
AcDbDictionary
281
     1
  3
A0
350
48
  3
A1
350
49
  3
A2
350
4A
  3
A3
350
4B
  3
A4
350
4C
  3
A5
350
4D
  3
A6
350
4E
  3
A7
350
4F
  3
A8
350
50
  3
A9
350
51
  3
B0
350
52
  3
B1
350
53
  3
B2
350
54
  3
B3
350
55
  3
B4
350
56
  3
B5
350
57
  3
B6
350
58
  3
B7
350
59
  3
B8
350
5A
  3
B9
350
5B
  3
C0
350
5C
  3
C1
350
5D
  3
C2
350
5E
  3
C3
350
5F
  3
C4
350
60
  3
C5
350
61
  3
C6
350
62
  3
C7
350
63
  3
C8
350
64
  3
C9
350
65
  3
D0
350
66
  3
D1
350
67
  3
D2
350
68
  0
DICTIONARY
  5
270
102
{ACAD_REACTORS
330
C
102
}
330
C
100
AcDbDictionary
281
     1
  0
DICTIONARY
  5
69
102
{ACAD_REACTORS
330
C
102
}
330
C
100
AcDbDictionary
281
     1
  3
Standard
350
6A
  0
DICTIONARY
  5
2A
102
{ACAD_REACTORS
330
C
102
}
330
C
100
AcDbDictionary
281
     1
  3
2dWireframe
350
2F
  3
Basic
350
32
  3
Brighten
350
36
  3
ColorChange
350
3A
  3
Conceptual
350
34
  3
Dim
350
35
  3
EdgeColorOff
350
3D
  3
Facepattern
350
39
  3
Flat
350
2B
  3
FlatWithEdges
350
2C
  3
Gouraud
350
2D
  3
GouraudWithEdges
350
2E
  3
Hidden
350
31
  3
JitterOff
350
3B
  3
Linepattern
350
38
  3
OverhangOff
350
3C
  3
Realistic
350
33
  3
Shaded
350
42
  3
Shaded with edges
350
41
  3
Shades of Gray
350
3E
  3
Sketchy
350
3F
  3
Thicken
350
37
  3
Wireframe
350
30
  3
X-Ray
350
40
  0
XRECORD
  5
26C
102
{ACAD_REACTORS
330
C
102
}
330
C
100
AcDbXrecord
280
     1
 90
        1
330
6A
  0
DICTIONARY
  5
268
102
{ACAD_REACTORS
330
C
102
}
330
C
100
AcDbDictionary
281
     1
  3
CANNOSCALE
350
269
  3
CMLEADERSTYLE
350
26E
  3
CTABLESTYLE
350
26D
  0
LAYOUT
  5
1E
102
{ACAD_REACTORS
330
1A
102
}
330
1A
100
AcDbPlotSettings
  1

  2
none_device
  4

  6

 40
0.0
 41
0.0
 42
0.0
 43
0.0
 44
0.0
 45
0.0
 46
0.0
 47
0.0
 48
0.0
 49
0.0
140
0.0
141
0.0
142
1.0
143
1.0
 70
   688
 72
     0
 73
     0
 74
     5
  7

 75
    16
 76
     0
 77
     2
 78
   300
147
1.0
148
0.0
149
0.0
100
AcDbLayout
  1
Layout1
 70
     1
 71
     1
 10
0.0
 20
0.0
 11
297.0
 21
210.0
 12
0.0
 22
0.0
 32
0.0
 14
0.0
 24
0.0
 34
0.0
 15
297.0
 25
210.0
 35
0.0
146
0.0
 13
0.0
 23
0.0
 33
0.0
 16
1.0
 26
0.0
 36
0.0
 17
0.0
 27
1.0
 37
0.0
 76
     0
330
1B
  0
LAYOUT
  5
26
102
{ACAD_REACTORS
330
1A
102
}
330
1A
100
AcDbPlotSettings
  1

  2
none_device
  4

  6

 40
0.0
 41
0.0
 42
0.0
 43
0.0
 44
0.0
 45
0.0
 46
0.0
 47
0.0
 48
0.0
 49
0.0
140
0.0
141
0.0
142
1.0
143
1.0
 70
   688
 72
     0
 73
     0
 74
     5
  7

 75
    16
 76
     0
 77
     2
 78
   300
147
1.0
148
0.0
149
0.0
100
AcDbLayout
  1
Layout2
 70
     1
 71
     2
 10
0.0
 20
0.0
 11
0.0
 21
0.0
 12
0.0
 22
0.0
 32
0.0
 14
0.0
 24
0.0
 34
0.0
 15
0.0
 25
0.0
 35
0.0
146
0.0
 13
0.0
 23
0.0
 33
0.0
 16
1.0
 26
0.0
 36
0.0
 17
0.0
 27
1.0
 37
0.0
 76
     0
330
23
  0
LAYOUT
  5
22
102
{ACAD_REACTORS
330
1A
102
}
330
1A
100
AcDbPlotSettings
  1

  2
none_device
  4
Letter_(8.50_x_11.00_Inches)
  6

 40
6.35
 41
6.35
 42
6.35000508
 43
6.35000508
 44
215.9
 45
279.4
 46
0.0
 47
0.0
 48
0.0
 49
0.0
140
0.0
141
0.0
142
1.0
143
1.0
 70
  1712
 72
     0
 73
     0
 74
     0
  7

 75
     0
 76
     0
 77
     2
 78
   300
147
1.0
148
0.0
149
0.0
100
AcDbLayout
  1
Model
 70
     1
 71
     0
 10
0.0
 20
0.0
 11
297.0
 21
210.0
 12
0.0
 22
0.0
 32
0.0
 14
-108.5722568525732
 24
-46.70245398773004
 34
0.0
 15
241.5272352445063
 25
330.1025512595976
 35
0.0
146
0.0
 13
0.0
 23
0.0
 33
0.0
 16
1.0
 26
0.0
 36
0.0
 17
0.0
 27
1.0
 37
0.0
 76
     0
330
1F
331
29
  0
MATERIAL
  5
45
102
{ACAD_REACTORS
330
43
102
}
330
43
100
AcDbMaterial
  1
ByBlock
 72
     1
 94
      127
  0
MATERIAL
  5
44
102
{ACAD_REACTORS
330
43
102
}
330
43
100
AcDbMaterial
  1
ByLayer
 72
     1
 94
      127
  0
MATERIAL
  5
46
102
{ACAD_REACTORS
330
43
102
}
330
43
100
AcDbMaterial
  1
Global
 72
     1
 94
      127
  0
MLEADERSTYLE
  5
6C
102
{ACAD_REACTORS
330
6B
102
}
330
6B
100
AcDbMLeaderStyle
179
     2
170
     2
171
     1
172
     0
 90
        2
 40
0.0
 41
0.0
173
     1
 91
-1056964608
340
14
 92
       -2
290
     1
 42
0.09
291
     1
 43
0.36
  3
Standard
341
0
 44
0.18
300

342
11
174
     1
178
     6
175
     1
176
     0
 93
-1056964608
 45
0.18
292
     0
297
     0
 46
0.18
343
0
 94
-1056964608
 47
1.0
 49
1.0
140
1.0
293
     1
141
0.0
294
     1
177
     0
142
1.0
295
     0
296
     0
143
0.125
271
     0
272
     9
273
     9
298
     0
  0
MLINESTYLE
  5
18
102
{ACAD_REACTORS
330
17
102
}
330
17
100
AcDbMlineStyle
  2
Standard
 70
     0
  3

 62
   256
 51
90.0
 52
90.0
 71
     2
 49
0.5
 62
   256
  6
BYLAYER
 49
-0.5
 62
   256
  6
BYLAYER
  0
ACDBPLACEHOLDER
  5
F
102
{ACAD_REACTORS
330
E
102
}
330
E
  0
SCALE
  5
48
102
{ACAD_REACTORS
330
47
102
}
330
47
100
AcDbScale
 70
     0
300
1:1
140
1.0
141
1.0
290
     1
  0
SCALE
  5
49
102
{ACAD_REACTORS
330
47
102
}
330
47
100
AcDbScale
 70
     0
300
1:2
140
1.0
141
2.0
290
     0
  0
SCALE
  5
4A
102
{ACAD_REACTORS
330
47
102
}
330
47
100
AcDbScale
 70
     0
300
1:4
140
1.0
141
4.0
290
     0
  0
SCALE
  5
4B
102
{ACAD_REACTORS
330
47
102
}
330
47
100
AcDbScale
 70
     0
300
1:5
140
1.0
141
5.0
290
     0
  0
SCALE
  5
4C
102
{ACAD_REACTORS
330
47
102
}
330
47
100
AcDbScale
 70
     0
300
1:8
140
1.0
141
8.0
290
     0
  0
SCALE
  5
4D
102
{ACAD_REACTORS
330
47
102
}
330
47
100
AcDbScale
 70
     0
300
1:10
140
1.0
141
10.0
290
     0
  0
SCALE
  5
4E
102
{ACAD_REACTORS
330
47
102
}
330
47
100
AcDbScale
 70
     0
300
1:16
140
1.0
141
16.0
290
     0
  0
SCALE
  5
4F
102
{ACAD_REACTORS
330
47
102
}
330
47
100
AcDbScale
 70
     0
300
1:20
140
1.0
141
20.0
290
     0
  0
SCALE
  5
50
102
{ACAD_REACTORS
330
47
102
}
330
47
100
AcDbScale
 70
     0
300
1:30
140
1.0
141
30.0
290
     0
  0
SCALE
  5
51
102
{ACAD_REACTORS
330
47
102
}
330
47
100
AcDbScale
 70
     0
300
1:40
140
1.0
141
40.0
290
     0
  0
SCALE
  5
52
102
{ACAD_REACTORS
330
47
102
}
330
47
100
AcDbScale
 70
     0
300
1:50
140
1.0
141
50.0
290
     0
  0
SCALE
  5
53
102
{ACAD_REACTORS
330
47
102
}
330
47
100
AcDbScale
 70
     0
300
1:100
140
1.0
141
100.0
290
     0
  0
SCALE
  5
54
102
{ACAD_REACTORS
330
47
102
}
330
47
100
AcDbScale
 70
     0
300
2:1
140
2.0
141
1.0
290
     0
  0
SCALE
  5
55
102
{ACAD_REACTORS
330
47
102
}
330
47
100
AcDbScale
 70
     0
300
4:1
140
4.0
141
1.0
290
     0
  0
SCALE
  5
56
102
{ACAD_REACTORS
330
47
102
}
330
47
100
AcDbScale
 70
     0
300
8:1
140
8.0
141
1.0
290
     0
  0
SCALE
  5
57
102
{ACAD_REACTORS
330
47
102
}
330
47
100
AcDbScale
 70
     0
300
10:1
140
10.0
141
1.0
290
     0
  0
SCALE
  5
58
102
{ACAD_REACTORS
330
47
102
}
330
47
100
AcDbScale
 70
     0
300
100:1
140
100.0
141
1.0
290
     0
  0
SCALE
  5
59
102
{ACAD_REACTORS
330
47
102
}
330
47
100
AcDbScale
 70
     0
300
1/128" = 1'-0"
140
0.0078125
141
12.0
290
     0
  0
SCALE
  5
5A
102
{ACAD_REACTORS
330
47
102
}
330
47
100
AcDbScale
 70
     0
300
1/64" = 1'-0"
140
0.015625
141
12.0
290
     0
  0
SCALE
  5
5B
102
{ACAD_REACTORS
330
47
102
}
330
47
100
AcDbScale
 70
     0
300
1/32" = 1'-0"
140
0.03125
141
12.0
290
     0
  0
SCALE
  5
5C
102
{ACAD_REACTORS
330
47
102
}
330
47
100
AcDbScale
 70
     0
300
1/16" = 1'-0"
140
0.0625
141
12.0
290
     0
  0
SCALE
  5
5D
102
{ACAD_REACTORS
330
47
102
}
330
47
100
AcDbScale
 70
     0
300
3/32" = 1'-0"
140
0.09375
141
12.0
290
     0
  0
SCALE
  5
5E
102
{ACAD_REACTORS
330
47
102
}
330
47
100
AcDbScale
 70
     0
300
1/8" = 1'-0"
140
0.125
141
12.0
290
     0
  0
SCALE
  5
5F
102
{ACAD_REACTORS
330
47
102
}
330
47
100
AcDbScale
 70
     0
300
3/16" = 1'-0"
140
0.1875
141
12.0
290
     0
  0
SCALE
  5
60
102
{ACAD_REACTORS
330
47
102
}
330
47
100
AcDbScale
 70
     0
300
1/4" = 1'-0"
140
0.25
141
12.0
290
     0
  0
SCALE
  5
61
102
{ACAD_REACTORS
330
47
102
}
330
47
100
AcDbScale
 70
     0
300
3/8" = 1'-0"
140
0.375
141
12.0
290
     0
  0
SCALE
  5
62
102
{ACAD_REACTORS
330
47
102
}
330
47
100
AcDbScale
 70
     0
300
1/2" = 1'-0"
140
0.5
141
12.0
290
     0
  0
SCALE
  5
63
102
{ACAD_REACTORS
330
47
102
}
330
47
100
AcDbScale
 70
     0
300
3/4" = 1'-0"
140
0.75
141
12.0
290
     0
  0
SCALE
  5
64
102
{ACAD_REACTORS
330
47
102
}
330
47
100
AcDbScale
 70
     0
300
1" = 1'-0"
140
1.0
141
12.0
290
     0
  0
SCALE
  5
65
102
{ACAD_REACTORS
330
47
102
}
330
47
100
AcDbScale
 70
     0
300
1-1/2" = 1'-0"
140
1.5
141
12.0
290
     0
  0
SCALE
  5
66
102
{ACAD_REACTORS
330
47
102
}
330
47
100
AcDbScale
 70
     0
300
3" = 1'-0"
140
3.0
141
12.0
290
     0
  0
SCALE
  5
67
102
{ACAD_REACTORS
330
47
102
}
330
47
100
AcDbScale
 70
     0
300
6" = 1'-0"
140
6.0
141
12.0
290
     0
  0
SCALE
  5
68
102
{ACAD_REACTORS
330
47
102
}
330
47
100
AcDbScale
 70
     0
300
1'-0" = 1'-0"
140
12.0
141
12.0
290
     0
  0
TABLESTYLE
  5
6A
102
{ACAD_REACTORS
330
69
102
}
102
{ACAD_XDICTIONARY
360
26A
102
}
330
69
100
AcDbTableStyle
  3
Standard
 70
     0
 71
     0
 40
0.06
 41
0.06
280
     0
281
     0
  7
Standard
140
0.18
170
     2
 62
     0
 63
   257
283
     0
 90
        4
 91
        0
  1

274
    -2
284
     1
 64
     0
275
    -2
285
     1
 65
     0
276
    -2
286
     1
 66
     0
277
    -2
287
     1
 67
     0
278
    -2
288
     1
 68
     0
279
    -2
289
     1
 69
     0
  7
Standard
140
0.25
170
     5
 62
     0
 63
   257
283
     0
 90
        4
 91
        0
  1

274
    -2
284
     1
 64
     0
275
    -2
285
     1
 65
     0
276
    -2
286
     1
 66
     0
277
    -2
287
     1
 67
     0
278
    -2
288
     1
 68
     0
279
    -2
289
     1
 69
     0
  7
Standard
140
0.18
170
     5
 62
     0
 63
   257
283
     0
 90
        4
 91
        0
  1

274
    -2
284
     1
 64
     0
275
    -2
285
     1
 65
     0
276
    -2
286
     1
 66
     0
277
    -2
287
     1
 67
     0
278
    -2
288
     1
 68
     0
279
    -2
289
     1
 69
     0
  0
VISUALSTYLE
  5
2F
102
{ACAD_REACTORS
330
2A
102
}
330
2A
100
AcDbVisualStyle
  2
2dWireframe
 70
     4
177
     3
291
     0
 70
    58
 90
        0
176
     1
 90
        2
176
     1
 90
        0
176
     1
 90
        0
176
     1
 40
0.6
176
     1
 40
30.0
176
     1
 62
     7
420
 16777215
176
     1
 90
        1
176
     1
 90
        4
176
     1
 62
     7
176
     1
 62
   257
176
     1
 90
        1
176
     1
 90
        1
176
     1
 40
1.0
176
     1
 90
        0
176
     1
 62
   257
176
     1
 40
1.0
176
     1
 90
        1
176
     1
 90
        6
176
     1
 90
        2
176
     1
 62
     7
176
     1
 90
        5
176
     1
 90
        0
176
     1
 90
        0
176
     1
290
     0
176
     1
 90
        1
176
     1
 40
0.0
176
     1
 90
        0
176
     1
290
     1
176
     1
290
     1
176
     1
290
     0
176
     1
290
     0
176
     1
290
     0
176
     1
290
     0
176
     1
290
     0
176
     1
290
     0
176
     1
290
     0
176
     1
 90
       50
176
     1
 40
0.0
176
     1
 40
1.0
176
     1
 90
        0
176
     1
 62
    18
420
        0
176
     1
 90
       50
176
     1
 90
        3
176
     1
 62
     5
420
      255
176
     1
290
     0
176
     1
 90
       50
176
     1
 90
       50
176
     1
 90
       50
176
     1
290
     0
176
     1
 90
       50
176
     1
 62
   256
176
     0
 40
1.0
176
     0
 90
        2
176
     1
  1
strokes_ogs.tif
176
     1
290
     0
176
     1
 40
1.0
176
     1
 40
1.0
176
     1
  0
VISUALSTYLE
  5
32
102
{ACAD_REACTORS
330
2A
102
}
330
2A
100
AcDbVisualStyle
  2
Basic
 70
     7
177
     3
291
     1
 70
    58
 90
        1
176
     1
 90
        0
176
     1
 90
        1
176
     1
 90
        0
176
     1
 40
0.6
176
     1
 40
30.0
176
     1
 62
     7
420
 16777215
176
     1
 90
        0
176
     1
 90
        4
176
     1
 62
     7
176
     1
 62
   257
176
     1
 90
        1
176
     1
 90
        1
176
     1
 40
1.0
176
     1
 90
        8
176
     1
 62
     7
176
     1
 40
1.0
176
     1
 90
        1
176
     1
 90
        6
176
     1
 90
        2
176
     1
 62
     7
176
     1
 90
        5
176
     1
 90
        0
176
     1
 90
        0
176
     1
290
     0
176
     1
 90
        1
176
     1
 40
0.0
176
     1
 90
        0
176
     1
290
     0
176
     1
290
     1
176
     1
290
     1
176
     1
290
     0
176
     1
290
     0
176
     1
290
     0
176
     1
290
     0
176
     1
290
     0
176
     1
290
     0
176
     1
 90
       50
176
     1
 40
0.0
176
     1
 40
1.0
176
     1
 90
        0
176
     1
 62
    18
420
        0
176
     1
 90
       50
176
     1
 90
        3
176
     1
 62
     5
420
      255
176
     1
290
     0
176
     1
 90
       50
176
     1
 90
       50
176
     1
 90
       50
176
     1
290
     0
176
     1
 90
       50
176
     1
 62
   256
176
     0
 40
1.0
176
     0
 90
        2
176
     1
  1
strokes_ogs.tif
176
     1
290
     0
176
     1
 40
1.0
176
     1
 40
1.0
176
     1
  0
VISUALSTYLE
  5
36
102
{ACAD_REACTORS
330
2A
102
}
330
2A
100
AcDbVisualStyle
  2
Brighten
 70
    12
177
     3
291
     1
 70
    58
 90
        2
176
     1
 90
        2
176
     1
 90
        0
176
     1
 90
        0
176
     1
 40
0.6
176
     1
 40
30.0
176
     1
 62
     7
420
 16777215
176
     1
 90
        1
176
     1
 90
        4
176
     1
 62
     7
176
     1
 62
   257
176
     1
 90
        1
176
     1
 90
        1
176
     1
 40
1.0
176
     1
 90
        8
176
     1
 62
     7
176
     1
 40
1.0
176
     1
 90
        1
176
     1
 90
        6
176
     1
 90
        2
176
     1
 62
     7
176
     1
 90
        5
176
     1
 90
        0
176
     1
 90
        0
176
     1
290
     0
176
     1
 90
        1
176
     1
 40
50.0
176
     1
 90
        0
176
     1
290
     0
176
     1
290
     1
176
     1
290
     1
176
     1
290
     0
176
     1
290
     0
176
     1
290
     0
176
     1
290
     0
176
     1
290
     0
176
     1
290
     0
176
     1
 90
       50
176
     1
 40
0.0
176
     1
 40
1.0
176
     1
 90
        0
176
     1
 62
    18
420
        0
176
     1
 90
       50
176
     1
 90
        3
176
     1
 62
     5
420
      255
176
     1
290
     0
176
     1
 90
       50
176
     1
 90
       50
176
     1
 90
       50
176
     1
290
     0
176
     1
 90
       50
176
     1
 62
   256
176
     0
 40
1.0
176
     0
 90
        2
176
     1
  1
strokes_ogs.tif
176
     1
290
     0
176
     1
 40
1.0
176
     1
 40
1.0
176
     1
  0
VISUALSTYLE
  5
3A
102
{ACAD_REACTORS
330
2A
102
}
330
2A
100
AcDbVisualStyle
  2
ColorChange
 70
    16
177
     3
291
     1
 70
    58
 90
        2
176
     1
 90
        2
176
     1
 90
        3
176
     1
 90
        0
176
     1
 40
0.6
176
     1
 40
30.0
176
     1
 62
     8
420
  8421504
176
     1
 90
        1
176
     1
 90
        4
176
     1
 62
     7
176
     1
 62
   257
176
     1
 90
        1
176
     1
 90
        1
176
     1
 40
1.0
176
     1
 90
        8
176
     1
 62
     8
420
  8421504
176
     1
 40
1.0
176
     1
 90
        1
176
     1
 90
        6
176
     1
 90
        2
176
     1
 62
     7
176
     1
 90
        5
176
     1
 90
        0
176
     1
 90
        0
176
     1
290
     0
176
     1
 90
        1
176
     1
 40
0.0
176
     1
 90
        0
176
     1
290
     0
176
     1
290
     1
176
     1
290
     1
176
     1
290
     0
176
     1
290
     0
176
     1
290
     0
176
     1
290
     0
176
     1
290
     0
176
     1
290
     0
176
     1
 90
       50
176
     1
 40
0.0
176
     1
 40
1.0
176
     1
 90
        0
176
     1
 62
    18
420
        0
176
     1
 90
       50
176
     1
 90
        3
176
     1
 62
     5
420
      255
176
     1
290
     0
176
     1
 90
       50
176
     1
 90
       50
176
     1
 90
       50
176
     1
290
     0
176
     1
 90
       50
176
     1
 62
   256
176
     0
 40
1.0
176
     0
 90
        2
176
     1
  1
strokes_ogs.tif
176
     1
290
     0
176
     1
 40
1.0
176
     1
 40
1.0
176
     1
  0
VISUALSTYLE
  5
34
102
{ACAD_REACTORS
330
2A
102
}
330
2A
100
AcDbVisualStyle
  2
Conceptual
 70
     9
177
     3
291
     0
 70
    58
 90
        3
176
     1
 90
        2
176
     1
 90
        0
176
     1
 90
        0
176
     1
 40
0.6
176
     1
 40
30.0
176
     1
 62
     7
420
 16777215
176
     1
 90
        2
176
     1
 90
        2
176
     1
 62
     7
176
     1
 62
   257
176
     1
 90
        1
176
     1
 90
        1
176
     1
 40
179.0
176
     1
 90
        8
176
     1
 62
     7
176
     1
 40
1.0
176
     1
 90
        1
176
     1
 90
        6
176
     1
 90
        2
176
     1
 62
     7
176
     1
 90
        3
176
     1
 90
        0
176
     1
 90
        0
176
     1
290
     0
176
     1
 90
        1
176
     1
 40
0.0
176
     1
 90
        0
176
     1
290
     0
176
     1
290
     1
176
     1
290
     1
176
     1
290
     0
176
     1
290
     0
176
     1
290
     0
176
     1
290
     0
176
     1
290
     0
176
     1
290
     0
176
     1
 90
       50
176
     1
 40
0.0
176
     1
 40
1.0
176
     1
 90
        0
176
     1
 62
    18
420
        0
176
     1
 90
       50
176
     1
 90
        3
176
     1
 62
     5
420
      255
176
     1
290
     0
176
     1
 90
       50
176
     1
 90
       50
176
     1
 90
       50
176
     1
290
     0
176
     1
 90
       50
176
     1
 62
   256
176
     0
 40
1.0
176
     0
 90
        2
176
     1
  1
strokes_ogs.tif
176
     1
290
     0
176
     1
 40
1.0
176
     1
 40
1.0
176
     1
  0
VISUALSTYLE
  5
35
102
{ACAD_REACTORS
330
2A
102
}
330
2A
100
AcDbVisualStyle
  2
Dim
 70
    11
177
     3
291
     1
 70
    58
 90
        2
176
     1
 90
        2
176
     1
 90
        0
176
     1
 90
        0
176
     1
 40
0.6
176
     1
 40
30.0
176
     1
 62
     7
420
 16777215
176
     1
 90
        1
176
     1
 90
        4
176
     1
 62
     7
176
     1
 62
   257
176
     1
 90
        1
176
     1
 90
        1
176
     1
 40
1.0
176
     1
 90
        8
176
     1
 62
     7
176
     1
 40
1.0
176
     1
 90
        1
176
     1
 90
        6
176
     1
 90
        2
176
     1
 62
     7
176
     1
 90
        5
176
     1
 90
        0
176
     1
 90
        0
176
     1
290
     0
176
     1
 90
        1
176
     1
 40
-50.0
176
     1
 90
        0
176
     1
290
     0
176
     1
290
     1
176
     1
290
     1
176
     1
290
     0
176
     1
290
     0
176
     1
290
     0
176
     1
290
     0
176
     1
290
     0
176
     1
290
     0
176
     1
 90
       50
176
     1
 40
0.0
176
     1
 40
1.0
176
     1
 90
        0
176
     1
 62
    18
420
        0
176
     1
 90
       50
176
     1
 90
        3
176
     1
 62
     5
420
      255
176
     1
290
     0
176
     1
 90
       50
176
     1
 90
       50
176
     1
 90
       50
176
     1
290
     0
176
     1
 90
       50
176
     1
 62
   256
176
     0
 40
1.0
176
     0
 90
        2
176
     1
  1
strokes_ogs.tif
176
     1
290
     0
176
     1
 40
1.0
176
     1
 40
1.0
176
     1
  0
VISUALSTYLE
  5
3D
102
{ACAD_REACTORS
330
2A
102
}
330
2A
100
AcDbVisualStyle
  2
EdgeColorOff
 70
    22
177
     3
291
     1
 70
    58
 90
        2
176
     0
 90
        2
176
     0
 90
        0
176
     0
 90
        0
176
     0
 40
0.6
176
     0
 40
30.0
176
     0
 62
     7
420
 16777215
176
     0
 90
        1
176
     0
 90
        4
176
     0
 62
     7
176
     0
 62
   257
176
     0
 90
        1
176
     0
 90
        1
176
     0
 40
1.0
176
     0
 90
        8
176
     2
 62
     7
176
     0
 40
1.0
176
     0
 90
        1
176
     0
 90
        6
176
     0
 90
        2
176
     0
 62
     7
176
     0
 90
        5
176
     0
 90
        0
176
     0
 90
        0
176
     0
290
     0
176
     0
 90
        1
176
     0
 40
0.0
176
     0
 90
        0
176
     0
290
     0
176
     0
290
     1
176
     0
290
     1
176
     0
290
     0
176
     0
290
     0
176
     0
290
     0
176
     0
290
     0
176
     0
290
     0
176
     0
290
     0
176
     0
 90
       50
176
     0
 40
0.0
176
     0
 40
1.0
176
     0
 90
        0
176
     0
 62
    18
420
        0
176
     0
 90
       50
176
     0
 90
        3
176
     0
 62
     5
420
      255
176
     0
290
     0
176
     0
 90
       50
176
     0
 90
       50
176
     0
 90
       50
176
     0
290
     0
176
     0
 90
       50
176
     0
 62
   256
176
     0
 40
1.0
176
     0
 90
        2
176
     0
  1
strokes_ogs.tif
176
     0
290
     0
176
     0
 40
1.0
176
     0
 40
1.0
176
     0
  0
VISUALSTYLE
  5
39
102
{ACAD_REACTORS
330
2A
102
}
330
2A
100
AcDbVisualStyle
  2
Facepattern
 70
    15
177
     3
291
     1
 70
    58
 90
        2
176
     1
 90
        2
176
     1
 90
        0
176
     1
 90
        0
176
     1
 40
0.6
176
     1
 40
30.0
176
     1
 62
     7
420
 16777215
176
     1
 90
        1
176
     1
 90
        4
176
     1
 62
     7
176
     1
 62
   257
176
     1
 90
        1
176
     1
 90
        1
176
     1
 40
1.0
176
     1
 90
        8
176
     1
 62
     7
176
     1
 40
1.0
176
     1
 90
        1
176
     1
 90
        6
176
     1
 90
        2
176
     1
 62
     7
176
     1
 90
        5
176
     1
 90
        0
176
     1
 90
        0
176
     1
290
     0
176
     1
 90
        1
176
     1
 40
0.0
176
     1
 90
        0
176
     1
290
     0
176
     1
290
     1
176
     1
290
     1
176
     1
290
     0
176
     1
290
     0
176
     1
290
     0
176
     1
290
     0
176
     1
290
     0
176
     1
290
     0
176
     1
 90
       50
176
     1
 40
0.0
176
     1
 40
1.0
176
     1
 90
        0
176
     1
 62
    18
420
        0
176
     1
 90
       50
176
     1
 90
        3
176
     1
 62
     5
420
      255
176
     1
290
     0
176
     1
 90
       50
176
     1
 90
       50
176
     1
 90
       50
176
     1
290
     0
176
     1
 90
       50
176
     1
 62
   256
176
     0
 40
1.0
176
     0
 90
        2
176
     1
  1
strokes_ogs.tif
176
     1
290
     0
176
     1
 40
1.0
176
     1
 40
1.0
176
     1
  0
VISUALSTYLE
  5
2B
102
{ACAD_REACTORS
330
2A
102
}
330
2A
100
AcDbVisualStyle
  2
Flat
 70
     0
177
     3
291
     1
 70
    58
 90
        2
176
     1
 90
        1
176
     1
 90
        1
176
     1
 90
        2
176
     1
 40
0.6
176
     1
 40
30.0
176
     1
 62
     7
420
 16777215
176
     1
 90
        0
176
     1
 90
        0
176
     1
 62
     7
176
     1
 62
   257
176
     1
 90
        1
176
     1
 90
        1
176
     1
 40
1.0
176
     1
 90
        8
176
     1
 62
     7
176
     1
 40
1.0
176
     1
 90
        1
176
     1
 90
        6
176
     1
 90
        2
176
     1
 62
     7
176
     1
 90
        5
176
     1
 90
        0
176
     1
 90
        0
176
     1
290
     0
176
     1
 90
       13
176
     1
 40
0.0
176
     1
 90
        0
176
     1
290
     0
176
     1
290
     1
176
     1
290
     1
176
     1
290
     0
176
     1
290
     0
176
     1
290
     0
176
     1
290
     0
176
     1
290
     0
176
     1
290
     0
176
     1
 90
       50
176
     1
 40
0.0
176
     1
 40
1.0
176
     1
 90
        0
176
     1
 62
    18
420
        0
176
     1
 90
       50
176
     1
 90
        3
176
     1
 62
     5
420
      255
176
     1
290
     0
176
     1
 90
       50
176
     1
 90
       50
176
     1
 90
       50
176
     1
290
     0
176
     1
 90
       50
176
     1
 62
   256
176
     0
 40
1.0
176
     0
 90
        2
176
     1
  1
strokes_ogs.tif
176
     1
290
     0
176
     1
 40
1.0
176
     1
 40
1.0
176
     1
  0
VISUALSTYLE
  5
2C
102
{ACAD_REACTORS
330
2A
102
}
330
2A
100
AcDbVisualStyle
  2
FlatWithEdges
 70
     1
177
     3
291
     1
 70
    58
 90
        2
176
     1
 90
        1
176
     1
 90
        1
176
     1
 90
        2
176
     1
 40
0.6
176
     1
 40
30.0
176
     1
 62
     7
420
 16777215
176
     1
 90
        1
176
     1
 90
        0
176
     1
 62
     7
176
     1
 62
   257
176
     1
 90
        1
176
     1
 90
        1
176
     1
 40
1.0
176
     1
 90
        0
176
     1
 62
   257
176
     1
 40
1.0
176
     1
 90
        1
176
     1
 90
        6
176
     1
 90
        2
176
     1
 62
     7
176
     1
 90
        5
176
     1
 90
        0
176
     1
 90
        0
176
     1
290
     0
176
     1
 90
       13
176
     1
 40
0.0
176
     1
 90
        0
176
     1
290
     0
176
     1
290
     1
176
     1
290
     1
176
     1
290
     0
176
     1
290
     0
176
     1
290
     0
176
     1
290
     0
176
     1
290
     0
176
     1
290
     0
176
     1
 90
       50
176
     1
 40
0.0
176
     1
 40
1.0
176
     1
 90
        0
176
     1
 62
    18
420
        0
176
     1
 90
       50
176
     1
 90
        3
176
     1
 62
     5
420
      255
176
     1
290
     0
176
     1
 90
       50
176
     1
 90
       50
176
     1
 90
       50
176
     1
290
     0
176
     1
 90
       50
176
     1
 62
   256
176
     0
 40
1.0
176
     0
 90
        2
176
     1
  1
strokes_ogs.tif
176
     1
290
     0
176
     1
 40
1.0
176
     1
 40
1.0
176
     1
  0
VISUALSTYLE
  5
2D
102
{ACAD_REACTORS
330
2A
102
}
330
2A
100
AcDbVisualStyle
  2
Gouraud
 70
     2
177
     3
291
     1
 70
    58
 90
        2
176
     1
 90
        2
176
     1
 90
        1
176
     1
 90
        2
176
     1
 40
0.6
176
     1
 40
30.0
176
     1
 62
     7
420
 16777215
176
     1
 90
        0
176
     1
 90
        0
176
     1
 62
     7
176
     1
 62
   257
176
     1
 90
        1
176
     1
 90
        1
176
     1
 40
1.0
176
     1
 90
        0
176
     1
 62
     7
176
     1
 40
1.0
176
     1
 90
        1
176
     1
 90
        6
176
     1
 90
        2
176
     1
 62
     7
176
     1
 90
        5
176
     1
 90
        0
176
     1
 90
        0
176
     1
290
     0
176
     1
 90
       13
176
     1
 40
0.0
176
     1
 90
        0
176
     1
290
     0
176
     1
290
     1
176
     1
290
     1
176
     1
290
     0
176
     1
290
     0
176
     1
290
     0
176
     1
290
     0
176
     1
290
     0
176
     1
290
     0
176
     1
 90
       50
176
     1
 40
0.0
176
     1
 40
1.0
176
     1
 90
        0
176
     1
 62
    18
420
        0
176
     1
 90
       50
176
     1
 90
        3
176
     1
 62
     5
420
      255
176
     1
290
     0
176
     1
 90
       50
176
     1
 90
       50
176
     1
 90
       50
176
     1
290
     0
176
     1
 90
       50
176
     1
 62
   256
176
     0
 40
1.0
176
     0
 90
        2
176
     1
  1
strokes_ogs.tif
176
     1
290
     0
176
     1
 40
1.0
176
     1
 40
1.0
176
     1
  0
VISUALSTYLE
  5
2E
102
{ACAD_REACTORS
330
2A
102
}
330
2A
100
AcDbVisualStyle
  2
GouraudWithEdges
 70
     3
177
     3
291
     1
 70
    58
 90
        2
176
     1
 90
        2
176
     1
 90
        1
176
     1
 90
        2
176
     1
 40
0.6
176
     1
 40
30.0
176
     1
 62
     7
420
 16777215
176
     1
 90
        1
176
     1
 90
        0
176
     1
 62
     7
176
     1
 62
   257
176
     1
 90
        1
176
     1
 90
        1
176
     1
 40
1.0
176
     1
 90
        0
176
     1
 62
   257
176
     1
 40
1.0
176
     1
 90
        1
176
     1
 90
        6
176
     1
 90
        2
176
     1
 62
     7
176
     1
 90
        5
176
     1
 90
        0
176
     1
 90
        0
176
     1
290
     0
176
     1
 90
       13
176
     1
 40
0.0
176
     1
 90
        0
176
     1
290
     0
176
     1
290
     1
176
     1
290
     1
176
     1
290
     0
176
     1
290
     0
176
     1
290
     0
176
     1
290
     0
176
     1
290
     0
176
     1
290
     0
176
     1
 90
       50
176
     1
 40
0.0
176
     1
 40
1.0
176
     1
 90
        0
176
     1
 62
    18
420
        0
176
     1
 90
       50
176
     1
 90
        3
176
     1
 62
     5
420
      255
176
     1
290
     0
176
     1
 90
       50
176
     1
 90
       50
176
     1
 90
       50
176
     1
290
     0
176
     1
 90
       50
176
     1
 62
   256
176
     0
 40
1.0
176
     0
 90
        2
176
     1
  1
strokes_ogs.tif
176
     1
290
     0
176
     1
 40
1.0
176
     1
 40
1.0
176
     1
  0
VISUALSTYLE
  5
31
102
{ACAD_REACTORS
330
2A
102
}
330
2A
100
AcDbVisualStyle
  2
Hidden
 70
     6
177
     3
291
     0
 70
    58
 90
        1
176
     1
 90
        2
176
     1
 90
        2
176
     1
 90
        0
176
     1
 40
0.6
176
     1
 40
30.0
176
     1
 62
     7
420
 16777215
176
     1
 90
        2
176
     1
 90
        2
176
     1
 62
     7
176
     1
 62
   257
176
     1
 90
        2
176
     1
 90
        1
176
     1
 40
40.0
176
     1
 90
        0
176
     1
 62
   257
176
     1
 40
1.0
176
     1
 90
        1
176
     1
 90
        6
176
     1
 90
        2
176
     1
 62
     7
176
     1
 90
        3
176
     1
 90
        0
176
     1
 90
        0
176
     1
290
     0
176
     1
 90
        1
176
     1
 40
0.0
176
     1
 90
        0
176
     1
290
     0
176
     1
290
     1
176
     1
290
     1
176
     1
290
     0
176
     1
290
     0
176
     1
290
     0
176
     1
290
     0
176
     1
290
     0
176
     1
290
     0
176
     1
 90
       50
176
     1
 40
0.0
176
     1
 40
1.0
176
     1
 90
        0
176
     1
 62
    18
420
        0
176
     1
 90
       50
176
     1
 90
        3
176
     1
 62
     5
420
      255
176
     1
290
     0
176
     1
 90
       50
176
     1
 90
       50
176
     1
 90
       50
176
     1
290
     0
176
     1
 90
       50
176
     1
 62
   256
176
     0
 40
1.0
176
     0
 90
        2
176
     1
  1
strokes_ogs.tif
176
     1
290
     0
176
     1
 40
1.0
176
     1
 40
1.0
176
     1
  0
VISUALSTYLE
  5
3B
102
{ACAD_REACTORS
330
2A
102
}
330
2A
100
AcDbVisualStyle
  2
JitterOff
 70
    20
177
     3
291
     1
 70
    58
 90
        2
176
     0
 90
        2
176
     0
 90
        0
176
     0
 90
        0
176
     0
 40
0.6
176
     0
 40
30.0
176
     0
 62
     7
420
 16777215
176
     0
 90
        1
176
     0
 90
        4
176
     0
 62
     7
176
     0
 62
   257
176
     0
 90
        1
176
     0
 90
        1
176
     0
 40
1.0
176
     0
 90
       10
176
     2
 62
     7
176
     0
 40
1.0
176
     0
 90
        1
176
     0
 90
        6
176
     0
 90
        2
176
     0
 62
     7
176
     0
 90
        5
176
     0
 90
        0
176
     0
 90
        0
176
     0
290
     0
176
     0
 90
        1
176
     0
 40
0.0
176
     0
 90
        0
176
     0
290
     0
176
     0
290
     1
176
     0
290
     1
176
     0
290
     0
176
     0
290
     0
176
     0
290
     0
176
     0
290
     0
176
     0
290
     0
176
     0
290
     0
176
     0
 90
       50
176
     0
 40
0.0
176
     0
 40
1.0
176
     0
 90
        0
176
     0
 62
    18
420
        0
176
     0
 90
       50
176
     0
 90
        3
176
     0
 62
     5
420
      255
176
     0
290
     0
176
     0
 90
       50
176
     0
 90
       50
176
     0
 90
       50
176
     0
290
     0
176
     0
 90
       50
176
     0
 62
   256
176
     0
 40
1.0
176
     0
 90
        2
176
     0
  1
strokes_ogs.tif
176
     0
290
     0
176
     0
 40
1.0
176
     0
 40
1.0
176
     0
  0
VISUALSTYLE
  5
38
102
{ACAD_REACTORS
330
2A
102
}
330
2A
100
AcDbVisualStyle
  2
Linepattern
 70
    14
177
     3
291
     1
 70
    58
 90
        2
176
     1
 90
        2
176
     1
 90
        0
176
     1
 90
        0
176
     1
 40
0.6
176
     1
 40
30.0
176
     1
 62
     7
420
 16777215
176
     1
 90
        1
176
     1
 90
        4
176
     1
 62
     7
176
     1
 62
   257
176
     1
 90
        7
176
     1
 90
        7
176
     1
 40
1.0
176
     1
 90
        8
176
     1
 62
     7
176
     1
 40
1.0
176
     1
 90
        1
176
     1
 90
        6
176
     1
 90
        2
176
     1
 62
     7
176
     1
 90
        5
176
     1
 90
        0
176
     1
 90
        0
176
     1
290
     0
176
     1
 90
        1
176
     1
 40
0.0
176
     1
 90
        0
176
     1
290
     0
176
     1
290
     1
176
     1
290
     1
176
     1
290
     0
176
     1
290
     0
176
     1
290
     0
176
     1
290
     0
176
     1
290
     0
176
     1
290
     0
176
     1
 90
       50
176
     1
 40
0.0
176
     1
 40
1.0
176
     1
 90
        0
176
     1
 62
    18
420
        0
176
     1
 90
       50
176
     1
 90
        3
176
     1
 62
     5
420
      255
176
     1
290
     0
176
     1
 90
       50
176
     1
 90
       50
176
     1
 90
       50
176
     1
290
     0
176
     1
 90
       50
176
     1
 62
   256
176
     0
 40
1.0
176
     0
 90
        2
176
     1
  1
strokes_ogs.tif
176
     1
290
     0
176
     1
 40
1.0
176
     1
 40
1.0
176
     1
  0
VISUALSTYLE
  5
3C
102
{ACAD_REACTORS
330
2A
102
}
330
2A
100
AcDbVisualStyle
  2
OverhangOff
 70
    21
177
     3
291
     1
 70
    58
 90
        2
176
     0
 90
        2
176
     0
 90
        0
176
     0
 90
        0
176
     0
 40
0.6
176
     0
 40
30.0
176
     0
 62
     7
420
 16777215
176
     0
 90
        1
176
     0
 90
        4
176
     0
 62
     7
176
     0
 62
   257
176
     0
 90
        1
176
     0
 90
        1
176
     0
 40
1.0
176
     0
 90
        9
176
     2
 62
     7
176
     0
 40
1.0
176
     0
 90
        1
176
     0
 90
        6
176
     0
 90
        2
176
     0
 62
     7
176
     0
 90
        5
176
     0
 90
        0
176
     0
 90
        0
176
     0
290
     0
176
     0
 90
        1
176
     0
 40
0.0
176
     0
 90
        0
176
     0
290
     0
176
     0
290
     1
176
     0
290
     1
176
     0
290
     0
176
     0
290
     0
176
     0
290
     0
176
     0
290
     0
176
     0
290
     0
176
     0
290
     0
176
     0
 90
       50
176
     0
 40
0.0
176
     0
 40
1.0
176
     0
 90
        0
176
     0
 62
    18
420
        0
176
     0
 90
       50
176
     0
 90
        3
176
     0
 62
     5
420
      255
176
     0
290
     0
176
     0
 90
       50
176
     0
 90
       50
176
     0
 90
       50
176
     0
290
     0
176
     0
 90
       50
176
     0
 62
   256
176
     0
 40
1.0
176
     0
 90
        2
176
     0
  1
strokes_ogs.tif
176
     0
290
     0
176
     0
 40
1.0
176
     0
 40
1.0
176
     0
  0
VISUALSTYLE
  5
33
102
{ACAD_REACTORS
330
2A
102
}
330
2A
100
AcDbVisualStyle
  2
Realistic
 70
     8
177
     3
291
     0
 70
    58
 90
        2
176
     1
 90
        3
176
     1
 90
        0
176
     1
 90
        2
176
     1
 40
0.6
176
     1
 40
30.0
176
     1
 62
     7
420
 16777215
176
     1
 90
        0
176
     1
 90
        0
176
     1
 62
     7
176
     1
 62
   257
176
     1
 90
        1
176
     1
 90
        1
176
     1
 40
1.0
176
     1
 90
        8
176
     1
 62
   257
176
     1
 40
1.0
176
     1
 90
        1
176
     1
 90
        6
176
     1
 90
        2
176
     1
 62
     7
176
     1
 90
        3
176
     1
 90
        0
176
     1
 90
        0
176
     1
290
     0
176
     1
 90
       13
176
     1
 40
0.0
176
     1
 90
        0
176
     1
290
     0
176
     1
290
     1
176
     1
290
     1
176
     1
290
     0
176
     1
290
     0
176
     1
290
     0
176
     1
290
     0
176
     1
290
     0
176
     1
290
     0
176
     1
 90
       50
176
     1
 40
0.0
176
     1
 40
1.0
176
     1
 90
        0
176
     1
 62
    18
420
        0
176
     1
 90
       50
176
     1
 90
        3
176
     1
 62
     5
420
      255
176
     1
290
     0
176
     1
 90
       50
176
     1
 90
       50
176
     1
 90
       50
176
     1
290
     0
176
     1
 90
       50
176
     1
 62
   256
176
     0
 40
1.0
176
     0
 90
        2
176
     1
  1
strokes_ogs.tif
176
     1
290
     0
176
     1
 40
1.0
176
     1
 40
1.0
176
     1
  0
VISUALSTYLE
  5
42
102
{ACAD_REACTORS
330
2A
102
}
330
2A
100
AcDbVisualStyle
  2
Shaded
 70
    27
177
     3
291
     0
 70
    58
 90
        2
176
     1
 90
        2
176
     1
 90
        1
176
     1
 90
        2
176
     1
 40
0.6
176
     1
 40
30.0
176
     1
 62
     7
420
 16777215
176
     1
 90
        0
176
     1
 90
        4
176
     1
 62
     7
176
     1
 62
   257
176
     1
 90
        1
176
     1
 90
        1
176
     1
 40
1.0
176
     1
 90
        8
176
     1
 62
   257
176
     1
 40
1.0
176
     1
 90
        1
176
     1
 90
        6
176
     1
 90
        2
176
     1
 62
     8
420
  7895160
176
     1
 90
        3
176
     1
 90
        0
176
     1
 90
        0
176
     1
290
     0
176
     1
 90
        5
176
     1
 40
0.0
176
     1
 90
        0
176
     1
290
     0
176
     1
290
     1
176
     1
290
     1
176
     1
290
     0
176
     1
290
     0
176
     1
290
     0
176
     1
290
     0
176
     1
290
     0
176
     1
290
     0
176
     1
 90
       50
176
     1
 40
0.0
176
     1
 40
1.0
176
     1
 90
        0
176
     1
 62
    18
420
        0
176
     1
 90
       50
176
     1
 90
        3
176
     1
 62
     5
420
      255
176
     1
290
     0
176
     1
 90
       50
176
     1
 90
       50
176
     1
 90
       50
176
     1
290
     0
176
     1
 90
       50
176
     1
 62
   256
176
     0
 40
1.0
176
     0
 90
        2
176
     1
  1
strokes_ogs.tif
176
     1
290
     0
176
     1
 40
1.0
176
     1
 40
1.0
176
     1
  0
VISUALSTYLE
  5
41
102
{ACAD_REACTORS
330
2A
102
}
330
2A
100
AcDbVisualStyle
  2
Shaded with edges
 70
    26
177
     3
291
     0
 70
    58
 90
        2
176
     1
 90
        2
176
     1
 90
        1
176
     1
 90
        2
176
     1
 40
0.6
176
     1
 40
30.0
176
     1
 62
     7
420
 16777215
176
     1
 90
        1
176
     1
 90
       10
176
     1
 62
     7
176
     1
 62
   257
176
     1
 90
        2
176
     1
 90
        1
176
     1
 40
1.0
176
     1
 90
        8
176
     1
 62
   257
176
     1
 40
1.0
176
     1
 90
        1
176
     1
 90
        6
176
     1
 90
        2
176
     1
 62
     7
176
     1
 90
        3
176
     1
 90
        0
176
     1
 90
        0
176
     1
290
     0
176
     1
 90
        5
176
     1
 40
0.0
176
     1
 90
        0
176
     1
290
     0
176
     1
290
     1
176
     1
290
     1
176
     1
290
     0
176
     1
290
     0
176
     1
290
     0
176
     1
290
     0
176
     1
290
     0
176
     1
290
     0
176
     1
 90
       50
176
     1
 40
0.0
176
     1
 40
1.0
176
     1
 90
        0
176
     1
 62
    18
420
        0
176
     1
 90
       50
176
     1
 90
        3
176
     1
 62
     5
420
      255
176
     1
290
     0
176
     1
 90
       50
176
     1
 90
       50
176
     1
 90
       50
176
     1
290
     0
176
     1
 90
       50
176
     1
 62
   256
176
     0
 40
1.0
176
     0
 90
        2
176
     1
  1
strokes_ogs.tif
176
     1
290
     0
176
     1
 40
1.0
176
     1
 40
1.0
176
     1
  0
VISUALSTYLE
  5
3E
102
{ACAD_REACTORS
330
2A
102
}
330
2A
100
AcDbVisualStyle
  2
Shades of Gray
 70
    23
177
     3
291
     0
 70
    58
 90
        2
176
     1
 90
        2
176
     1
 90
        3
176
     1
 90
        0
176
     1
 40
0.6
176
     1
 40
30.0
176
     1
 62
     7
420
 16777215
176
     1
 90
        2
176
     1
 90
        2
176
     1
 62
     7
176
     1
 62
     7
176
     1
 90
        1
176
     1
 90
        1
176
     1
 40
40.0
176
     1
 90
        8
176
     1
 62
     7
176
     1
 40
1.0
176
     1
 90
        1
176
     1
 90
        6
176
     1
 90
        2
176
     1
 62
     7
176
     1
 90
        3
176
     1
 90
        0
176
     1
 90
        0
176
     1
290
     0
176
     1
 90
        1
176
     1
 40
0.0
176
     1
 90
        0
176
     1
290
     0
176
     1
290
     1
176
     1
290
     1
176
     1
290
     0
176
     1
290
     0
176
     1
290
     0
176
     1
290
     0
176
     1
290
     0
176
     1
290
     0
176
     1
 90
       50
176
     1
 40
0.0
176
     1
 40
1.0
176
     1
 90
        0
176
     1
 62
    18
420
        0
176
     1
 90
       50
176
     1
 90
        3
176
     1
 62
     5
420
      255
176
     1
290
     0
176
     1
 90
       50
176
     1
 90
       50
176
     1
 90
       50
176
     1
290
     0
176
     1
 90
       50
176
     1
 62
   256
176
     0
 40
1.0
176
     0
 90
        2
176
     1
  1
strokes_ogs.tif
176
     1
290
     0
176
     1
 40
1.0
176
     1
 40
1.0
176
     1
  0
VISUALSTYLE
  5
3F
102
{ACAD_REACTORS
330
2A
102
}
330
2A
100
AcDbVisualStyle
  2
Sketchy
 70
    24
177
     3
291
     0
 70
    58
 90
        1
176
     1
 90
        2
176
     1
 90
        2
176
     1
 90
        0
176
     1
 40
0.6
176
     1
 40
30.0
176
     1
 62
     7
420
 16777215
176
     1
 90
        2
176
     1
 90
        2
176
     1
 62
     7
176
     1
 62
     7
176
     1
 90
        1
176
     1
 90
        1
176
     1
 40
40.0
176
     1
 90
       11
176
     1
 62
     7
176
     1
 40
1.0
176
     1
 90
        1
176
     1
 90
        6
176
     1
 90
        2
176
     1
 62
     7
176
     1
 90
        6
176
     1
 90
        0
176
     1
 90
        0
176
     1
290
     0
176
     1
 90
        1
176
     1
 40
0.0
176
     1
 90
        0
176
     1
290
     0
176
     1
290
     1
176
     1
290
     1
176
     1
290
     0
176
     1
290
     0
176
     1
290
     0
176
     1
290
     0
176
     1
290
     0
176
     1
290
     0
176
     1
 90
       50
176
     1
 40
0.0
176
     1
 40
1.0
176
     1
 90
        0
176
     1
 62
    18
420
        0
176
     1
 90
       50
176
     1
 90
        3
176
     1
 62
     5
420
      255
176
     1
290
     0
176
     1
 90
       50
176
     1
 90
       50
176
     1
 90
       50
176
     1
290
     0
176
     1
 90
       50
176
     1
 62
   256
176
     0
 40
1.0
176
     0
 90
        2
176
     1
  1
strokes_ogs.tif
176
     1
290
     0
176
     1
 40
1.0
176
     1
 40
1.0
176
     1
  0
VISUALSTYLE
  5
37
102
{ACAD_REACTORS
330
2A
102
}
330
2A
100
AcDbVisualStyle
  2
Thicken
 70
    13
177
     3
291
     1
 70
    58
 90
        2
176
     1
 90
        2
176
     1
 90
        0
176
     1
 90
        0
176
     1
 40
0.6
176
     1
 40
30.0
176
     1
 62
     7
420
 16777215
176
     1
 90
        1
176
     1
 90
        4
176
     1
 62
     7
176
     1
 62
   257
176
     1
 90
        1
176
     1
 90
        1
176
     1
 40
1.0
176
     1
 90
       12
176
     1
 62
     7
176
     1
 40
1.0
176
     1
 90
        1
176
     1
 90
        6
176
     1
 90
        2
176
     1
 62
     7
176
     1
 90
        5
176
     1
 90
        0
176
     1
 90
        0
176
     1
290
     0
176
     1
 90
        1
176
     1
 40
0.0
176
     1
 90
        0
176
     1
290
     0
176
     1
290
     1
176
     1
290
     1
176
     1
290
     0
176
     1
290
     0
176
     1
290
     0
176
     1
290
     0
176
     1
290
     0
176
     1
290
     0
176
     1
 90
       50
176
     1
 40
0.0
176
     1
 40
1.0
176
     1
 90
        0
176
     1
 62
    18
420
        0
176
     1
 90
       50
176
     1
 90
        3
176
     1
 62
     5
420
      255
176
     1
290
     0
176
     1
 90
       50
176
     1
 90
       50
176
     1
 90
       50
176
     1
290
     0
176
     1
 90
       50
176
     1
 62
   256
176
     0
 40
1.0
176
     0
 90
        2
176
     1
  1
strokes_ogs.tif
176
     1
290
     0
176
     1
 40
1.0
176
     1
 40
1.0
176
     1
  0
VISUALSTYLE
  5
30
102
{ACAD_REACTORS
330
2A
102
}
330
2A
100
AcDbVisualStyle
  2
Wireframe
 70
     5
177
     3
291
     0
 70
    58
 90
        0
176
     1
 90
        2
176
     1
 90
        0
176
     1
 90
        0
176
     1
 40
0.6
176
     1
 40
30.0
176
     1
 62
     7
420
 16777215
176
     1
 90
        1
176
     1
 90
        4
176
     1
 62
     7
176
     1
 62
   257
176
     1
 90
        1
176
     1
 90
        1
176
     1
 40
1.0
176
     1
 90
        0
176
     1
 62
   257
176
     1
 40
1.0
176
     1
 90
        1
176
     1
 90
        6
176
     1
 90
        2
176
     1
 62
     7
176
     1
 90
        3
176
     1
 90
        0
176
     1
 90
        0
176
     1
290
     0
176
     1
 90
        1
176
     1
 40
0.0
176
     1
 90
        0
176
     1
290
     0
176
     1
290
     1
176
     1
290
     1
176
     1
290
     0
176
     1
290
     0
176
     1
290
     0
176
     1
290
     0
176
     1
290
     0
176
     1
290
     0
176
     1
 90
       50
176
     1
 40
0.0
176
     1
 40
1.0
176
     1
 90
        0
176
     1
 62
    18
420
        0
176
     1
 90
       50
176
     1
 90
        3
176
     1
 62
     5
420
      255
176
     1
290
     0
176
     1
 90
       50
176
     1
 90
       50
176
     1
 90
       50
176
     1
290
     0
176
     1
 90
       50
176
     1
 62
   256
176
     0
 40
1.0
176
     0
 90
        2
176
     1
  1
strokes_ogs.tif
176
     1
290
     0
176
     1
 40
1.0
176
     1
 40
1.0
176
     1
  0
VISUALSTYLE
  5
40
102
{ACAD_REACTORS
330
2A
102
}
330
2A
100
AcDbVisualStyle
  2
X-Ray
 70
    25
177
     3
291
     0
 70
    58
 90
        2
176
     1
 90
        2
176
     1
 90
        1
176
     1
 90
        1
176
     1
 40
0.5
176
     1
 40
30.0
176
     1
 62
     7
420
 16777215
176
     1
 90
        1
176
     1
 90
        0
176
     1
 62
     7
176
     1
 62
   257
176
     1
 90
        1
176
     1
 90
        1
176
     1
 40
1.0
176
     1
 90
        8
176
     1
 62
     7
176
     1
 40
1.0
176
     1
 90
        1
176
     1
 90
        6
176
     1
 90
        2
176
     1
 62
     7
176
     1
 90
        3
176
     1
 90
        0
176
     1
 90
        0
176
     1
290
     0
176
     1
 90
       13
176
     1
 40
0.0
176
     1
 90
        0
176
     1
290
     0
176
     1
290
     1
176
     1
290
     1
176
     1
290
     0
176
     1
290
     0
176
     1
290
     0
176
     1
290
     0
176
     1
290
     0
176
     1
290
     0
176
     1
 90
       50
176
     1
 40
0.0
176
     1
 40
1.0
176
     1
 90
        0
176
     1
 62
    18
420
        0
176
     1
 90
       50
176
     1
 90
        3
176
     1
 62
     5
420
      255
176
     1
290
     0
176
     1
 90
       50
176
     1
 90
       50
176
     1
 90
       50
176
     1
290
     0
176
     1
 90
       50
176
     1
 62
   256
176
     0
 40
1.0
176
     0
 90
        2
176
     1
  1
strokes_ogs.tif
176
     1
290
     0
176
     1
 40
1.0
176
     1
 40
1.0
176
     1
  0
DICTIONARYVAR
  5
269
102
{ACAD_REACTORS
330
268
102
}
330
268
100
DictionaryVariables
280
     0
  1
1:1
  0
DICTIONARYVAR
  5
26E
102
{ACAD_REACTORS
330
268
102
}
330
268
100
DictionaryVariables
280
     0
  1
Standard
  0
DICTIONARYVAR
  5
26D
102
{ACAD_REACTORS
330
268
102
}
330
268
100
DictionaryVariables
280
     0
  1
Standard
  0
DICTIONARY
  5
26A
330
6A
100
AcDbDictionary
280
     1
281
     1
  3
ACAD_ROUNDTRIP_2008_TABLESTYLE_CELLSTYLEMAP
360
26B
  0
CELLSTYLEMAP
  5
26B
102
{ACAD_REACTORS
330
26A
102
}
330
26A
100
AcDbCellStyleMap
 90
        3
300
CELLSTYLE
  1
TABLEFORMAT_BEGIN
 90
        5
170
     1
 91
        0
 92
    32768
 62
   257
 93
        1
300
CONTENTFORMAT
  1
CONTENTFORMAT_BEGIN
 90
        0
 91
        0
 92
        4
 93
        0
300

 40
0.0
140
1.0
 94
        5
 62
     0
340
11
144
0.25
309
CONTENTFORMAT_END
171
     1
301
MARGIN
  1
CELLMARGIN_BEGIN
 40
0.06
 40
0.06
 40
0.06
 40
0.06
 40
0.06
 40
0.06
309
CELLMARGIN_END
 94
        6
 95
        1
302
GRIDFORMAT
  1
GRIDFORMAT_BEGIN
 90
        0
 91
        1
 62
     0
 92
       -2
340
14
 93
        0
 40
0.045
309
GRIDFORMAT_END
 95
        2
302
GRIDFORMAT
  1
GRIDFORMAT_BEGIN
 90
        0
 91
        1
 62
     0
 92
       -2
340
14
 93
        0
 40
0.045
309
GRIDFORMAT_END
 95
        4
302
GRIDFORMAT
  1
GRIDFORMAT_BEGIN
 90
        0
 91
        1
 62
     0
 92
       -2
340
14
 93
        0
 40
0.045
309
GRIDFORMAT_END
 95
        8
302
GRIDFORMAT
  1
GRIDFORMAT_BEGIN
 90
        0
 91
        1
 62
     0
 92
       -2
340
14
 93
        0
 40
0.045
309
GRIDFORMAT_END
 95
       16
302
GRIDFORMAT
  1
GRIDFORMAT_BEGIN
 90
        0
 91
        1
 62
     0
 92
       -2
340
14
 93
        0
 40
0.045
309
GRIDFORMAT_END
 95
       32
302
GRIDFORMAT
  1
GRIDFORMAT_BEGIN
 90
        0
 91
        1
 62
     0
 92
       -2
340
14
 93
        0
 40
0.045
309
GRIDFORMAT_END
309
TABLEFORMAT_END
  1
CELLSTYLE_BEGIN
 90
        1
 91
        1
300
_TITLE
309
CELLSTYLE_END
300
CELLSTYLE
  1
TABLEFORMAT_BEGIN
 90
        5
170
     1
 91
        0
 92
        0
 62
   257
 93
        1
300
CONTENTFORMAT
  1
CONTENTFORMAT_BEGIN
 90
        0
 91
        0
 92
        4
 93
        0
300

 40
0.0
140
1.0
 94
        5
 62
     0
340
11
144
0.18
309
CONTENTFORMAT_END
171
     1
301
MARGIN
  1
CELLMARGIN_BEGIN
 40
0.06
 40
0.06
 40
0.06
 40
0.06
 40
0.06
 40
0.06
309
CELLMARGIN_END
 94
        6
 95
        1
302
GRIDFORMAT
  1
GRIDFORMAT_BEGIN
 90
        0
 91
        1
 62
     0
 92
       -2
340
14
 93
        0
 40
0.045
309
GRIDFORMAT_END
 95
        2
302
GRIDFORMAT
  1
GRIDFORMAT_BEGIN
 90
        0
 91
        1
 62
     0
 92
       -2
340
14
 93
        0
 40
0.045
309
GRIDFORMAT_END
 95
        4
302
GRIDFORMAT
  1
GRIDFORMAT_BEGIN
 90
        0
 91
        1
 62
     0
 92
       -2
340
14
 93
        0
 40
0.045
309
GRIDFORMAT_END
 95
        8
302
GRIDFORMAT
  1
GRIDFORMAT_BEGIN
 90
        0
 91
        1
 62
     0
 92
       -2
340
14
 93
        0
 40
0.045
309
GRIDFORMAT_END
 95
       16
302
GRIDFORMAT
  1
GRIDFORMAT_BEGIN
 90
        0
 91
        1
 62
     0
 92
       -2
340
14
 93
        0
 40
0.045
309
GRIDFORMAT_END
 95
       32
302
GRIDFORMAT
  1
GRIDFORMAT_BEGIN
 90
        0
 91
        1
 62
     0
 92
       -2
340
14
 93
        0
 40
0.045
309
GRIDFORMAT_END
309
TABLEFORMAT_END
  1
CELLSTYLE_BEGIN
 90
        2
 91
        1
300
_HEADER
309
CELLSTYLE_END
300
CELLSTYLE
  1
TABLEFORMAT_BEGIN
 90
        5
170
     1
 91
        0
 92
        0
 62
   257
 93
        1
300
CONTENTFORMAT
  1
CONTENTFORMAT_BEGIN
 90
        0
 91
        0
 92
        4
 93
        0
300

 40
0.0
140
1.0
 94
        2
 62
     0
340
11
144
0.18
309
CONTENTFORMAT_END
171
     1
301
MARGIN
  1
CELLMARGIN_BEGIN
 40
0.06
 40
0.06
 40
0.06
 40
0.06
 40
0.06
 40
0.06
309
CELLMARGIN_END
 94
        6
 95
        1
302
GRIDFORMAT
  1
GRIDFORMAT_BEGIN
 90
        0
 91
        1
 62
     0
 92
       -2
340
14
 93
        0
 40
0.045
309
GRIDFORMAT_END
 95
        2
302
GRIDFORMAT
  1
GRIDFORMAT_BEGIN
 90
        0
 91
        1
 62
     0
 92
       -2
340
14
 93
        0
 40
0.045
309
GRIDFORMAT_END
 95
        4
302
GRIDFORMAT
  1
GRIDFORMAT_BEGIN
 90
        0
 91
        1
 62
     0
 92
       -2
340
14
 93
        0
 40
0.045
309
GRIDFORMAT_END
 95
        8
302
GRIDFORMAT
  1
GRIDFORMAT_BEGIN
 90
        0
 91
        1
 62
     0
 92
       -2
340
14
 93
        0
 40
0.045
309
GRIDFORMAT_END
 95
       16
302
GRIDFORMAT
  1
GRIDFORMAT_BEGIN
 90
        0
 91
        1
 62
     0
 92
       -2
340
14
 93
        0
 40
0.045
309
GRIDFORMAT_END
 95
       32
302
GRIDFORMAT
  1
GRIDFORMAT_BEGIN
 90
        0
 91
        1
 62
     0
 92
       -2
340
14
 93
        0
 40
0.045
309
GRIDFORMAT_END
309
TABLEFORMAT_END
  1
CELLSTYLE_BEGIN
 90
        3
 91
        2
300
_DATA
309
CELLSTYLE_END
  0
ENDSEC
  0
EOF
