  0
SECTION
  2
HEADER
  9
$ACADVER
  1
AC1032
  9
$ACADMAINTVER
 90
       55
  9
$DWGCODEPAGE
  3
ANSI_932
  9
$LASTSAVEDBY
  1
client05
  9
$REQUIREDVERSIONS
160
                 0
  9
$INSBASE
 10
0.0
 20
0.0
 30
0.0
  9
$EXTMIN
 10
-69.25350369322092
 20
-103.283507730781
 30
0.0
  9
$EXTMAX
 10
230.7464963067791
 20
274.8711389319843
 30
0.0
  9
$LIMMIN
 10
0.0
 20
0.0
  9
$LIMMAX
 10
297.0
 20
210.0
  9
$ORTHOMODE
 70
     0
  9
$REGENMODE
 70
     1
  9
$FILLMODE
 70
     1
  9
$QTEXTMODE
 70
     0
  9
$MIRRTEXT
 70
     1
  9
$LTSCALE
 40
0.25
  9
$ATTMODE
 70
     1
  9
$TEXTSIZE
 40
5.0
  9
$TRACEWID
 40
0.05
  9
$TEXTSTYLE
  7
Standard
  9
$CLAYER
  8
0
  9
$CELTYPE
  6
ByLayer
  9
$CECOLOR
 62
   256
  9
$CELTSCALE
 40
1.0
  9
$DISPSILH
 70
     0
  9
$DIMSCALE
 40
1.0
  9
$DIMASZ
 40
4.0
  9
$DIMEXO
 40
2.0
  9
$DIMDLI
 40
10.0
  9
$DIMRND
 40
0.0
  9
$DIMDLE
 40
0.0
  9
$DIMEXE
 40
2.0
  9
$DIMTP
 40
0.0
  9
$DIMTM
 40
0.0
  9
$DIMTXT
 40
3.5
  9
$DIMCEN
 40
0.09
  9
$DIMTSZ
 40
0.0
  9
$DIMTOL
 70
     0
  9
$DIMLIM
 70
     0
  9
$DIMTIH
 70
     0
  9
$DIMTOH
 70
     0
  9
$DIMSE1
 70
     0
  9
$DIMSE2
 70
     0
  9
$DIMTAD
 70
     3
  9
$DIMZIN
 70
     8
  9
$DIMBLK
  1

  9
$DIMASO
 70
     1
  9
$DIMSHO
 70
     1
  9
$DIMPOST
  1

  9
$DIMAPOST
  1

  9
$DIMALT
 70
     0
  9
$DIMALTD
 70
     2
  9
$DIMALTF
 40
25.4
  9
$DIMLFAC
 40
1.0
  9
$DIMTOFL
 70
     1
  9
$DIMTVP
 40
0.7
  9
$DIMTIX
 70
     0
  9
$DIMSOXD
 70
     0
  9
$DIMSAH
 70
     0
  9
$DIMBLK1
  1

  9
$DIMBLK2
  1

  9
$DIMSTYLE
  2
Standard
  9
$DIMCLRD
 70
     0
  9
$DIMCLRE
 70
     0
  9
$DIMCLRT
 70
     0
  9
$DIMTFAC
 40
0.5
  9
$DIMGAP
 40
0.09
  9
$DIMJUST
 70
     0
  9
$DIMSD1
 70
     0
  9
$DIMSD2
 70
     0
  9
$DIMTOLJ
 70
     1
  9
$DIMTZIN
 70
     8
  9
$DIMALTZ
 70
     0
  9
$DIMALTTZ
 70
     0
  9
$DIMUPT
 70
     1
  9
$DIMDEC
 70
     2
  9
$DIMTDEC
 70
     4
  9
$DIMALTU
 70
     2
  9
$DIMALTTD
 70
     2
  9
$DIMTXSTY
  7
Standard
  9
$DIMAUNIT
 70
     0
  9
$DIMADEC
 70
     0
  9
$DIMALTRND
 40
0.0
  9
$DIMAZIN
 70
     0
  9
$DIMDSEP
 70
    46
  9
$DIMATFIT
 70
     2
  9
$DIMFRAC
 70
     0
  9
$DIMLDRBLK
  1

  9
$DIMLUNIT
 70
     2
  9
$DIMLWD
 70
    -2
  9
$DIMLWE
 70
    -2
  9
$DIMTMOVE
 70
     2
  9
$DIMFXL
 40
1.0
  9
$DIMFXLON
 70
     0
  9
$DIMJOGANG
 40
0.7853981633974483
  9
$DIMTFILL
 70
     0
  9
$DIMTFILLCLR
 70
     0
  9
$DIMARCSYM
 70
     0
  9
$DIMLTYPE
  6

  9
$DIMLTEX1
  6

  9
$DIMLTEX2
  6

  9
$DIMTXTDIRECTION
 70
     0
  9
$LUNITS
 70
     2
  9
$LUPREC
 70
     4
  9
$SKETCHINC
 40
0.1
  9
$FILLETRAD
 40
0.5
  9
$AUNITS
 70
     0
  9
$AUPREC
 70
     0
  9
$MENU
  1
.
  9
$ELEVATION
 40
0.0
  9
$PELEVATION
 40
0.0
  9
$THICKNESS
 40
0.0
  9
$LIMCHECK
 70
     0
  9
$CHAMFERA
 40
0.0
  9
$CHAMFERB
 40
0.0
  9
$CHAMFERC
 40
0.0
  9
$CHAMFERD
 40
0.0
  9
$SKPOLY
 70
     0
  9
$TDCREATE
 40
2459374.896770834
  9
$TDUCREATE
 40
2459374.521770834
  9
$TDUPDATE
 40
2459374.521772257
  9
$TDUUPDATE
 40
2459374.146772257
  9
$TDINDWG
 40
0.0000000116
  9
$TDUSRTIMER
 40
0.0000000116
  9
$USRTIMER
 70
     1
  9
$ANGBASE
 50
0.0
  9
$ANGDIR
 70
     0
  9
$PDMODE
 70
     0
  9
$PDSIZE
 40
0.0
  9
$PLINEWID
 40
0.0
  9
$SPLFRAME
 70
     0
  9
$SPLINETYPE
 70
     6
  9
$SPLINESEGS
 70
     8
  9
$HANDSEED
  5
349
  9
$SURFTAB1
 70
     6
  9
$SURFTAB2
 70
     6
  9
$SURFTYPE
 70
     6
  9
$SURFU
 70
     6
  9
$SURFV
 70
     6
  9
$UCSBASE
  2

  9
$UCSNAME
  2

  9
$UCSORG
 10
0.0
 20
0.0
 30
0.0
  9
$UCSXDIR
 10
1.0
 20
0.0
 30
0.0
  9
$UCSYDIR
 10
0.0
 20
1.0
 30
0.0
  9
$UCSORTHOREF
  2

  9
$UCSORTHOVIEW
 70
     0
  9
$UCSORGTOP
 10
0.0
 20
0.0
 30
0.0
  9
$UCSORGBOTTOM
 10
0.0
 20
0.0
 30
0.0
  9
$UCSORGLEFT
 10
0.0
 20
0.0
 30
0.0
  9
$UCSORGRIGHT
 10
0.0
 20
0.0
 30
0.0
  9
$UCSORGFRONT
 10
0.0
 20
0.0
 30
0.0
  9
$UCSORGBACK
 10
0.0
 20
0.0
 30
0.0
  9
$PUCSBASE
  2

  9
$PUCSNAME
  2

  9
$PUCSORG
 10
0.0
 20
0.0
 30
0.0
  9
$PUCSXDIR
 10
1.0
 20
0.0
 30
0.0
  9
$PUCSYDIR
 10
0.0
 20
1.0
 30
0.0
  9
$PUCSORTHOREF
  2

  9
$PUCSORTHOVIEW
 70
     0
  9
$PUCSORGTOP
 10
0.0
 20
0.0
 30
0.0
  9
$PUCSORGBOTTOM
 10
0.0
 20
0.0
 30
0.0
  9
$PUCSORGLEFT
 10
0.0
 20
0.0
 30
0.0
  9
$PUCSORGRIGHT
 10
0.0
 20
0.0
 30
0.0
  9
$PUCSORGFRONT
 10
0.0
 20
0.0
 30
0.0
  9
$PUCSORGBACK
 10
0.0
 20
0.0
 30
0.0
  9
$USERI1
 70
     0
  9
$USERI2
 70
     0
  9
$USERI3
 70
     0
  9
$USERI4
 70
     0
  9
$USERI5
 70
     0
  9
$USERR1
 40
0.0
  9
$USERR2
 40
0.0
  9
$USERR3
 40
0.0
  9
$USERR4
 40
0.0
  9
$USERR5
 40
0.0
  9
$WORLDVIEW
 70
     1
  9
$SHADEDGE
 70
     3
  9
$SHADEDIF
 70
    70
  9
$TILEMODE
 70
     1
  9
$MAXACTVP
 70
    64
  9
$PINSBASE
 10
0.0
 20
0.0
 30
0.0
  9
$PLIMCHECK
 70
     0
  9
$PEXTMIN
 10
0.0
 20
0.0
 30
0.0
  9
$PEXTMAX
 10
297.0
 20
210.0
 30
0.0
  9
$PLIMMIN
 10
0.0
 20
0.0
  9
$PLIMMAX
 10
297.0
 20
210.0
  9
$UNITMODE
 70
     0
  9
$VISRETAIN
 70
     1
  9
$PLINEGEN
 70
     0
  9
$PSLTSCALE
 70
     1
  9
$TREEDEPTH
 70
  3020
  9
$CMLSTYLE
  2
Standard
  9
$CMLJUST
 70
     0
  9
$CMLSCALE
 40
1.0
  9
$PROXYGRAPHICS
 70
     1
  9
$MEASUREMENT
 70
     1
  9
$CELWEIGHT
370
    -1
  9
$ENDCAPS
280
     0
  9
$JOINSTYLE
280
     0
  9
$LWDISPLAY
290
     0
  9
$INSUNITS
 70
     4
  9
$HYPERLINKBASE
  1

  9
$STYLESHEET
  1

  9
$XEDIT
290
     1
  9
$CEPSNTYPE
380
     0
  9
$PSTYLEMODE
290
     1
  9
$FINGERPRINTGUID
  2
{35f42b08-4b01-4c0f-bf71-60ed4d5101e3}
  9
$VERSIONGUID
  2
{FAEB1C32-E019-11D5-929B-00C0DF256EC4}
  9
$EXTNAMES
290
     1
  9
$PSVPSCALE
 40
0.0
  9
$OLESTARTUP
290
     0
  9
$SORTENTS
280
   127
  9
$INDEXCTL
280
     0
  9
$HIDETEXT
280
     1
  9
$XCLIPFRAME
280
     2
  9
$HALOGAP
280
     0
  9
$OBSCOLOR
 70
   257
  9
$OBSLTYPE
280
     0
  9
$INTERSECTIONDISPLAY
280
     0
  9
$INTERSECTIONCOLOR
 70
   257
  9
$DIMASSOC
280
     1
  9
$PROJECTNAME
  1

  9
$CAMERADISPLAY
290
     0
  9
$LENSLENGTH
 40
50.0
  9
$CAMERAHEIGHT
 40
0.0
  9
$STEPSPERSEC
 40
2.0
  9
$STEPSIZE
 40
6.0
  9
$3DDWFPREC
 40
2.0
  9
$PSOLWIDTH
 40
0.25
  9
$PSOLHEIGHT
 40
4.0
  9
$LOFTANG1
 40
1.570796326794897
  9
$LOFTANG2
 40
1.570796326794897
  9
$LOFTMAG1
 40
0.0
  9
$LOFTMAG2
 40
0.0
  9
$LOFTPARAM
 70
     7
  9
$LOFTNORMALS
280
     1
  9
$LATITUDE
 40
37.795
  9
$LONGITUDE
 40
-122.394
  9
$NORTHDIRECTION
 40
0.0
  9
$TIMEZONE
 70
 -8000
  9
$LIGHTGLYPHDISPLAY
280
     1
  9
$TILEMODELIGHTSYNCH
280
     1
  9
$CMATERIAL
347
44
  9
$SOLIDHIST
280
     0
  9
$SHOWHIST
280
     1
  9
$DWFFRAME
280
     2
  9
$DGNFRAME
280
     2
  9
$REALWORLDSCALE
290
     1
  9
$INTERFERECOLOR
 62
   256
  9
$CSHADOW
280
     0
  9
$SHADOWPLANELOCATION
 40
0.0
  0
ENDSEC
  0
SECTION
  2
CLASSES
  0
CLASS
  1
ACDBDICTIONARYWDFLT
  2
AcDbDictionaryWithDefault
  3
ObjectDBX Classes
 90
        0
 91
        3
280
     0
281
     0
  0
CLASS
  1
VISUALSTYLE
  2
AcDbVisualStyle
  3
ObjectDBX Classes
 90
     4095
 91
        3
280
     0
281
     0
  0
CLASS
  1
MATERIAL
  2
AcDbMaterial
  3
ObjectDBX Classes
 90
     1153
 91
        3
280
     0
281
     0
  0
CLASS
  1
SCALE
  2
AcDbScale
  3
ObjectDBX Classes
 90
     1153
 91
        3
280
     0
281
     0
  0
CLASS
  1
TABLESTYLE
  2
AcDbTableStyle
  3
ObjectDBX Classes
 90
     4095
 91
        3
280
     0
281
     0
  0
CLASS
  1
MLEADERSTYLE
  2
AcDbMLeaderStyle
  3
ACDB_MLEADERSTYLE_CLASS
 90
     4095
 91
        3
280
     0
281
     0
  0
CLASS
  1
SUN
  2
AcDbSun
  3
SCENEOE
 90
     1153
 91
        3
280
     0
281
     0
  0
CLASS
  1
DICTIONARYVAR
  2
AcDbDictionaryVar
  3
ObjectDBX Classes
 90
        0
 91
        3
280
     0
281
     0
  0
CLASS
  1
CELLSTYLEMAP
  2
AcDbCellStyleMap
  3
ObjectDBX Classes
 90
     1152
 91
        3
280
     0
281
     0
  0
ENDSEC
  0
SECTION
  2
TABLES
  0
TABLE
  2
VPORT
  5
8
330
0
100
AcDbSymbolTable
 70
     1
  0
VPORT
  5
29
330
8
100
AcDbSymbolTableRecord
100
AcDbViewportTableRecord
  2
*Active
 70
     0
 10
0.0
 20
0.0
 11
1.0
 21
1.0
 12
10.42990654205607
 22
4.5
 13
0.0
 23
0.0
 14
0.5
 24
0.5
 15
0.5
 25
0.5
 16
0.0
 26
0.0
 36
1.0
 17
0.0
 27
0.0
 37
0.0
 40
9.0
 41
1.972972972850329
 42
50.0
 43
0.0
 44
0.0
 50
0.0
 51
0.0
 71
     0
 72
   100
 73
     1
 74
     3
 75
     0
 76
     0
 77
     0
 78
     0
281
     0
 65
     1
110
0.0
120
0.0
130
0.0
111
1.0
121
0.0
131
0.0
112
0.0
122
1.0
132
0.0
 79
     0
146
0.0
348
2F
 60
     3
 61
     5
292
     1
282
     1
141
0.0
142
0.0
 63
   250
361
6D
  0
ENDTAB
  0
TABLE
  2
LTYPE
  5
5
330
0
100
AcDbSymbolTable
 70
     9
  0
LTYPE
  5
14
330
5
100
AcDbSymbolTableRecord
100
AcDbLinetypeTableRecord
  2
ByBlock
 70
     0
  3

 72
    65
 73
     0
 40
0.0
  0
LTYPE
  5
15
330
5
100
AcDbSymbolTableRecord
100
AcDbLinetypeTableRecord
  2
ByLayer
 70
     0
  3

 72
    65
 73
     0
 40
0.0
  0
LTYPE
  5
16
330
5
100
AcDbSymbolTableRecord
100
AcDbLinetypeTableRecord
  2
Continuous
 70
     0
  3
Solid line
 72
    65
 73
     0
 40
0.0
  0
LTYPE
  5
BC
330
5
100
AcDbSymbolTableRecord
100
AcDbLinetypeTableRecord
  2
DOT
 70
     0
  3
DOT
 72
    65
 73
     2
 40
4.0
 49
6.0
 74
     0
 49
-2.0
 74
     0
  0
LTYPE
  5
BD
330
5
100
AcDbSymbolTableRecord
100
AcDbLinetypeTableRecord
  2
HIDDEN
 70
     0
  3
HIDDEN
 72
    65
 73
     2
 40
4.2
 49
8.4
 74
     0
 49
-4.2
 74
     0
  0
LTYPE
  5
BE
330
5
100
AcDbSymbolTableRecord
100
AcDbLinetypeTableRecord
  2
DASHDOT
 70
     0
  3
DASHDOT
 72
    65
 73
     4
 40
14.5
 49
30.0
 74
     0
 49
-9.0
 74
     0
 49
2.5
 74
     0
 49
-9.0
 74
     0
  0
LTYPE
  5
BF
330
5
100
AcDbSymbolTableRecord
100
AcDbLinetypeTableRecord
  2
PHANTOM
 70
     0
  3
PHANTOM
 72
    65
 73
     6
 40
12.0
 49
30.0
 74
     0
 49
-9.0
 74
     0
 49
2.5
 74
     0
 49
-5.0
 74
     0
 49
2.5
 74
     0
 49
-9.0
 74
     0
  0
LTYPE
  5
C0
330
5
100
AcDbSymbolTableRecord
100
AcDbLinetypeTableRecord
  2
ACAD_ISO14W100
 70
     0
  3
ACAD_ISO14W100
 72
    65
 73
     8
 40
1.5
 49
12.0
 74
     0
 49
-3.0
 74
     0
 49
0.5
 74
     0
 49
-3.0
 74
     0
 49
0.5
 74
     0
 49
-3.0
 74
     0
 49
0.5
 74
     0
 49
-3.0
 74
     0
  0
LTYPE
  5
C1
330
5
100
AcDbSymbolTableRecord
100
AcDbLinetypeTableRecord
  2
ACAD_ISO06W100
 70
     0
  3
ACAD_ISO06W100
 72
    65
 73
     8
 40
13.5
 49
24.0
 74
     0
 49
-3.0
 74
     0
 49
0.5
 74
     0
 49
-3.0
 74
     0
 49
0.5
 74
     0
 49
-3.0
 74
     0
 49
0.5
 74
     0
 49
-3.0
 74
     0
  0
LTYPE
  5
C2
330
5
100
AcDbSymbolTableRecord
100
AcDbLinetypeTableRecord
  2
ACAD_ISO11W100
 70
     0
  3
ACAD_ISO11W100
 72
    65
 73
     6
 40
15.5
 49
12.0
 74
     0
 49
-3.0
 74
     0
 49
12.0
 74
     0
 49
-3.0
 74
     0
 49
0.5
 74
     0
 49
-3.0
 74
     0
  0
LTYPE
  5
C3
330
5
100
AcDbSymbolTableRecord
100
AcDbLinetypeTableRecord
  2
ACAD_ISO13W100
 70
     0
  3
ACAD_ISO13W100
 72
    65
 73
     8
 40
13.0
 49
12.0
 74
     0
 49
-3.0
 74
     0
 49
12.0
 74
     0
 49
-3.0
 74
     0
 49
0.5
 74
     0
 49
-3.0
 74
     0
 49
0.5
 74
     0
 49
-3.0
 74
     0
  0
ENDTAB
  0
TABLE
  2
LAYER
  5
2
330
0
100
AcDbSymbolTable
 70
    23
  0
LAYER
  5
10
330
2
100
AcDbSymbolTableRecord
100
AcDbLayerTableRecord
  2
0
 70
     0
 62
     7
  6
Continuous
370
    -3
390
F
347
46
348
0
  0
LAYER
  5
C4
330
2
100
AcDbSymbolTableRecord
100
AcDbLayerTableRecord
  2
1
 70
     0
 62
     7
  6
Continuous
370
     9
390
F
347
46
348
0
  0
LAYER
  5
C5
330
2
100
AcDbSymbolTableRecord
100
AcDbLayerTableRecord
  2
2
 70
     0
 62
   136
420
    32896
  6
Continuous
370
     9
390
F
347
46
348
0
  0
LAYER
  5
C6
330
2
100
AcDbSymbolTableRecord
100
AcDbLayerTableRecord
  2
3
 70
     0
 62
   216
420
  8388736
  6
Continuous
370
     9
390
F
347
46
348
0
  0
LAYER
  5
C7
330
2
100
AcDbSymbolTableRecord
100
AcDbLayerTableRecord
  2
4
 70
     0
 62
    56
420
  8421376
  6
Continuous
370
     9
390
F
347
46
348
0
  0
LAYER
  5
C8
330
2
100
AcDbSymbolTableRecord
100
AcDbLayerTableRecord
  2
5
 70
     0
 62
    96
420
    32768
  6
Continuous
370
     9
390
F
347
46
348
0
  0
LAYER
  5
C9
330
2
100
AcDbSymbolTableRecord
100
AcDbLayerTableRecord
  2
6
 70
     0
 62
    16
420
  8388608
  6
Continuous
370
     9
390
F
347
46
348
0
  0
LAYER
  5
CA
330
2
100
AcDbSymbolTableRecord
100
AcDbLayerTableRecord
  2
7
 70
     0
 62
     4
  6
Continuous
370
     9
390
F
347
46
348
0
  0
LAYER
  5
CB
330
2
100
AcDbSymbolTableRecord
100
AcDbLayerTableRecord
  2
8
 70
     0
 62
     6
  6
Continuous
370
     9
390
F
347
46
348
0
  0
LAYER
  5
CC
330
2
100
AcDbSymbolTableRecord
100
AcDbLayerTableRecord
  2
9
 70
     0
 62
     2
  6
Continuous
370
     9
390
F
347
46
348
0
  0
LAYER
  5
CD
330
2
100
AcDbSymbolTableRecord
100
AcDbLayerTableRecord
  2
10
 70
     0
 62
     3
  6
Continuous
370
     9
390
F
347
46
348
0
  0
LAYER
  5
CE
330
2
100
AcDbSymbolTableRecord
100
AcDbLayerTableRecord
  2
11
 70
     0
 62
     8
420
  8421504
  6
Continuous
370
     9
390
F
347
46
348
0
  0
LAYER
  5
CF
330
2
100
AcDbSymbolTableRecord
100
AcDbLayerTableRecord
  2
12
 70
     0
 62
   138
420
    20560
  6
Continuous
370
     9
390
F
347
46
348
0
  0
LAYER
  5
D0
330
2
100
AcDbSymbolTableRecord
100
AcDbLayerTableRecord
  2
13
 70
     0
 62
   218
420
  5242960
  6
Continuous
370
     9
390
F
347
46
348
0
  0
LAYER
  5
D1
330
2
100
AcDbSymbolTableRecord
100
AcDbLayerTableRecord
  2
14
 70
     0
 62
    58
420
  5263360
  6
Continuous
370
     9
390
F
347
46
348
0
  0
LAYER
  5
D2
330
2
100
AcDbSymbolTableRecord
100
AcDbLayerTableRecord
  2
15
 70
     0
 62
    98
420
    20480
  6
Continuous
370
     9
390
F
347
46
348
0
  0
LAYER
  5
D3
330
2
100
AcDbSymbolTableRecord
100
AcDbLayerTableRecord
  2
16
 70
     0
 62
    18
420
  5242880
  6
Continuous
370
     9
390
F
347
46
348
0
  0
LAYER
  5
D4
330
2
100
AcDbSymbolTableRecord
100
AcDbLayerTableRecord
  2
17
 70
     0
 62
   132
420
    49344
  6
Continuous
370
     9
390
F
347
46
348
0
  0
LAYER
  5
D5
330
2
100
AcDbSymbolTableRecord
100
AcDbLayerTableRecord
  2
18
 70
     0
 62
   212
420
 12583104
  6
Continuous
370
     9
390
F
347
46
348
0
  0
LAYER
  5
D6
330
2
100
AcDbSymbolTableRecord
100
AcDbLayerTableRecord
  2
19
 70
     0
 62
    52
420
 12632064
  6
Continuous
370
     9
390
F
347
46
348
0
  0
LAYER
  5
D7
330
2
100
AcDbSymbolTableRecord
100
AcDbLayerTableRecord
  2
20
 70
     0
 62
   251
420
  5263440
  6
Continuous
370
     9
390
F
347
46
348
0
  0
LAYER
  5
D8
330
2
100
AcDbSymbolTableRecord
100
AcDbLayerTableRecord
  2
21
 70
     0
 62
     7
  6
Continuous
370
     9
390
F
347
46
348
0
  0
LAYER
  5
D9
330
2
100
AcDbSymbolTableRecord
100
AcDbLayerTableRecord
  2
100
 70
     0
 62
     7
  6
Continuous
370
     9
390
F
347
46
348
0
  0
ENDTAB
  0
TABLE
  2
STYLE
  5
3
330
0
100
AcDbSymbolTable
 70
     2
  0
STYLE
  5
11
330
3
100
AcDbSymbolTableRecord
100
AcDbTextStyleTableRecord
  2
Standard
 70
     0
 40
0.0
 41
1.0
 50
0.0
 71
     0
 42
5.0
  3
txt
  4
bigfont
  0
STYLE
  5
6F
330
3
100
AcDbSymbolTableRecord
100
AcDbTextStyleTableRecord
  2
T_STANDARD
 70
     4
 40
10.0
 41
1.0
 50
0.0
 71
     0
 42
5.0
  3
txt
  4
bigfont
1001
ACAD
1000

1071
      256
  0
ENDTAB
  0
TABLE
  2
VIEW
  5
6
330
0
100
AcDbSymbolTable
 70
     0
  0
ENDTAB
  0
TABLE
  2
UCS
  5
7
330
0
100
AcDbSymbolTable
 70
     0
  0
ENDTAB
  0
TABLE
  2
APPID
  5
9
330
0
100
AcDbSymbolTable
 70
     2
  0
APPID
  5
12
330
9
100
AcDbSymbolTableRecord
100
AcDbRegAppTableRecord
  2
ACAD
 70
     0
  0
APPID
  5
6E
330
9
100
AcDbSymbolTableRecord
100
AcDbRegAppTableRecord
  2
ODA
 70
     0
  0
ENDTAB
  0
TABLE
  2
DIMSTYLE
  5
A
330
0
100
AcDbSymbolTable
 70
     1
100
AcDbDimStyleTable
  0
DIMSTYLE
105
27
330
A
100
AcDbSymbolTableRecord
100
AcDbDimStyleTableRecord
  2
Standard
 70
     0
178
     0
340
11
  0
ENDTAB
  0
TABLE
  2
BLOCK_RECORD
  5
1
330
0
100
AcDbSymbolTable
 70
    16
  0
BLOCK_RECORD
  5
1F
330
1
100
AcDbSymbolTableRecord
100
AcDbBlockTableRecord
  2
*Model_Space
340
22
 70
     0
280
     1
281
     0
  0
BLOCK_RECORD
  5
1B
330
1
100
AcDbSymbolTableRecord
100
AcDbBlockTableRecord
  2
*Paper_Space
340
1E
 70
     0
280
     1
281
     0
  0
BLOCK_RECORD
  5
23
330
1
100
AcDbSymbolTableRecord
100
AcDbBlockTableRecord
  2
*Paper_Space0
340
26
 70
     0
280
     1
281
     0
  0
BLOCK_RECORD
  5
70
330
1
100
AcDbSymbolTableRecord
100
AcDbBlockTableRecord
  2
_ORIGIN
340
0
 70
     0
280
     1
281
     0
  0
BLOCK_RECORD
  5
75
330
1
100
AcDbSymbolTableRecord
100
AcDbBlockTableRecord
  2
_DOTBLANK
340
0
 70
     0
280
     1
281
     0
  0
BLOCK_RECORD
  5
7A
330
1
100
AcDbSymbolTableRecord
100
AcDbBlockTableRecord
  2
_DOT
340
0
 70
     0
280
     1
281
     0
  0
BLOCK_RECORD
  5
7F
330
1
100
AcDbSymbolTableRecord
100
AcDbBlockTableRecord
  2
_OPEN
340
0
 70
     0
280
     1
281
     0
  0
BLOCK_RECORD
  5
85
330
1
100
AcDbSymbolTableRecord
100
AcDbBlockTableRecord
  2
_CLOSED
340
0
 70
     0
280
     1
281
     0
  0
BLOCK_RECORD
  5
8C
330
1
100
AcDbSymbolTableRecord
100
AcDbBlockTableRecord
  2
_CLOSEDBLANK
340
0
 70
     0
280
     1
281
     0
  0
BLOCK_RECORD
  5
92
330
1
100
AcDbSymbolTableRecord
100
AcDbBlockTableRecord
  2
_ARROWFILLED
340
0
 70
     0
280
     1
281
     0
  0
BLOCK_RECORD
  5
96
330
1
100
AcDbSymbolTableRecord
100
AcDbBlockTableRecord
  2
_BOXBLANK
340
0
 70
     0
280
     1
281
     0
  0
BLOCK_RECORD
  5
9E
330
1
100
AcDbSymbolTableRecord
100
AcDbBlockTableRecord
  2
_BOXFILLED
340
0
 70
     0
280
     1
281
     0
  0
BLOCK_RECORD
  5
A3
330
1
100
AcDbSymbolTableRecord
100
AcDbBlockTableRecord
  2
_INTEGRAL
340
0
 70
     0
280
     1
281
     0
  0
BLOCK_RECORD
  5
A8
330
1
100
AcDbSymbolTableRecord
100
AcDbBlockTableRecord
  2
_OBLIQUE
340
0
 70
     0
280
     1
281
     0
  0
BLOCK_RECORD
  5
AC
330
1
100
AcDbSymbolTableRecord
100
AcDbBlockTableRecord
  2
_NONE
340
0
 70
     0
280
     1
281
     0
  0
BLOCK_RECORD
  5
AF
330
1
100
AcDbSymbolTableRecord
100
AcDbBlockTableRecord
  2
MARK_OPEN
340
0
 70
     0
280
     1
281
     0
  0
BLOCK_RECORD
  5
B4
330
1
100
AcDbSymbolTableRecord
100
AcDbBlockTableRecord
  2
MARK_ORIGIN
340
0
 70
     0
280
     1
281
     0
  0
BLOCK_RECORD
  5
B8
330
1
100
AcDbSymbolTableRecord
100
AcDbBlockTableRecord
  2
MARK_DOT
340
0
 70
     0
280
     1
281
     0
  0
ENDTAB
  0
ENDSEC
  0
SECTION
  2
BLOCKS
  0
BLOCK
  5
20
330
1F
100
AcDbEntity
  8
0
100
AcDbBlockBegin
  2
*Model_Space
 70
     0
 10
0.0
 20
0.0
 30
0.0
  3
*Model_Space
  1

  0
ENDBLK
  5
21
330
1F
100
AcDbEntity
  8
0
100
AcDbBlockEnd
  0
BLOCK
  5
1C
330
1B
100
AcDbEntity
 67
     1
  8
0
100
AcDbBlockBegin
  2
*Paper_Space
 70
     0
 10
0.0
 20
0.0
 30
0.0
  3
*Paper_Space
  1

  0
ENDBLK
  5
1D
330
1B
100
AcDbEntity
 67
     1
  8
0
100
AcDbBlockEnd
  0
BLOCK
  5
24
330
23
100
AcDbEntity
  8
0
100
AcDbBlockBegin
  2
*Paper_Space0
 70
     0
 10
0.0
 20
0.0
 30
0.0
  3
*Paper_Space0
  1

  0
ENDBLK
  5
25
330
23
100
AcDbEntity
  8
0
100
AcDbBlockEnd
  0
BLOCK
  5
73
330
70
100
AcDbEntity
  8
0
100
AcDbBlockBegin
  2
_ORIGIN
 70
     0
 10
0.0
 20
0.0
 30
0.0
  3
_ORIGIN
  1

  0
CIRCLE
  5
71
330
70
100
AcDbEntity
  8
0
 62
     0
100
AcDbCircle
 10
0.0
 20
0.0
 30
0.0
 40
0.5
  0
LINE
  5
72
330
70
100
AcDbEntity
  8
0
 62
     0
100
AcDbLine
 10
0.0
 20
0.0
 30
0.0
 11
-1.0
 21
0.0
 31
0.0
  0
ENDBLK
  5
74
330
70
100
AcDbEntity
  8
0
100
AcDbBlockEnd
  0
BLOCK
  5
78
330
75
100
AcDbEntity
  8
0
100
AcDbBlockBegin
  2
_DOTBLANK
 70
     0
 10
0.0
 20
0.0
 30
0.0
  3
_DOTBLANK
  1

  0
CIRCLE
  5
76
330
75
100
AcDbEntity
  8
0
 62
     0
100
AcDbCircle
 10
0.0
 20
0.0
 30
0.0
 40
0.5
  0
LINE
  5
77
330
75
100
AcDbEntity
  8
0
 62
     0
100
AcDbLine
 10
-0.5
 20
0.0
 30
0.0
 11
-1.0
 21
0.0
 31
0.0
  0
ENDBLK
  5
79
330
75
100
AcDbEntity
  8
0
100
AcDbBlockEnd
  0
BLOCK
  5
7D
330
7A
100
AcDbEntity
  8
0
100
AcDbBlockBegin
  2
_DOT
 70
     0
 10
0.0
 20
0.0
 30
0.0
  3
_DOT
  1

  0
LWPOLYLINE
  5
7B
330
7A
100
AcDbEntity
  8
0
 62
     0
100
AcDbPolyline
 90
        2
 70
     1
 43
0.5
 10
-0.25
 20
0.0
 42
1.0
 10
0.25
 20
0.0
 42
1.0
  0
LINE
  5
7C
330
7A
100
AcDbEntity
  8
0
 62
     0
100
AcDbLine
 10
-0.5
 20
0.0
 30
0.0
 11
-1.0
 21
0.0
 31
0.0
  0
ENDBLK
  5
7E
330
7A
100
AcDbEntity
  8
0
100
AcDbBlockEnd
  0
BLOCK
  5
83
330
7F
100
AcDbEntity
  8
0
100
AcDbBlockBegin
  2
_OPEN
 70
     0
 10
0.0
 20
0.0
 30
0.0
  3
_OPEN
  1

  0
LINE
  5
80
330
7F
100
AcDbEntity
  8
0
 62
     0
100
AcDbLine
 10
0.0
 20
0.0
 30
0.0
 11
-1.0
 21
0.1666666666666667
 31
0.0
  0
LINE
  5
81
330
7F
100
AcDbEntity
  8
0
 62
     0
100
AcDbLine
 10
0.0
 20
0.0
 30
0.0
 11
-1.0
 21
-0.1666666666666667
 31
0.0
  0
LINE
  5
82
330
7F
100
AcDbEntity
  8
0
 62
     0
100
AcDbLine
 10
0.0
 20
0.0
 30
0.0
 11
-1.0
 21
0.0
 31
0.0
  0
ENDBLK
  5
84
330
7F
100
AcDbEntity
  8
0
100
AcDbBlockEnd
  0
BLOCK
  5
8A
330
85
100
AcDbEntity
  8
0
100
AcDbBlockBegin
  2
_CLOSED
 70
     0
 10
0.0
 20
0.0
 30
0.0
  3
_CLOSED
  1

  0
LINE
  5
86
330
85
100
AcDbEntity
  8
0
 62
     0
100
AcDbLine
 10
0.0
 20
0.0
 30
0.0
 11
-1.0
 21
0.1666666666666667
 31
0.0
  0
LINE
  5
87
330
85
100
AcDbEntity
  8
0
 62
     0
100
AcDbLine
 10
0.0
 20
0.0
 30
0.0
 11
-1.0
 21
-0.1666666666666667
 31
0.0
  0
LINE
  5
88
330
85
100
AcDbEntity
  8
0
 62
     0
100
AcDbLine
 10
-1.0
 20
0.1666666666666667
 30
0.0
 11
-1.0
 21
-0.1666666666666667
 31
0.0
  0
LINE
  5
89
330
85
100
AcDbEntity
  8
0
 62
     0
100
AcDbLine
 10
0.0
 20
0.0
 30
0.0
 11
-1.0
 21
0.0
 31
0.0
  0
ENDBLK
  5
8B
330
85
100
AcDbEntity
  8
0
100
AcDbBlockEnd
  0
BLOCK
  5
90
330
8C
100
AcDbEntity
  8
0
100
AcDbBlockBegin
  2
_CLOSEDBLANK
 70
     0
 10
0.0
 20
0.0
 30
0.0
  3
_CLOSEDBLANK
  1

  0
LINE
  5
8D
330
8C
100
AcDbEntity
  8
0
 62
     0
100
AcDbLine
 10
0.0
 20
0.0
 30
0.0
 11
-1.0
 21
0.1666666666666667
 31
0.0
  0
LINE
  5
8E
330
8C
100
AcDbEntity
  8
0
 62
     0
100
AcDbLine
 10
0.0
 20
0.0
 30
0.0
 11
-1.0
 21
-0.1666666666666667
 31
0.0
  0
LINE
  5
8F
330
8C
100
AcDbEntity
  8
0
 62
     0
100
AcDbLine
 10
-1.0
 20
0.1666666666666667
 30
0.0
 11
-1.0
 21
-0.1666666666666667
 31
0.0
  0
ENDBLK
  5
91
330
8C
100
AcDbEntity
  8
0
100
AcDbBlockEnd
  0
BLOCK
  5
94
330
92
100
AcDbEntity
  8
0
100
AcDbBlockBegin
  2
_ARROWFILLED
 70
     0
 10
0.0
 20
0.0
 30
0.0
  3
_ARROWFILLED
  1

  0
SOLID
  5
93
330
92
100
AcDbEntity
  8
0
 62
     0
100
AcDbTrace
 10
0.0
 20
0.0
 30
0.0
 11
-1.0
 21
-0.1666666666666667
 31
0.0
 12
-1.0
 22
0.1666666666666667
 32
0.0
 13
0.0
 23
0.0
 33
0.0
  0
ENDBLK
  5
95
330
92
100
AcDbEntity
  8
0
100
AcDbBlockEnd
  0
BLOCK
  5
9C
330
96
100
AcDbEntity
  8
0
100
AcDbBlockBegin
  2
_BOXBLANK
 70
     0
 10
0.0
 20
0.0
 30
0.0
  3
_BOXBLANK
  1

  0
LINE
  5
97
330
96
100
AcDbEntity
  8
0
 62
     0
100
AcDbLine
 10
-0.5
 20
-0.5
 30
0.0
 11
0.5
 21
-0.5
 31
0.0
  0
LINE
  5
98
330
96
100
AcDbEntity
  8
0
 62
     0
100
AcDbLine
 10
0.5
 20
-0.5
 30
0.0
 11
0.5
 21
0.5
 31
0.0
  0
LINE
  5
99
330
96
100
AcDbEntity
  8
0
 62
     0
100
AcDbLine
 10
0.5
 20
0.5
 30
0.0
 11
-0.5
 21
0.5
 31
0.0
  0
LINE
  5
9A
330
96
100
AcDbEntity
  8
0
 62
     0
100
AcDbLine
 10
-0.5
 20
0.5
 30
0.0
 11
-0.5
 21
-0.5
 31
0.0
  0
LINE
  5
9B
330
96
100
AcDbEntity
  8
0
 62
     0
100
AcDbLine
 10
-0.5
 20
0.0
 30
0.0
 11
-1.0
 21
0.0
 31
0.0
  0
ENDBLK
  5
9D
330
96
100
AcDbEntity
  8
0
100
AcDbBlockEnd
  0
BLOCK
  5
A1
330
9E
100
AcDbEntity
  8
0
100
AcDbBlockBegin
  2
_BOXFILLED
 70
     0
 10
0.0
 20
0.0
 30
0.0
  3
_BOXFILLED
  1

  0
SOLID
  5
9F
330
9E
100
AcDbEntity
  8
0
 62
     0
100
AcDbTrace
 10
-0.5
 20
0.5
 30
0.0
 11
0.5
 21
0.5
 31
0.0
 12
-0.5
 22
-0.5
 32
0.0
 13
0.5
 23
-0.5
 33
0.0
  0
LINE
  5
A0
330
9E
100
AcDbEntity
  8
0
 62
     0
100
AcDbLine
 10
-0.5
 20
0.0
 30
0.0
 11
-1.0
 21
0.0
 31
0.0
  0
ENDBLK
  5
A2
330
9E
100
AcDbEntity
  8
0
100
AcDbBlockEnd
  0
BLOCK
  5
A6
330
A3
100
AcDbEntity
  8
0
100
AcDbBlockBegin
  2
_INTEGRAL
 70
     0
 10
0.0
 20
0.0
 30
0.0
  3
_INTEGRAL
  1

  0
ARC
  5
A4
330
A3
100
AcDbEntity
  8
0
 62
     0
100
AcDbCircle
 10
0.444888
 20
-0.0913346
 30
0.0
 40
0.4541666
100
AcDbArc
 50
101.9999999999999
 51
167.9999999999998
  0
ARC
  5
A5
330
A3
100
AcDbEntity
  8
0
 62
     0
100
AcDbCircle
 10
-0.444888
 20
0.0913346
 30
0.0
 40
0.4541666
100
AcDbArc
 50
281.9999999999997
 51
347.9999999999997
  0
ENDBLK
  5
A7
330
A3
100
AcDbEntity
  8
0
100
AcDbBlockEnd
  0
BLOCK
  5
AA
330
A8
100
AcDbEntity
  8
0
100
AcDbBlockBegin
  2
_OBLIQUE
 70
     0
 10
0.0
 20
0.0
 30
0.0
  3
_OBLIQUE
  1

  0
LINE
  5
A9
330
A8
100
AcDbEntity
  8
0
 62
     0
100
AcDbLine
 10
-0.5
 20
-0.5
 30
0.0
 11
0.5
 21
0.5
 31
0.0
  0
ENDBLK
  5
AB
330
A8
100
AcDbEntity
  8
0
100
AcDbBlockEnd
  0
BLOCK
  5
AD
330
AC
100
AcDbEntity
  8
0
100
AcDbBlockBegin
  2
_NONE
 70
     0
 10
0.0
 20
0.0
 30
0.0
  3
_NONE
  1

  0
ENDBLK
  5
AE
330
AC
100
AcDbEntity
  8
0
100
AcDbBlockEnd
  0
BLOCK
  5
B2
330
AF
100
AcDbEntity
  8
0
100
AcDbBlockBegin
  2
MARK_OPEN
 70
     0
 10
0.0
 20
0.0
 30
0.0
  3
MARK_OPEN
  1

  0
LINE
  5
B0
330
AF
100
AcDbEntity
  8
0
 62
     0
100
AcDbLine
 10
0.0
 20
0.0
 30
0.0
 11
-1.0
 21
0.1666666666666667
 31
0.0
  0
LINE
  5
B1
330
AF
100
AcDbEntity
  8
0
 62
     0
100
AcDbLine
 10
0.0
 20
0.0
 30
0.0
 11
-1.0
 21
-0.1666666666666667
 31
0.0
  0
ENDBLK
  5
B3
330
AF
100
AcDbEntity
  8
0
100
AcDbBlockEnd
  0
BLOCK
  5
B6
330
B4
100
AcDbEntity
  8
0
100
AcDbBlockBegin
  2
MARK_ORIGIN
 70
     0
 10
0.0
 20
0.0
 30
0.0
  3
MARK_ORIGIN
  1

  0
CIRCLE
  5
B5
330
B4
100
AcDbEntity
  8
0
 62
     0
100
AcDbCircle
 10
0.0
 20
0.0
 30
0.0
 40
0.5
  0
ENDBLK
  5
B7
330
B4
100
AcDbEntity
  8
0
100
AcDbBlockEnd
  0
BLOCK
  5
BA
330
B8
100
AcDbEntity
  8
0
100
AcDbBlockBegin
  2
MARK_DOT
 70
     0
 10
0.0
 20
0.0
 30
0.0
  3
MARK_DOT
  1

  0
LWPOLYLINE
  5
B9
330
B8
100
AcDbEntity
  8
0
 62
     0
100
AcDbPolyline
 90
        2
 70
     1
 43
0.5
 10
-0.25
 20
0.0
 42
1.0
 10
0.25
 20
0.0
 42
1.0
  0
ENDBLK
  5
BB
330
B8
100
AcDbEntity
  8
0
100
AcDbBlockEnd
  0
ENDSEC
  0
SECTION
  2
ENTITIES
  0
LINE
  5
DA
330
1F
100
AcDbEntity
  8
100
  6
Continuous
 62
     7
370
    30
100
AcDbLine
 10
104.399830174626
 20
-30.56166059515448
 30
0.0
 11
109.673267674626
 21
-29.09681684515448
 31
0.0
  0
LINE
  5
DB
330
1F
100
AcDbEntity
  8
100
  6
Continuous
 62
     7
370
    30
100
AcDbLine
 10
99.12639267462598
 20
-31.73353559515448
 30
0.0
 11
104.399830174626
 21
-30.56166059515448
 31
0.0
  0
LINE
  5
DC
330
1F
100
AcDbEntity
  8
100
  6
Continuous
 62
     7
370
    30
100
AcDbLine
 10
90.27873642462598
 20
-32.49525434515448
 30
0.0
 11
99.12639267462598
 21
-31.73353559515448
 31
0.0
  0
LINE
  5
DD
330
1F
100
AcDbEntity
  8
100
  6
Continuous
 62
     7
370
    30
100
AcDbLine
 10
78.55998642462598
 20
-32.26087934515448
 30
0.0
 11
90.27873642462598
 21
-32.49525434515448
 31
0.0
  0
LINE
  5
DE
330
1F
100
AcDbEntity
  8
100
  6
Continuous
 62
     7
370
    30
100
AcDbLine
 10
69.53654892462598
 20
-30.85462934515448
 30
0.0
 11
78.55998642462598
 21
-32.26087934515448
 31
0.0
  0
LINE
  5
DF
330
1F
100
AcDbEntity
  8
100
  6
Continuous
 62
     7
370
    30
100
AcDbLine
 10
61.97795517462597
 20
-28.92103559515448
 30
0.0
 11
69.53654892462598
 21
-30.85462934515448
 31
0.0
  0
LINE
  5
E0
330
1F
100
AcDbEntity
  8
100
  6
Continuous
 62
     7
370
    30
100
AcDbLine
 10
56.35295517462597
 20
-26.92884809515448
 30
0.0
 11
61.97795517462597
 21
-28.92103559515448
 31
0.0
  0
LINE
  5
E1
330
1F
100
AcDbEntity
  8
100
  6
Continuous
 62
     7
370
    30
100
AcDbLine
 10
52.42717392462597
 20
-25.11244184515448
 30
0.0
 11
56.35295517462597
 21
-26.92884809515448
 31
0.0
  0
LINE
  5
E2
330
1F
100
AcDbEntity
  8
100
  6
Continuous
 62
     7
370
    30
100
AcDbLine
 10
67.82268173712598
 20
-29.03822309515448
 30
0.0
 11
66.54826767462598
 21
-28.97962934515448
 31
0.0
  0
LINE
  5
E3
330
1F
100
AcDbEntity
  8
100
  6
Continuous
 62
     7
370
    30
100
AcDbLine
 10
68.74553329962598
 20
-28.87709028265448
 30
0.0
 11
67.82268173712598
 21
-29.03822309515448
 31
0.0
  0
LINE
  5
E4
330
1F
100
AcDbEntity
  8
100
  6
Continuous
 62
     7
370
    30
100
AcDbLine
 10
69.24358017462598
 20
-28.45228559515448
 30
0.0
 11
68.74553329962598
 21
-28.87709028265448
 31
0.0
  0
LINE
  5
E5
330
1F
100
AcDbEntity
  8
100
  6
Continuous
 62
     7
370
    30
100
AcDbLine
 10
69.31682236212598
 20
-27.85169965765448
 30
0.0
 11
69.24358017462598
 21
-28.45228559515448
 31
0.0
  0
LINE
  5
E6
330
1F
100
AcDbEntity
  8
100
  6
Continuous
 62
     7
370
    30
100
AcDbLine
 10
68.81877548712598
 20
-27.23646528265448
 30
0.0
 11
69.31682236212598
 21
-27.85169965765448
 31
0.0
  0
LINE
  5
E7
330
1F
100
AcDbEntity
  8
100
  6
Continuous
 62
     7
370
    30
100
AcDbLine
 10
67.98381454962598
 20
-27.16322309515448
 30
0.0
 11
68.81877548712598
 21
-27.23646528265448
 31
0.0
  0
LINE
  5
E8
330
1F
100
AcDbEntity
  8
100
  6
Continuous
 62
     7
370
    30
100
AcDbLine
 10
67.09025986212598
 20
-27.16322309515448
 30
0.0
 11
67.98381454962598
 21
-27.16322309515448
 31
0.0
  0
LINE
  5
E9
330
1F
100
AcDbEntity
  8
100
  6
Continuous
 62
     7
370
    30
100
AcDbLine
 10
66.24065048712598
 20
-27.52943403265448
 30
0.0
 11
67.09025986212598
 21
-27.16322309515448
 31
0.0
  0
LINE
  5
EA
330
1F
100
AcDbEntity
  8
100
  6
Continuous
 62
     7
370
    30
100
AcDbLine
 10
66.00627548712598
 20
-27.93959028265448
 30
0.0
 11
66.24065048712598
 21
-27.52943403265448
 31
0.0
  0
LINE
  5
EB
330
1F
100
AcDbEntity
  8
100
  6
Continuous
 62
     7
370
    30
100
AcDbLine
 10
66.07951767462598
 20
-28.61341840765448
 30
0.0
 11
66.00627548712598
 21
-27.93959028265448
 31
0.0
  0
LINE
  5
EC
330
1F
100
AcDbEntity
  8
100
  6
Continuous
 62
     7
370
    30
100
AcDbLine
 10
66.54826767462598
 20
-28.97962934515448
 30
0.0
 11
66.07951767462598
 21
-28.61341840765448
 31
0.0
  0
LINE
  5
ED
330
1F
100
AcDbEntity
  8
100
  6
Continuous
 62
     7
370
    30
100
AcDbLine
 10
123.794361424626
 20
-14.74134809515448
 30
0.0
 11
122.842212987126
 21
-14.50697309515448
 31
0.0
  0
LINE
  5
EE
330
1F
100
AcDbEntity
  8
100
  6
Continuous
 62
     7
370
    30
100
AcDbLine
 10
124.834400487126
 20
-14.69740278265448
 30
0.0
 11
123.794361424626
 21
-14.74134809515448
 31
0.0
  0
LINE
  5
EF
330
1F
100
AcDbEntity
  8
100
  6
Continuous
 62
     7
370
    30
100
AcDbLine
 10
125.493580174626
 20
-14.53626997015448
 30
0.0
 11
124.834400487126
 21
-14.69740278265448
 31
0.0
  0
LINE
  5
F0
330
1F
100
AcDbEntity
  8
100
  6
Continuous
 62
     7
370
    30
100
AcDbLine
 10
125.654712987126
 20
-14.21400434515448
 30
0.0
 11
125.493580174626
 21
-14.53626997015448
 31
0.0
  0
LINE
  5
F1
330
1F
100
AcDbEntity
  8
100
  6
Continuous
 62
     7
370
    30
100
AcDbLine
 10
125.566822362126
 20
-13.67201215765448
 30
0.0
 11
125.654712987126
 21
-14.21400434515448
 31
0.0
  0
LINE
  5
F2
330
1F
100
AcDbEntity
  8
100
  6
Continuous
 62
     7
370
    30
100
AcDbLine
 10
125.024830174626
 20
-13.30580122015448
 30
0.0
 11
125.566822362126
 21
-13.67201215765448
 31
0.0
  0
LINE
  5
F3
330
1F
100
AcDbEntity
  8
100
  6
Continuous
 62
     7
370
    30
100
AcDbLine
 10
123.882252049626
 20
-13.10072309515448
 30
0.0
 11
125.024830174626
 21
-13.30580122015448
 31
0.0
  0
LINE
  5
F4
330
1F
100
AcDbEntity
  8
100
  6
Continuous
 62
     7
370
    30
100
AcDbLine
 10
123.091236424626
 20
-13.26185590765448
 30
0.0
 11
123.882252049626
 21
-13.10072309515448
 31
0.0
  0
LINE
  5
F5
330
1F
100
AcDbEntity
  8
100
  6
Continuous
 62
     7
370
    30
100
AcDbLine
 10
122.725025487126
 20
-13.49623090765448
 30
0.0
 11
123.091236424626
 21
-13.26185590765448
 31
0.0
  0
LINE
  5
F6
330
1F
100
AcDbEntity
  8
100
  6
Continuous
 62
     7
370
    30
100
AcDbLine
 10
122.578541112126
 20
-13.97962934515448
 30
0.0
 11
122.725025487126
 21
-13.49623090765448
 31
0.0
  0
LINE
  5
F7
330
1F
100
AcDbEntity
  8
100
  6
Continuous
 62
     7
370
    30
100
AcDbLine
 10
122.842212987126
 20
-14.50697309515448
 30
0.0
 11
122.578541112126
 21
-13.97962934515448
 31
0.0
  0
LINE
  5
F8
330
1F
100
AcDbEntity
  8
100
  6
Continuous
 62
     7
370
    30
100
AcDbLine
 10
128.393970799626
 20
-14.88783247015448
 30
0.0
 11
128.9644045351599
 21
-11.88887119155111
 31
0.0
  0
LINE
  5
F9
330
1F
100
AcDbEntity
  8
100
  6
Continuous
 62
     7
370
    30
100
AcDbLine
 10
126.899830174626
 20
-17.64173872015448
 30
0.0
 11
128.393970799626
 21
-14.88783247015448
 31
0.0
  0
LINE
  5
FA
330
1F
100
AcDbEntity
  8
100
  6
Continuous
 62
     7
370
    30
100
AcDbLine
 10
124.878345799626
 20
-20.80580122015448
 30
0.0
 11
126.899830174626
 21
-17.64173872015448
 31
0.0
  0
LINE
  5
FB
330
1F
100
AcDbEntity
  8
100
  6
Continuous
 62
     7
370
    30
100
AcDbLine
 10
121.655689549626
 20
-23.55970747015448
 30
0.0
 11
124.878345799626
 21
-20.80580122015448
 31
0.0
  0
LINE
  5
FC
330
1F
100
AcDbEntity
  8
100
  6
Continuous
 62
     7
370
    30
100
AcDbLine
 10
117.173267674626
 20
-26.22572309515448
 30
0.0
 11
121.655689549626
 21
-23.55970747015448
 31
0.0
  0
LINE
  5
FD
330
1F
100
AcDbEntity
  8
100
  6
Continuous
 62
     7
370
    30
100
AcDbLine
 10
112.632252049626
 20
-28.51087934515448
 30
0.0
 11
117.173267674626
 21
-26.22572309515448
 31
0.0
  0
LINE
  5
FE
330
1F
100
AcDbEntity
  8
100
  6
Continuous
 62
     7
370
    30
100
AcDbLine
 10
108.237720799626
 20
-30.26869184515448
 30
0.0
 11
112.632252049626
 21
-28.51087934515448
 31
0.0
  0
LINE
  5
FF
330
1F
100
AcDbEntity
  8
100
  6
Continuous
 62
     7
370
    30
100
AcDbLine
 10
102.173267674626
 20
-32.14369184515448
 30
0.0
 11
108.237720799626
 21
-30.26869184515448
 31
0.0
  0
LINE
  5
100
330
1F
100
AcDbEntity
  8
100
  6
Continuous
 62
     7
370
    30
100
AcDbLine
 10
93.91154892462598
 20
-33.43275434515448
 30
0.0
 11
102.173267674626
 21
-32.14369184515448
 31
0.0
  0
LINE
  5
101
330
1F
100
AcDbEntity
  8
100
  6
Continuous
 62
     7
370
    30
100
AcDbLine
 10
85.44475204962598
 20
-33.63783247015448
 30
0.0
 11
93.91154892462598
 21
-33.43275434515448
 31
0.0
  0
LINE
  5
102
330
1F
100
AcDbEntity
  8
100
  6
Continuous
 62
     7
370
    30
100
AcDbLine
 10
76.91936142462598
 20
-33.25697309515448
 30
0.0
 11
85.44475204962598
 21
-33.63783247015448
 31
0.0
  0
LINE
  5
103
330
1F
100
AcDbEntity
  8
100
  6
Continuous
 62
     7
370
    30
100
AcDbLine
 10
69.12639267462598
 20
-32.11439497015448
 30
0.0
 11
76.91936142462598
 21
-33.25697309515448
 31
0.0
  0
LINE
  5
104
330
1F
100
AcDbEntity
  8
100
  6
Continuous
 62
     7
370
    30
100
AcDbLine
 10
62.06584579962597
 20
-30.32728559515448
 30
0.0
 11
69.12639267462598
 21
-32.11439497015448
 31
0.0
  0
LINE
  5
105
330
1F
100
AcDbEntity
  8
100
  6
Continuous
 62
     7
370
    30
100
AcDbLine
 10
56.88029892462597
 20
-28.24720747015448
 30
0.0
 11
62.06584579962597
 21
-30.32728559515448
 31
0.0
  0
LINE
  5
106
330
1F
100
AcDbEntity
  8
100
  6
Continuous
 62
     7
370
    30
100
AcDbLine
 10
52.10490829962597
 20
-26.40150434515448
 30
0.0
 11
56.88029892462597
 21
-28.24720747015448
 31
0.0
  0
LINE
  5
107
330
1F
100
AcDbEntity
  8
100
  6
Continuous
 62
     7
370
    30
100
AcDbLine
 10
48.12053329962597
 20
-23.67689497015448
 30
0.0
 11
52.10490829962597
 21
-26.40150434515448
 31
0.0
  0
LINE
  5
108
330
1F
100
AcDbEntity
  8
100
  6
Continuous
 62
     7
370
    30
100
AcDbLine
 10
45.42522079962597
 20
-21.04017622015448
 30
0.0
 11
48.12053329962597
 21
-23.67689497015448
 31
0.0
  0
LINE
  5
109
330
1F
100
AcDbEntity
  8
100
  6
Continuous
 62
     7
370
    30
100
AcDbLine
 10
42.93498642462597
 20
-18.52064497015448
 30
0.0
 11
45.42522079962597
 21
-21.04017622015448
 31
0.0
  0
LINE
  5
10A
330
1F
100
AcDbEntity
  8
100
  6
Continuous
 62
     7
370
    30
100
AcDbLine
 10
41.00139267462597
 20
-15.53236372015448
 30
0.0
 11
42.93498642462597
 21
-18.52064497015448
 31
0.0
  0
LINE
  5
10B
330
1F
100
AcDbEntity
  8
100
  6
Continuous
 62
     7
370
    30
100
AcDbLine
 10
40.35686142462597
 20
-13.39369184515448
 30
0.0
 11
41.00139267462597
 21
-15.53236372015448
 31
0.0
  0
LINE
  5
10C
330
1F
100
AcDbEntity
  8
100
  6
Continuous
 62
     7
370
    30
100
AcDbLine
 10
39.72697861212597
 20
-11.53334028265448
 30
0.0
 11
40.35686142462597
 21
-13.39369184515448
 31
0.0
  0
LINE
  5
10D
330
1F
100
AcDbEntity
  8
100
  6
Continuous
 62
     7
370
    30
100
AcDbLine
 10
39.52190048712597
 20
-9.599746532654478
 30
0.0
 11
39.72697861212597
 21
-11.53334028265448
 31
0.0
  0
LINE
  5
10E
330
1F
100
AcDbEntity
  8
100
  6
Continuous
 62
     7
370
    30
100
AcDbLine
 10
39.56584579962597
 20
-7.695449657654478
 30
0.0
 11
39.52190048712597
 21
-9.599746532654478
 31
0.0
  0
LINE
  5
10F
330
1F
100
AcDbEntity
  8
100
  6
Continuous
 62
     7
370
    30
100
AcDbLine
 10
39.83633940019769
 20
-5.445589746661753
 30
0.0
 11
39.56584579962597
 21
-7.695449657654478
 31
0.0
  0
LINE
  5
110
330
1F
100
AcDbEntity
  8
100
  6
Continuous
 62
     7
370
    30
100
AcDbLine
 10
46.83147079962597
 20
1.972519092345522
 30
0.0
 11
46.84611923712597
 21
1.635605029845522
 31
0.0
  0
LINE
  5
111
330
1F
100
AcDbEntity
  8
100
  6
Continuous
 62
     7
370
    30
100
AcDbLine
 10
47.15373642462597
 20
2.177597217345522
 30
0.0
 11
46.83147079962597
 21
1.972519092345522
 31
0.0
  0
LINE
  5
112
330
1F
100
AcDbEntity
  8
100
  6
Continuous
 62
     7
370
    30
100
AcDbLine
 10
47.60783798712597
 20
2.382675342345522
 30
0.0
 11
47.15373642462597
 21
2.177597217345522
 31
0.0
  0
LINE
  5
113
330
1F
100
AcDbEntity
  8
100
  6
Continuous
 62
     7
370
    30
100
AcDbLine
 10
48.28166611212597
 20
2.397323779845522
 30
0.0
 11
47.60783798712597
 21
2.382675342345522
 31
0.0
  0
LINE
  5
114
330
1F
100
AcDbEntity
  8
100
  6
Continuous
 62
     7
370
    30
100
AcDbLine
 10
49.23381454962597
 20
2.294784717345522
 30
0.0
 11
48.28166611212597
 21
2.397323779845522
 31
0.0
  0
LINE
  5
115
330
1F
100
AcDbEntity
  8
100
  6
Continuous
 62
     7
370
    30
100
AcDbLine
 10
49.52678329962597
 20
1.884628467345522
 30
0.0
 11
49.23381454962597
 21
2.294784717345522
 31
0.0
  0
LINE
  5
116
330
1F
100
AcDbEntity
  8
100
  6
Continuous
 62
     7
370
    30
100
AcDbLine
 10
49.13127548712597
 20
1.269394092345522
 30
0.0
 11
49.52678329962597
 21
1.884628467345522
 31
0.0
  0
LINE
  5
117
330
1F
100
AcDbEntity
  8
100
  6
Continuous
 62
     7
370
    30
100
AcDbLine
 10
48.17912704962597
 20
1.137558154845522
 30
0.0
 11
49.13127548712597
 21
1.269394092345522
 31
0.0
  0
LINE
  5
118
330
1F
100
AcDbEntity
  8
100
  6
Continuous
 62
     7
370
    30
100
AcDbLine
 10
47.43205673712597
 20
1.166855029845522
 30
0.0
 11
48.17912704962597
 21
1.137558154845522
 31
0.0
  0
LINE
  5
119
330
1F
100
AcDbEntity
  8
100
  6
Continuous
 62
     7
370
    30
100
AcDbLine
 10
46.84611923712597
 20
1.635605029845522
 30
0.0
 11
47.43205673712597
 21
1.166855029845522
 31
0.0
  0
LINE
  5
11A
330
1F
100
AcDbEntity
  8
100
  6
Continuous
 62
     7
370
    30
100
AcDbLine
 10
51.37248642462597
 20
6.381698779845522
 30
0.0
 11
53.40001693823751
 21
7.260937828043353
 31
0.0
  0
LINE
  5
11B
330
1F
100
AcDbEntity
  8
100
  6
Continuous
 62
     7
370
    30
100
AcDbLine
 10
48.26701767462597
 20
4.506698779845522
 30
0.0
 11
51.37248642462597
 21
6.381698779845522
 31
0.0
  0
LINE
  5
11C
330
1F
100
AcDbEntity
  8
100
  6
Continuous
 62
     7
370
    30
100
AcDbLine
 10
45.16154892462597
 20
2.221542529845522
 30
0.0
 11
48.26701767462597
 21
4.506698779845522
 31
0.0
  0
LINE
  5
11D
330
1F
100
AcDbEntity
  8
100
  6
Continuous
 62
     7
370
    30
100
AcDbLine
 10
42.46623642462597
 20
-0.5909574701544784
 30
0.0
 11
45.16154892462597
 21
2.221542529845522
 31
0.0
  0
LINE
  5
11E
330
1F
100
AcDbEntity
  8
100
  6
Continuous
 62
     7
370
    30
100
AcDbLine
 10
40.64983017462597
 20
-3.637832470154478
 30
0.0
 11
42.46623642462597
 21
-0.5909574701544784
 31
0.0
  0
LINE
  5
11F
330
1F
100
AcDbEntity
  8
100
  6
Continuous
 62
     7
370
    30
100
AcDbLine
 10
39.06779892462597
 20
-7.153457470154478
 30
0.0
 11
40.64983017462597
 21
-3.637832470154478
 31
0.0
  0
LINE
  5
120
330
1F
100
AcDbEntity
  8
100
  6
Continuous
 62
     7
370
    30
100
AcDbLine
 10
38.95061142462597
 20
-10.78626997015448
 30
0.0
 11
39.06779892462597
 21
-7.153457470154478
 31
0.0
  0
LINE
  5
121
330
1F
100
AcDbEntity
  8
100
  6
Continuous
 62
     7
370
    30
100
AcDbLine
 10
39.65373642462597
 20
-14.59486372015448
 30
0.0
 11
38.95061142462597
 21
-10.78626997015448
 31
0.0
  0
LINE
  5
122
330
1F
100
AcDbEntity
  8
100
  6
Continuous
 62
     7
370
    30
100
AcDbLine
 10
41.05998642462597
 20
-18.11048872015448
 30
0.0
 11
39.65373642462597
 21
-14.59486372015448
 31
0.0
  0
LINE
  5
123
330
1F
100
AcDbEntity
  8
100
  6
Continuous
 62
     7
370
    30
100
AcDbLine
 10
43.22795517462597
 20
-21.39173872015448
 30
0.0
 11
41.05998642462597
 21
-18.11048872015448
 31
0.0
  0
LINE
  5
124
330
1F
100
AcDbEntity
  8
100
  6
Continuous
 62
     7
370
    30
100
AcDbLine
 10
47.56389267462597
 20
-25.43470747015448
 30
0.0
 11
43.22795517462597
 21
-21.39173872015448
 31
0.0
  0
LINE
  5
125
330
1F
100
AcDbEntity
  8
100
  6
Continuous
 62
     7
370
    30
100
AcDbLine
 10
53.83342392462597
 20
-29.41908247015448
 30
0.0
 11
47.56389267462597
 21
-25.43470747015448
 31
0.0
  0
LINE
  5
126
330
1F
100
AcDbEntity
  8
100
  6
Continuous
 62
     7
370
    30
100
AcDbLine
 10
59.86858017462597
 20
-32.11439497015448
 30
0.0
 11
53.83342392462597
 21
-29.41908247015448
 31
0.0
  0
LINE
  5
127
330
1F
100
AcDbEntity
  8
100
  6
Continuous
 62
     7
370
    30
100
AcDbLine
 10
67.66154892462598
 20
-34.39955122015448
 30
0.0
 11
59.86858017462597
 21
-32.11439497015448
 31
0.0
  0
LINE
  5
128
330
1F
100
AcDbEntity
  8
100
  6
Continuous
 62
     7
370
    30
100
AcDbLine
 10
75.27873642462598
 20
-35.68861372015448
 30
0.0
 11
67.66154892462598
 21
-34.39955122015448
 31
0.0
  0
LINE
  5
129
330
1F
100
AcDbEntity
  8
100
  6
Continuous
 62
     7
370
    30
100
AcDbLine
 10
84.00920517462598
 20
-36.04017622015448
 30
0.0
 11
75.27873642462598
 21
-35.68861372015448
 31
0.0
  0
LINE
  5
12A
330
1F
100
AcDbEntity
  8
100
  6
Continuous
 62
     7
370
    30
100
AcDbLine
 10
92.56389267462598
 20
-35.92298872015448
 30
0.0
 11
84.00920517462598
 21
-36.04017622015448
 31
0.0
  0
LINE
  5
12B
330
1F
100
AcDbEntity
  8
100
  6
Continuous
 62
     7
370
    30
100
AcDbLine
 10
103.813892674626
 20
-34.10658247015448
 30
0.0
 11
92.56389267462598
 21
-35.92298872015448
 31
0.0
  0
LINE
  5
12C
330
1F
100
AcDbEntity
  8
100
  6
Continuous
 62
     7
370
    30
100
AcDbLine
 10
113.130298924626
 20
-30.88392622015448
 30
0.0
 11
103.813892674626
 21
-34.10658247015448
 31
0.0
  0
LINE
  5
12D
330
1F
100
AcDbEntity
  8
100
  6
Continuous
 62
     7
370
    30
100
AcDbLine
 10
118.989673924626
 20
-27.89564497015448
 30
0.0
 11
113.130298924626
 21
-30.88392622015448
 31
0.0
  0
LINE
  5
12E
330
1F
100
AcDbEntity
  8
100
  6
Continuous
 62
     7
370
    30
100
AcDbLine
 10
123.852955174626
 20
-23.91126997015448
 30
0.0
 11
118.989673924626
 21
-27.89564497015448
 31
0.0
  0
LINE
  5
12F
330
1F
100
AcDbEntity
  8
100
  6
Continuous
 62
     7
370
    30
100
AcDbLine
 10
126.958423924626
 20
-20.04408247015448
 30
0.0
 11
123.852955174626
 21
-23.91126997015448
 31
0.0
  0
LINE
  5
130
330
1F
100
AcDbEntity
  8
100
  6
Continuous
 62
     7
370
    30
100
AcDbLine
 10
128.540455174626
 20
-16.52845747015448
 30
0.0
 11
126.958423924626
 21
-20.04408247015448
 31
0.0
  0
LINE
  5
131
330
1F
100
AcDbEntity
  8
100
  6
Continuous
 62
     7
370
    30
100
AcDbLine
 10
129.009205174626
 20
-12.19251997015448
 30
0.0
 11
128.540455174626
 21
-16.52845747015448
 31
0.0
  0
LINE
  5
132
330
1F
100
AcDbEntity
  8
100
  6
Continuous
 62
     7
370
    30
100
AcDbLine
 10
128.481861424626
 20
-8.618301220154478
 30
0.0
 11
129.009205174626
 21
-12.19251997015448
 31
0.0
  0
LINE
  5
133
330
1F
100
AcDbEntity
  8
100
  6
Continuous
 62
     7
370
    30
100
AcDbLine
 10
127.427173924626
 20
-5.102676220154478
 30
0.0
 11
128.481861424626
 21
-8.618301220154478
 31
0.0
  0
LINE
  5
134
330
1F
100
AcDbEntity
  8
100
  6
Continuous
 62
     7
370
    30
100
AcDbLine
 10
125.142017674626
 20
-1.880019970154478
 30
0.0
 11
127.427173924626
 21
-5.102676220154478
 31
0.0
  0
LINE
  5
135
330
1F
100
AcDbEntity
  8
100
  6
Continuous
 62
     7
370
    30
100
AcDbLine
 10
122.856861424626
 20
0.5809175298455216
 30
0.0
 11
125.142017674626
 21
-1.880019970154478
 31
0.0
  0
LINE
  5
136
330
1F
100
AcDbEntity
  8
100
  6
Continuous
 62
     7
370
    30
100
AcDbLine
 10
118.227955174626
 20
3.920761279845522
 30
0.0
 11
122.856861424626
 21
0.5809175298455216
 31
0.0
  0
LINE
  5
137
330
1F
100
AcDbEntity
  8
100
  6
Continuous
 62
     7
370
    30
100
AcDbLine
 10
114.9336731625046
 20
5.620386393301679
 30
0.0
 11
118.227955174626
 21
3.920761279845522
 31
0.0
  0
LINE
  5
138
330
1F
100
AcDbEntity
  8
100
  6
Continuous
 62
     7
370
    30
100
AcDbLine
 10
116.118580174626
 20
-3.286269970154478
 30
0.0
 11
114.829517674626
 21
-2.114394970154478
 31
0.0
  0
LINE
  5
139
330
1F
100
AcDbEntity
  8
100
  6
Continuous
 62
     7
370
    30
100
AcDbLine
 10
116.880298924626
 20
-5.219863720154478
 30
0.0
 11
116.118580174626
 21
-3.286269970154478
 31
0.0
  0
LINE
  5
13A
330
1F
100
AcDbEntity
  8
100
  6
Continuous
 62
     7
370
    30
100
AcDbLine
 10
117.349048924626
 20
-7.622207470154478
 30
0.0
 11
116.880298924626
 21
-5.219863720154478
 31
0.0
  0
LINE
  5
13B
330
1F
100
AcDbEntity
  8
100
  6
Continuous
 62
     7
370
    30
100
AcDbLine
 10
117.349048924626
 20
-10.37611372015448
 30
0.0
 11
117.349048924626
 21
-7.622207470154478
 31
0.0
  0
LINE
  5
13C
330
1F
100
AcDbEntity
  8
100
  6
Continuous
 62
     7
370
    30
100
AcDbLine
 10
116.821705174626
 20
-12.89564497015448
 30
0.0
 11
117.349048924626
 21
-10.37611372015448
 31
0.0
  0
LINE
  5
13D
330
1F
100
AcDbEntity
  8
100
  6
Continuous
 62
     7
370
    30
100
AcDbLine
 10
113.892017674626
 20
-16.70423872015448
 30
0.0
 11
116.821705174626
 21
-12.89564497015448
 31
0.0
  0
LINE
  5
13E
330
1F
100
AcDbEntity
  8
100
  6
Continuous
 62
     7
370
    30
100
AcDbLine
 10
110.434986424626
 20
-19.16517622015448
 30
0.0
 11
113.892017674626
 21
-16.70423872015448
 31
0.0
  0
LINE
  5
13F
330
1F
100
AcDbEntity
  8
100
  6
Continuous
 62
     7
370
    30
100
AcDbLine
 10
106.099048924626
 20
-21.50892622015448
 30
0.0
 11
110.434986424626
 21
-19.16517622015448
 31
0.0
  0
LINE
  5
140
330
1F
100
AcDbEntity
  8
100
  6
Continuous
 62
     7
370
    30
100
AcDbLine
 10
99.59514267462598
 20
-23.61830122015448
 30
0.0
 11
106.099048924626
 21
-21.50892622015448
 31
0.0
  0
LINE
  5
141
330
1F
100
AcDbEntity
  8
100
  6
Continuous
 62
     7
370
    30
100
AcDbLine
 10
91.97795517462598
 20
-24.96595747015448
 30
0.0
 11
99.59514267462598
 21
-23.61830122015448
 31
0.0
  0
LINE
  5
142
330
1F
100
AcDbEntity
  8
100
  6
Continuous
 62
     7
370
    30
100
AcDbLine
 10
84.18498642462598
 20
-24.90736372015448
 30
0.0
 11
91.97795517462598
 21
-24.96595747015448
 31
0.0
  0
LINE
  5
143
330
1F
100
AcDbEntity
  8
100
  6
Continuous
 62
     7
370
    30
100
AcDbLine
 10
76.45061142462598
 20
-24.73158247015448
 30
0.0
 11
84.18498642462598
 21
-24.90736372015448
 31
0.0
  0
LINE
  5
144
330
1F
100
AcDbEntity
  8
100
  6
Continuous
 62
     7
370
    30
100
AcDbLine
 10
69.47795517462598
 20
-23.26673872015448
 30
0.0
 11
76.45061142462598
 21
-24.73158247015448
 31
0.0
  0
LINE
  5
145
330
1F
100
AcDbEntity
  8
100
  6
Continuous
 62
     7
370
    30
100
AcDbLine
 10
63.38420517462597
 20
-21.27455122015448
 30
0.0
 11
69.47795517462598
 21
-23.26673872015448
 31
0.0
  0
LINE
  5
146
330
1F
100
AcDbEntity
  8
100
  6
Continuous
 62
     7
370
    30
100
AcDbLine
 10
59.80998642462597
 20
-19.34095747015448
 30
0.0
 11
63.38420517462597
 21
-21.27455122015448
 31
0.0
  0
LINE
  5
147
330
1F
100
AcDbEntity
  8
100
  6
Continuous
 62
     7
370
    30
100
AcDbLine
 10
56.82170517462597
 20
-17.58314497015448
 30
0.0
 11
59.80998642462597
 21
-19.34095747015448
 31
0.0
  0
LINE
  5
148
330
1F
100
AcDbEntity
  8
100
  6
Continuous
 62
     7
370
    30
100
AcDbLine
 10
53.30608017462597
 20
-14.00892622015448
 30
0.0
 11
56.82170517462597
 21
-17.58314497015448
 31
0.0
  0
LINE
  5
149
330
1F
100
AcDbEntity
  8
100
  6
Continuous
 62
     7
370
    30
100
AcDbLine
 10
51.02092392462597
 20
-11.19642622015448
 30
0.0
 11
53.30608017462597
 21
-14.00892622015448
 31
0.0
  0
LINE
  5
14A
330
1F
100
AcDbEntity
  8
100
  6
Continuous
 62
     7
370
    30
100
AcDbLine
 10
50.37639267462597
 20
-8.618301220154478
 30
0.0
 11
51.02092392462597
 21
-11.19642622015448
 31
0.0
  0
LINE
  5
14B
330
1F
100
AcDbEntity
  8
100
  6
Continuous
 62
     7
370
    30
100
AcDbLine
 10
50.37639267462597
 20
-5.805801220154478
 30
0.0
 11
50.37639267462597
 21
-8.618301220154478
 31
0.0
  0
LINE
  5
14C
330
1F
100
AcDbEntity
  8
100
  6
Continuous
 62
     7
370
    30
100
AcDbLine
 10
51.02092392462597
 20
-3.579238720154478
 30
0.0
 11
50.37639267462597
 21
-5.805801220154478
 31
0.0
  0
LINE
  5
14D
330
1F
100
AcDbEntity
  8
100
  6
Continuous
 62
     7
370
    30
100
AcDbLine
 10
52.01701767462597
 20
-1.997207470154478
 30
0.0
 11
51.02092392462597
 21
-3.579238720154478
 31
0.0
  0
LINE
  5
14E
330
1F
100
AcDbEntity
  8
100
  6
Continuous
 62
     7
370
    30
100
AcDbLine
 10
53.42326767462597
 20
-0.4737699701544784
 30
0.0
 11
52.01701767462597
 21
-1.997207470154478
 31
0.0
  0
LINE
  5
14F
330
1F
100
AcDbEntity
  8
100
  6
Continuous
 62
     7
370
    30
100
AcDbLine
 10
53.30608017462597
 20
0.6981050298455216
 30
0.0
 11
53.61779045992216
 21
22.47554769688234
 31
0.0
  0
LINE
  5
150
330
1F
100
AcDbEntity
  8
100
  6
Continuous
 62
     7
370
    30
100
AcDbLine
 10
53.42326767462597
 20
-0.4737699701544784
 30
0.0
 11
53.30608017462597
 21
0.6981050298455216
 31
0.0
  0
LINE
  5
151
330
1F
100
AcDbEntity
  8
100
  6
Continuous
 62
     7
370
    30
100
AcDbLine
 10
53.65764267462597
 20
-3.169082470154478
 30
0.0
 11
53.42326767462597
 21
-0.4737699701544784
 31
0.0
  0
LINE
  5
152
330
1F
100
AcDbEntity
  8
100
  6
Continuous
 62
     7
370
    30
100
AcDbLine
 10
54.88811142462597
 20
-6.040176220154478
 30
0.0
 11
53.65764267462597
 21
-3.169082470154478
 31
0.0
  0
LINE
  5
153
330
1F
100
AcDbEntity
  8
100
  6
Continuous
 62
     7
370
    30
100
AcDbLine
 10
58.57951767462597
 20
-9.497207470154478
 30
0.0
 11
54.88811142462597
 21
-6.040176220154478
 31
0.0
  0
LINE
  5
154
330
1F
100
AcDbEntity
  8
100
  6
Continuous
 62
     7
370
    30
100
AcDbLine
 10
64.43889267462598
 20
-13.01283247015448
 30
0.0
 11
58.57951767462597
 21
-9.497207470154478
 31
0.0
  0
LINE
  5
155
330
1F
100
AcDbEntity
  8
100
  6
Continuous
 62
     7
370
    30
100
AcDbLine
 10
71.82170517462598
 20
-15.29798872015448
 30
0.0
 11
64.43889267462598
 21
-13.01283247015448
 31
0.0
  0
LINE
  5
156
330
1F
100
AcDbEntity
  8
100
  6
Continuous
 62
     7
370
    30
100
AcDbLine
 10
80.66936142462598
 20
-16.52845747015448
 30
0.0
 11
71.82170517462598
 21
-15.29798872015448
 31
0.0
  0
LINE
  5
157
330
1F
100
AcDbEntity
  8
100
  6
Continuous
 62
     7
370
    30
100
AcDbLine
 10
91.39201767462598
 20
-16.17689497015448
 30
0.0
 11
80.66936142462598
 21
-16.52845747015448
 31
0.0
  0
LINE
  5
158
330
1F
100
AcDbEntity
  8
100
  6
Continuous
 62
     7
370
    30
100
AcDbLine
 10
100.942798924626
 20
-13.77455122015448
 30
0.0
 11
91.39201767462598
 21
-16.17689497015448
 31
0.0
  0
LINE
  5
159
330
1F
100
AcDbEntity
  8
100
  6
Continuous
 62
     7
370
    30
100
AcDbLine
 10
107.739673924626
 20
-11.66517622015448
 30
0.0
 11
100.942798924626
 21
-13.77455122015448
 31
0.0
  0
LINE
  5
15A
330
1F
100
AcDbEntity
  8
100
  6
Continuous
 62
     7
370
    30
100
AcDbLine
 10
112.309986424626
 20
-8.032363720154478
 30
0.0
 11
107.739673924626
 21
-11.66517622015448
 31
0.0
  0
LINE
  5
15B
330
1F
100
AcDbEntity
  8
100
  6
Continuous
 62
     7
370
    30
100
AcDbLine
 10
114.712330174626
 20
-3.696426220154478
 30
0.0
 11
112.309986424626
 21
-8.032363720154478
 31
0.0
  0
LINE
  5
15C
330
1F
100
AcDbEntity
  8
100
  6
Continuous
 62
     7
370
    30
100
AcDbLine
 10
114.829517674626
 20
-2.114394970154478
 30
0.0
 11
114.712330174626
 21
-3.696426220154478
 31
0.0
  0
LINE
  5
15D
330
1F
100
AcDbEntity
  8
100
  6
Continuous
 62
     7
370
    30
100
AcDbLine
 10
114.829517674626
 20
2.280136279845522
 30
0.0
 11
114.829517674626
 21
-2.114394970154478
 31
0.0
  0
LINE
  5
15E
330
1F
100
AcDbEntity
  8
100
  6
Continuous
 62
     7
370
    30
100
AcDbLine
 10
115.4146795243572
 20
21.0461847595185
 30
0.0
 11
114.829517674626
 21
2.280136279845522
 31
0.0
  0
LINE
  5
15F
330
1F
100
AcDbEntity
  8
100
  6
Continuous
 62
     7
370
    30
100
AcDbLine
 10
106.450611424626
 20
17.04576127984552
 30
0.0
 11
110.9930879516047
 21
19.39102057046443
 31
0.0
  0
LINE
  5
160
330
1F
100
AcDbEntity
  8
100
  6
Continuous
 62
     7
370
    30
100
AcDbLine
 10
99.94670517462598
 20
15.22935502984552
 30
0.0
 11
106.450611424626
 21
17.04576127984552
 31
0.0
  0
LINE
  5
161
330
1F
100
AcDbEntity
  8
100
  6
Continuous
 62
     7
370
    30
100
AcDbLine
 10
92.32951767462598
 20
14.11607377984552
 30
0.0
 11
99.94670517462598
 21
15.22935502984552
 31
0.0
  0
LINE
  5
162
330
1F
100
AcDbEntity
  8
100
  6
Continuous
 62
     7
370
    30
100
AcDbLine
 10
80.61076767462598
 20
14.17466752984552
 30
0.0
 11
92.32951767462598
 21
14.11607377984552
 31
0.0
  0
LINE
  5
163
330
1F
100
AcDbEntity
  8
100
  6
Continuous
 62
     7
370
    30
100
AcDbLine
 10
69.30217392462598
 20
16.16685502984552
 30
0.0
 11
80.61076767462598
 21
14.17466752984552
 31
0.0
  0
LINE
  5
164
330
1F
100
AcDbEntity
  8
100
  6
Continuous
 62
     7
370
    30
100
AcDbLine
 10
62.21233017462597
 20
18.33482377984552
 30
0.0
 11
69.30217392462598
 21
16.16685502984552
 31
0.0
  0
LINE
  5
165
330
1F
100
AcDbEntity
  8
100
  6
Continuous
 62
     7
370
    30
100
AcDbLine
 10
57.81206279201422
 20
20.65854946236452
 30
0.0
 11
62.21233017462597
 21
18.33482377984552
 31
0.0
  0
LINE
  5
166
330
1F
100
AcDbEntity
  8
100
  6
Continuous
 62
     7
370
    30
100
AcDbLine
 10
43.31584579962597
 20
31.75279252984552
 30
0.0
 11
43.14229022185707
 21
33.8805586109131
 31
0.0
  0
LINE
  5
167
330
1F
100
AcDbEntity
  8
100
  6
Continuous
 62
     7
370
    30
100
AcDbLine
 10
43.75529892462597
 20
30.58091752984552
 30
0.0
 11
43.31584579962597
 21
31.75279252984552
 31
0.0
  0
LINE
  5
168
330
1F
100
AcDbEntity
  8
100
  6
Continuous
 62
     7
370
    30
100
AcDbLine
 10
44.42912704962597
 20
29.29185502984552
 30
0.0
 11
43.75529892462597
 21
30.58091752984552
 31
0.0
  0
LINE
  5
169
330
1F
100
AcDbEntity
  8
100
  6
Continuous
 62
     7
370
    30
100
AcDbLine
 10
45.74748642462597
 20
27.68052690484552
 30
0.0
 11
44.42912704962597
 21
29.29185502984552
 31
0.0
  0
LINE
  5
16A
330
1F
100
AcDbEntity
  8
100
  6
Continuous
 62
     7
370
    30
100
AcDbLine
 10
48.50139267462597
 20
25.42466752984552
 30
0.0
 11
45.74748642462597
 21
27.68052690484552
 31
0.0
  0
LINE
  5
16B
330
1F
100
AcDbEntity
  8
100
  6
Continuous
 62
     7
370
    30
100
AcDbLine
 10
52.72014267462597
 20
22.90513627984552
 30
0.0
 11
48.50139267462597
 21
25.42466752984552
 31
0.0
  0
LINE
  5
16C
330
1F
100
AcDbEntity
  8
100
  6
Continuous
 62
     7
370
    30
100
AcDbLine
 10
56.82170517462597
 20
20.94224565484552
 30
0.0
 11
52.72014267462597
 21
22.90513627984552
 31
0.0
  0
LINE
  5
16D
330
1F
100
AcDbEntity
  8
100
  6
Continuous
 62
     7
370
    30
100
AcDbLine
 10
62.44670517462597
 20
19.33091752984552
 30
0.0
 11
56.82170517462597
 21
20.94224565484552
 31
0.0
  0
LINE
  5
16E
330
1F
100
AcDbEntity
  8
100
  6
Continuous
 62
     7
370
    30
100
AcDbLine
 10
68.56975204962598
 20
18.18833940484552
 30
0.0
 11
62.44670517462597
 21
19.33091752984552
 31
0.0
  0
LINE
  5
16F
330
1F
100
AcDbEntity
  8
100
  6
Continuous
 62
     7
370
    30
100
AcDbLine
 10
75.01506454962598
 20
17.22154252984552
 30
0.0
 11
68.56975204962598
 21
18.18833940484552
 31
0.0
  0
LINE
  5
170
330
1F
100
AcDbEntity
  8
100
  6
Continuous
 62
     7
370
    30
100
AcDbLine
 10
81.43108017462598
 20
16.66490190484552
 30
0.0
 11
75.01506454962598
 21
17.22154252984552
 31
0.0
  0
LINE
  5
171
330
1F
100
AcDbEntity
  8
100
  6
Continuous
 62
     7
370
    30
100
AcDbLine
 10
90.83537704962598
 20
16.78208940484552
 30
0.0
 11
81.43108017462598
 21
16.66490190484552
 31
0.0
  0
LINE
  5
172
330
1F
100
AcDbEntity
  8
100
  6
Continuous
 62
     7
370
    30
100
AcDbLine
 10
98.62834579962598
 20
17.19224565484552
 30
0.0
 11
90.83537704962598
 21
16.78208940484552
 31
0.0
  0
LINE
  5
173
330
1F
100
AcDbEntity
  8
100
  6
Continuous
 62
     7
370
    30
100
AcDbLine
 10
105.864673924626
 20
18.18833940484552
 30
0.0
 11
98.62834579962598
 21
17.19224565484552
 31
0.0
  0
LINE
  5
174
330
1F
100
AcDbEntity
  8
100
  6
Continuous
 62
     7
370
    30
100
AcDbLine
 10
112.485767674626
 20
19.74107377984552
 30
0.0
 11
105.864673924626
 21
18.18833940484552
 31
0.0
  0
LINE
  5
175
330
1F
100
AcDbEntity
  8
100
  6
Continuous
 62
     7
370
    30
100
AcDbLine
 10
118.140064549626
 20
22.26060502984552
 30
0.0
 11
112.485767674626
 21
19.74107377984552
 31
0.0
  0
LINE
  5
176
330
1F
100
AcDbEntity
  8
100
  6
Continuous
 62
     7
370
    30
100
AcDbLine
 10
122.212330174626
 20
24.36998002984552
 30
0.0
 11
118.140064549626
 21
22.26060502984552
 31
0.0
  0
LINE
  5
177
330
1F
100
AcDbEntity
  8
100
  6
Continuous
 62
     7
370
    30
100
AcDbLine
 10
124.702564549626
 20
26.47935502984552
 30
0.0
 11
122.212330174626
 21
24.36998002984552
 31
0.0
  0
LINE
  5
178
330
1F
100
AcDbEntity
  8
100
  6
Continuous
 62
     7
370
    30
100
AcDbLine
 10
125.903736424626
 20
28.29576127984552
 30
0.0
 11
124.702564549626
 21
26.47935502984552
 31
0.0
  0
LINE
  5
179
330
1F
100
AcDbEntity
  8
100
  6
Continuous
 62
     7
370
    30
100
AcDbLine
 10
126.621509862126
 20
29.83384721734552
 30
0.0
 11
125.903736424626
 21
28.29576127984552
 31
0.0
  0
LINE
  5
17A
330
1F
100
AcDbEntity
  8
100
  6
Continuous
 62
     7
370
    30
100
AcDbLine
 10
126.548267674626
 20
34.15513627984552
 30
0.0
 11
126.621509862126
 21
29.83384721734552
 31
0.0
  0
LINE
  5
17B
330
1F
100
AcDbEntity
  8
100
  6
Continuous
 62
     7
370
    30
100
AcDbLine
 10
120.249439549626
 20
32.49986284234552
 30
0.0
 11
119.722095799626
 21
32.70494096734552
 31
0.0
  0
LINE
  5
17C
330
1F
100
AcDbEntity
  8
100
  6
Continuous
 62
     7
370
    30
100
AcDbLine
 10
121.421314549626
 20
32.35337846734552
 30
0.0
 11
120.249439549626
 21
32.49986284234552
 31
0.0
  0
LINE
  5
17D
330
1F
100
AcDbEntity
  8
100
  6
Continuous
 62
     7
370
    30
100
AcDbLine
 10
122.739673924626
 20
32.17759721734552
 30
0.0
 11
121.421314549626
 21
32.35337846734552
 31
0.0
  0
LINE
  5
17E
330
1F
100
AcDbEntity
  8
100
  6
Continuous
 62
     7
370
    30
100
AcDbLine
 10
123.149830174626
 20
32.79283159234552
 30
0.0
 11
122.739673924626
 21
32.17759721734552
 31
0.0
  0
LINE
  5
17F
330
1F
100
AcDbEntity
  8
100
  6
Continuous
 62
     7
370
    30
100
AcDbLine
 10
122.974048924626
 20
34.78501909234552
 30
0.0
 11
123.149830174626
 21
32.79283159234552
 31
0.0
  0
LINE
  5
180
330
1F
100
AcDbEntity
  8
100
  6
Continuous
 62
     7
370
    30
100
AcDbLine
 10
123.120533299626
 20
39.56040971734552
 30
0.0
 11
122.974048924626
 21
34.78501909234552
 31
0.0
  0
LINE
  5
181
330
1F
100
AcDbEntity
  8
100
  6
Continuous
 62
     7
370
    30
100
AcDbLine
 10
123.413502049626
 20
46.76744096734552
 30
0.0
 11
123.120533299626
 21
39.56040971734552
 31
0.0
  0
LINE
  5
182
330
1F
100
AcDbEntity
  8
100
  6
Continuous
 62
     7
370
    30
100
AcDbLine
 10
123.501392674626
 20
50.48814409234552
 30
0.0
 11
123.413502049626
 21
46.76744096734552
 31
0.0
  0
LINE
  5
183
330
1F
100
AcDbEntity
  8
100
  6
Continuous
 62
     7
370
    30
100
AcDbLine
 10
123.413502049626
 20
52.80259721734552
 30
0.0
 11
123.501392674626
 21
50.48814409234552
 31
0.0
  0
LINE
  5
184
330
1F
100
AcDbEntity
  8
100
  6
Continuous
 62
     7
370
    30
100
AcDbLine
 10
122.944752049626
 20
54.12095659234552
 30
0.0
 11
123.413502049626
 21
52.80259721734552
 31
0.0
  0
LINE
  5
185
330
1F
100
AcDbEntity
  8
100
  6
Continuous
 62
     7
370
    30
100
AcDbLine
 10
120.542408299626
 20
52.65611284234552
 30
0.0
 11
120.2775543838102
 21
52.99177801849652
 31
0.0
  0
LINE
  5
186
330
1F
100
AcDbEntity
  8
100
  6
Continuous
 62
     7
370
    30
100
AcDbLine
 10
120.659595799626
 20
51.51353471734552
 30
0.0
 11
120.542408299626
 21
52.65611284234552
 31
0.0
  0
LINE
  5
187
330
1F
100
AcDbEntity
  8
100
  6
Continuous
 62
     7
370
    30
100
AcDbLine
 10
120.688892674626
 20
49.55064409234552
 30
0.0
 11
120.659595799626
 21
51.51353471734552
 31
0.0
  0
LINE
  5
188
330
1F
100
AcDbEntity
  8
100
  6
Continuous
 62
     7
370
    30
100
AcDbLine
 10
120.366627049626
 20
41.37681596734552
 30
0.0
 11
120.688892674626
 21
49.55064409234552
 31
0.0
  0
LINE
  5
189
330
1F
100
AcDbEntity
  8
100
  6
Continuous
 62
     7
370
    30
100
AcDbLine
 10
120.278736424626
 20
37.04087846734552
 30
0.0
 11
120.366627049626
 21
41.37681596734552
 31
0.0
  0
LINE
  5
18A
330
1F
100
AcDbEntity
  8
100
  6
Continuous
 62
     7
370
    30
100
AcDbLine
 10
119.722095799626
 20
32.70494096734552
 30
0.0
 11
120.278736424626
 21
37.04087846734552
 31
0.0
  0
LINE
  5
18B
330
1F
100
AcDbEntity
  8
100
  6
Continuous
 62
     7
370
    30
100
AcDbLine
 10
120.366627049626
 20
41.37681596734552
 30
0.0
 11
116.875069577408
 21
43.33914529149649
 31
0.0
  0
LINE
  5
18C
330
1F
100
AcDbEntity
  8
100
  6
Continuous
 62
     7
370
    30
100
AcDbLine
 10
123.735767674626
 20
39.03306596734552
 30
0.0
 11
123.120533299626
 21
39.56040971734552
 31
0.0
  0
LINE
  5
18D
330
1F
100
AcDbEntity
  8
100
  6
Continuous
 62
     7
370
    30
100
AcDbLine
 10
124.936939549626
 20
37.80259721734552
 30
0.0
 11
123.735767674626
 21
39.03306596734552
 31
0.0
  0
LINE
  5
18E
330
1F
100
AcDbEntity
  8
100
  6
Continuous
 62
     7
370
    30
100
AcDbLine
 10
125.874439549626
 20
36.51353471734552
 30
0.0
 11
124.936939549626
 21
37.80259721734552
 31
0.0
  0
LINE
  5
18F
330
1F
100
AcDbEntity
  8
100
  6
Continuous
 62
     7
370
    30
100
AcDbLine
 10
126.548267674626
 20
34.78501909234552
 30
0.0
 11
125.874439549626
 21
36.51353471734552
 31
0.0
  0
LINE
  5
190
330
1F
100
AcDbEntity
  8
100
  6
Continuous
 62
     7
370
    30
100
AcDbLine
 10
126.548267674626
 20
33.11509721734552
 30
0.0
 11
126.548267674626
 21
34.78501909234552
 31
0.0
  0
LINE
  5
191
330
1F
100
AcDbEntity
  8
100
  6
Continuous
 62
     7
370
    30
100
AcDbLine
 10
125.874439549626
 20
30.85923784234552
 30
0.0
 11
126.548267674626
 21
33.11509721734552
 31
0.0
  0
LINE
  5
192
330
1F
100
AcDbEntity
  8
100
  6
Continuous
 62
     7
370
    30
100
AcDbLine
 10
124.233814549626
 20
28.80845659234552
 30
0.0
 11
125.874439549626
 21
30.85923784234552
 31
0.0
  0
LINE
  5
193
330
1F
100
AcDbEntity
  8
100
  6
Continuous
 62
     7
370
    30
100
AcDbLine
 10
120.630298924626
 20
26.14244096734552
 30
0.0
 11
124.233814549626
 21
28.80845659234552
 31
0.0
  0
LINE
  5
194
330
1F
100
AcDbEntity
  8
100
  6
Continuous
 62
     7
370
    30
100
AcDbLine
 10
115.268970799626
 20
24.15025346734552
 30
0.0
 11
120.630298924626
 21
26.14244096734552
 31
0.0
  0
LINE
  5
195
330
1F
100
AcDbEntity
  8
100
  6
Continuous
 62
     7
370
    30
100
AcDbLine
 10
108.794361424626
 20
22.18736284234552
 30
0.0
 11
115.268970799626
 21
24.15025346734552
 31
0.0
  0
LINE
  5
196
330
1F
100
AcDbEntity
  8
100
  6
Continuous
 62
     7
370
    30
100
AcDbLine
 10
103.433033299626
 20
21.01548784234552
 30
0.0
 11
108.794361424626
 21
22.18736284234552
 31
0.0
  0
LINE
  5
197
330
1F
100
AcDbEntity
  8
100
  6
Continuous
 62
     7
370
    30
100
AcDbLine
 10
93.29631454962598
 20
20.25376909234552
 30
0.0
 11
103.433033299626
 21
21.01548784234552
 31
0.0
  0
LINE
  5
198
330
1F
100
AcDbEntity
  8
100
  6
Continuous
 62
     7
370
    30
100
AcDbLine
 10
86.52873642462598
 20
20.22447221734552
 30
0.0
 11
93.29631454962598
 21
20.25376909234552
 31
0.0
  0
LINE
  5
199
330
1F
100
AcDbEntity
  8
100
  6
Continuous
 62
     7
370
    30
100
AcDbLine
 10
78.06193954962598
 20
20.54673784234552
 30
0.0
 11
86.52873642462598
 21
20.22447221734552
 31
0.0
  0
LINE
  5
19A
330
1F
100
AcDbEntity
  8
100
  6
Continuous
 62
     7
370
    30
100
AcDbLine
 10
70.85490829962598
 20
21.33775346734552
 30
0.0
 11
78.06193954962598
 21
20.54673784234552
 31
0.0
  0
LINE
  5
19B
330
1F
100
AcDbEntity
  8
100
  6
Continuous
 62
     7
370
    30
100
AcDbLine
 10
63.35490829962597
 20
22.74400346734552
 30
0.0
 11
70.85490829962598
 21
21.33775346734552
 31
0.0
  0
LINE
  5
19C
330
1F
100
AcDbEntity
  8
100
  6
Continuous
 62
     7
370
    30
100
AcDbLine
 10
57.29045517462597
 20
24.47251909234552
 30
0.0
 11
63.35490829962597
 21
22.74400346734552
 31
0.0
  0
LINE
  5
19D
330
1F
100
AcDbEntity
  8
100
  6
Continuous
 62
     7
370
    30
100
AcDbLine
 10
51.84123642462597
 20
26.55259721734552
 30
0.0
 11
57.29045517462597
 21
24.47251909234552
 31
0.0
  0
LINE
  5
19E
330
1F
100
AcDbEntity
  8
100
  6
Continuous
 62
     7
370
    30
100
AcDbLine
 10
47.50529892462597
 20
29.04283159234552
 30
0.0
 11
51.84123642462597
 21
26.55259721734552
 31
0.0
  0
LINE
  5
19F
330
1F
100
AcDbEntity
  8
100
  6
Continuous
 62
     7
370
    30
100
AcDbLine
 10
44.89787704962597
 20
31.26939409234552
 30
0.0
 11
47.50529892462597
 21
29.04283159234552
 31
0.0
  0
LINE
  5
1A0
330
1F
100
AcDbEntity
  8
100
  6
Continuous
 62
     7
370
    30
100
AcDbLine
 10
43.28654892462597
 20
33.17369096734552
 30
0.0
 11
44.89787704962597
 21
31.26939409234552
 31
0.0
  0
LINE
  5
1A1
330
1F
100
AcDbEntity
  8
100
  6
Continuous
 62
     7
370
    30
100
AcDbLine
 10
42.99358017462597
 20
34.60923784234552
 30
0.0
 11
43.28654892462597
 21
33.17369096734552
 31
0.0
  0
LINE
  5
1A2
330
1F
100
AcDbEntity
  8
100
  6
Continuous
 62
     7
370
    30
100
AcDbLine
 10
43.19865829962597
 20
36.27915971734552
 30
0.0
 11
42.99358017462597
 21
34.60923784234552
 31
0.0
  0
LINE
  5
1A3
330
1F
100
AcDbEntity
  8
100
  6
Continuous
 62
     7
370
    30
100
AcDbLine
 10
43.72600204962597
 20
37.65611284234552
 30
0.0
 11
43.19865829962597
 21
36.27915971734552
 31
0.0
  0
LINE
  5
1A4
330
1F
100
AcDbEntity
  8
100
  6
Continuous
 62
     7
370
    30
100
AcDbLine
 10
44.66350204962597
 20
39.35533159234552
 30
0.0
 11
43.72600204962597
 21
37.65611284234552
 31
0.0
  0
LINE
  5
1A5
330
1F
100
AcDbEntity
  8
100
  6
Continuous
 62
     7
370
    30
100
AcDbLine
 10
46.27483017462597
 20
41.17173784234552
 30
0.0
 11
44.66350204962597
 21
39.35533159234552
 31
0.0
  0
LINE
  5
1A6
330
1F
100
AcDbEntity
  8
100
  6
Continuous
 62
     7
370
    30
100
AcDbLine
 10
48.35490829962597
 20
42.57798784234552
 30
0.0
 11
46.27483017462597
 21
41.17173784234552
 31
0.0
  0
LINE
  5
1A7
330
1F
100
AcDbEntity
  8
100
  6
Continuous
 62
     7
370
    30
100
AcDbLine
 10
49.8702215301319
 20
43.28092499796415
 30
0.0
 11
48.35490829962597
 21
42.57798784234552
 31
0.0
  0
LINE
  5
1A8
330
1F
100
AcDbEntity
  8
100
  6
Continuous
 62
     7
370
    30
100
AcDbLine
 10
52.72014267462597
 20
32.96861284234552
 30
0.0
 11
53.54045517462597
 21
31.88462846734552
 31
0.0
  0
LINE
  5
1A9
330
1F
100
AcDbEntity
  8
100
  6
Continuous
 62
     7
370
    30
100
AcDbLine
 10
51.63615829962597
 20
34.78501909234552
 30
0.0
 11
52.72014267462597
 21
32.96861284234552
 31
0.0
  0
LINE
  5
1AA
330
1F
100
AcDbEntity
  8
100
  6
Continuous
 62
     7
370
    30
100
AcDbLine
 10
51.34318954962597
 20
36.42564409234552
 30
0.0
 11
51.63615829962597
 21
34.78501909234552
 31
0.0
  0
LINE
  5
1AB
330
1F
100
AcDbEntity
  8
100
  6
Continuous
 62
     7
370
    30
100
AcDbLine
 10
51.48967392462597
 20
37.65611284234552
 30
0.0
 11
51.34318954962597
 21
36.42564409234552
 31
0.0
  0
LINE
  5
1AC
330
1F
100
AcDbEntity
  8
100
  6
Continuous
 62
     7
370
    30
100
AcDbLine
 10
52.13420517462597
 20
38.88658159234552
 30
0.0
 11
51.48967392462597
 21
37.65611284234552
 31
0.0
  0
LINE
  5
1AD
330
1F
100
AcDbEntity
  8
100
  6
Continuous
 62
     7
370
    30
100
AcDbLine
 10
52.64270227514143
 20
39.76101780368573
 30
0.0
 11
52.13420517462597
 21
38.88658159234552
 31
0.0
  0
LINE
  5
1AE
330
1F
100
AcDbEntity
  8
100
  6
Continuous
 62
     7
370
    30
100
AcDbLine
 10
52.66154892462597
 20
40.17564409234552
 30
0.0
 11
53.15959579962597
 21
41.43540971734552
 31
0.0
  0
LINE
  5
1AF
330
1F
100
AcDbEntity
  8
100
  6
Continuous
 62
     7
370
    30
100
AcDbLine
 10
52.60295517462597
 20
38.88658159234552
 30
0.0
 11
52.66154892462597
 21
40.17564409234552
 31
0.0
  0
LINE
  5
1B0
330
1F
100
AcDbEntity
  8
100
  6
Continuous
 62
     7
370
    30
100
AcDbLine
 10
52.72014267462597
 20
37.33384721734552
 30
0.0
 11
52.60295517462597
 21
38.88658159234552
 31
0.0
  0
LINE
  5
1B1
330
1F
100
AcDbEntity
  8
100
  6
Continuous
 62
     7
370
    30
100
AcDbLine
 10
53.18889267462597
 20
36.27915971734552
 30
0.0
 11
52.72014267462597
 21
37.33384721734552
 31
0.0
  0
LINE
  5
1B2
330
1F
100
AcDbEntity
  8
100
  6
Continuous
 62
     7
370
    30
100
AcDbLine
 10
53.80412704962597
 20
35.22447221734552
 30
0.0
 11
53.18889267462597
 21
36.27915971734552
 31
0.0
  0
LINE
  5
1B3
330
1F
100
AcDbEntity
  8
100
  6
Continuous
 62
     7
370
    30
100
AcDbLine
 10
54.74162704962597
 20
34.11119096734552
 30
0.0
 11
53.80412704962597
 21
35.22447221734552
 31
0.0
  0
LINE
  5
1B4
330
1F
100
AcDbEntity
  8
100
  6
Continuous
 62
     7
370
    30
100
AcDbLine
 10
56.67522079962597
 20
32.73423784234552
 30
0.0
 11
54.74162704962597
 21
34.11119096734552
 31
0.0
  0
LINE
  5
1B5
330
1F
100
AcDbEntity
  8
100
  6
Continuous
 62
     7
370
    30
100
AcDbLine
 10
59.72209579962597
 20
31.09361284234552
 30
0.0
 11
56.67522079962597
 21
32.73423784234552
 31
0.0
  0
LINE
  5
1B6
330
1F
100
AcDbEntity
  8
100
  6
Continuous
 62
     7
370
    30
100
AcDbLine
 10
63.67717392462597
 20
29.54087846734552
 30
0.0
 11
59.72209579962597
 21
31.09361284234552
 31
0.0
  0
LINE
  5
1B7
330
1F
100
AcDbEntity
  8
100
  6
Continuous
 62
     7
370
    30
100
AcDbLine
 10
69.36076767462598
 20
28.13462846734552
 30
0.0
 11
63.67717392462597
 21
29.54087846734552
 31
0.0
  0
LINE
  5
1B8
330
1F
100
AcDbEntity
  8
100
  6
Continuous
 62
     7
370
    30
100
AcDbLine
 10
71.34729731848608
 20
27.72493656729166
 30
0.0
 11
69.36076767462598
 21
28.13462846734552
 31
0.0
  0
LINE
  5
1B9
330
1F
100
AcDbEntity
  8
100
  6
Continuous
 62
     7
370
    30
100
AcDbLine
 10
54.21428329962597
 20
32.03111284234552
 30
0.0
 11
52.72014267462597
 21
33.75962846734552
 31
0.0
  0
LINE
  5
1BA
330
1F
100
AcDbEntity
  8
100
  6
Continuous
 62
     7
370
    30
100
AcDbLine
 10
56.67522079962597
 20
30.47837846734552
 30
0.0
 11
54.21428329962597
 21
32.03111284234552
 31
0.0
  0
LINE
  5
1BB
330
1F
100
AcDbEntity
  8
100
  6
Continuous
 62
     7
370
    30
100
AcDbLine
 10
61.39201767462597
 20
28.66197221734552
 30
0.0
 11
56.67522079962597
 21
30.47837846734552
 31
0.0
  0
LINE
  5
1BC
330
1F
100
AcDbEntity
  8
100
  6
Continuous
 62
     7
370
    30
100
AcDbLine
 10
65.61076767462598
 20
27.31431596734552
 30
0.0
 11
61.39201767462597
 21
28.66197221734552
 31
0.0
  0
LINE
  5
1BD
330
1F
100
AcDbEntity
  8
100
  6
Continuous
 62
     7
370
    30
100
AcDbLine
 10
71.32011517575413
 20
26.01811433715599
 30
0.0
 11
65.61076767462598
 21
27.31431596734552
 31
0.0
  0
LINE
  5
1BE
330
1F
100
AcDbEntity
  8
100
  6
Continuous
 62
     7
370
    30
100
AcDbLine
 10
78.82365829962598
 20
24.99986284234552
 30
0.0
 11
74.47064131635167
 21
25.46882228334654
 31
0.0
  0
LINE
  5
1BF
330
1F
100
AcDbEntity
  8
100
  6
Continuous
 62
     7
370
    30
100
AcDbLine
 10
84.97600204962598
 20
24.70689409234552
 30
0.0
 11
78.82365829962598
 21
24.99986284234552
 31
0.0
  0
LINE
  5
1C0
330
1F
100
AcDbEntity
  8
100
  6
Continuous
 62
     7
370
    30
100
AcDbLine
 10
92.44670517462598
 20
25.05845659234552
 30
0.0
 11
84.97600204962598
 21
24.70689409234552
 31
0.0
  0
LINE
  5
1C1
330
1F
100
AcDbEntity
  8
100
  6
Continuous
 62
     7
370
    30
100
AcDbLine
 10
98.10100204962598
 20
25.70298784234552
 30
0.0
 11
92.44670517462598
 21
25.05845659234552
 31
0.0
  0
LINE
  5
1C2
330
1F
100
AcDbEntity
  8
100
  6
Continuous
 62
     7
370
    30
100
AcDbLine
 10
104.194752049626
 20
26.66978471734552
 30
0.0
 11
98.10100204962598
 21
25.70298784234552
 31
0.0
  0
LINE
  5
1C3
330
1F
100
AcDbEntity
  8
100
  6
Continuous
 62
     7
370
    30
100
AcDbLine
 10
107.681080174626
 20
27.57798784234552
 30
0.0
 11
104.194752049626
 21
26.66978471734552
 31
0.0
  0
LINE
  5
1C4
330
1F
100
AcDbEntity
  8
100
  6
Continuous
 62
     7
370
    30
100
AcDbLine
 10
111.518970799626
 20
29.16001909234552
 30
0.0
 11
107.681080174626
 21
27.57798784234552
 31
0.0
  0
LINE
  5
1C5
330
1F
100
AcDbEntity
  8
100
  6
Continuous
 62
     7
370
    30
100
AcDbLine
 10
114.302173924626
 20
30.68345659234552
 30
0.0
 11
111.518970799626
 21
29.16001909234552
 31
0.0
  0
LINE
  5
1C6
330
1F
100
AcDbEntity
  8
100
  6
Continuous
 62
     7
370
    30
100
AcDbLine
 10
116.265064549626
 20
32.49986284234552
 30
0.0
 11
114.302173924626
 21
30.68345659234552
 31
0.0
  0
LINE
  5
1C7
330
1F
100
AcDbEntity
  8
100
  6
Continuous
 62
     7
370
    30
100
AcDbLine
 10
98.59904892462598
 20
25.08775346734552
 30
0.0
 11
97.42717392462598
 21
24.91197221734552
 31
0.0
  0
LINE
  5
1C8
330
1F
100
AcDbEntity
  8
100
  6
Continuous
 62
     7
370
    30
100
AcDbLine
 10
104.194752049626
 20
25.76158159234552
 30
0.0
 11
98.59904892462598
 21
25.08775346734552
 31
0.0
  0
LINE
  5
1C9
330
1F
100
AcDbEntity
  8
100
  6
Continuous
 62
     7
370
    30
100
AcDbLine
 10
109.380298924626
 20
27.05064409234552
 30
0.0
 11
104.194752049626
 21
25.76158159234552
 31
0.0
  0
LINE
  5
1CA
330
1F
100
AcDbEntity
  8
100
  6
Continuous
 62
     7
370
    30
100
AcDbLine
 10
112.866627049626
 20
28.48619096734552
 30
0.0
 11
109.380298924626
 21
27.05064409234552
 31
0.0
  0
LINE
  5
1CB
330
1F
100
AcDbEntity
  8
100
  6
Continuous
 62
     7
370
    30
100
AcDbLine
 10
116.851002049626
 20
31.32798784234552
 30
0.0
 11
112.866627049626
 21
28.48619096734552
 31
0.0
  0
LINE
  5
1CC
330
1F
100
AcDbEntity
  8
100
  6
Continuous
 62
     7
370
    30
100
AcDbLine
 10
117.905689549626
 20
32.99790971734552
 30
0.0
 11
116.851002049626
 21
31.32798784234552
 31
0.0
  0
LINE
  5
1CD
330
1F
100
AcDbEntity
  8
100
  6
Continuous
 62
     7
370
    30
100
AcDbLine
 10
118.286548924626
 20
34.84361284234552
 30
0.0
 11
117.905689549626
 21
32.99790971734552
 31
0.0
  0
LINE
  5
1CE
330
1F
100
AcDbEntity
  8
100
  6
Continuous
 62
     7
370
    30
100
AcDbLine
 10
118.052173924626
 20
36.80650346734552
 30
0.0
 11
118.286548924626
 21
34.84361284234552
 31
0.0
  0
LINE
  5
1CF
330
1F
100
AcDbEntity
  8
100
  6
Continuous
 62
     7
370
    30
100
AcDbLine
 10
117.495533299626
 20
37.77330034234552
 30
0.0
 11
118.052173924626
 21
36.80650346734552
 31
0.0
  0
LINE
  5
1D0
330
1F
100
AcDbEntity
  8
100
  6
Continuous
 62
     7
370
    30
100
AcDbLine
 10
116.6792726134506
 20
38.66125788726612
 30
0.0
 11
117.495533299626
 21
37.77330034234552
 31
0.0
  0
LINE
  5
1D1
330
1F
100
AcDbEntity
  8
100
  6
Continuous
 62
     7
370
    30
100
AcDbLine
 10
116.909595799626
 20
37.04087846734552
 30
0.0
 11
116.5564777133428
 21
39.52514976159331
 31
0.0
  0
LINE
  5
1D2
330
1F
100
AcDbEntity
  8
100
  6
Continuous
 62
     7
370
    30
100
AcDbLine
 10
116.880298924626
 20
36.07408159234552
 30
0.0
 11
116.909595799626
 21
37.04087846734552
 31
0.0
  0
LINE
  5
1D3
330
1F
100
AcDbEntity
  8
100
  6
Continuous
 62
     7
370
    30
100
AcDbLine
 10
115.913502049626
 20
34.14048784234552
 30
0.0
 11
116.880298924626
 21
36.07408159234552
 31
0.0
  0
LINE
  5
1D4
330
1F
100
AcDbEntity
  8
100
  6
Continuous
 62
     7
370
    30
100
AcDbLine
 10
113.774830174626
 20
32.08970659234552
 30
0.0
 11
115.913502049626
 21
34.14048784234552
 31
0.0
  0
LINE
  5
1D5
330
1F
100
AcDbEntity
  8
100
  6
Continuous
 62
     7
370
    30
100
AcDbLine
 10
109.263111424626
 20
29.71665971734552
 30
0.0
 11
113.774830174626
 21
32.08970659234552
 31
0.0
  0
LINE
  5
1D6
330
1F
100
AcDbEntity
  8
100
  6
Continuous
 62
     7
370
    30
100
AcDbLine
 10
103.813892674626
 20
28.13462846734552
 30
0.0
 11
109.263111424626
 21
29.71665971734552
 31
0.0
  0
LINE
  5
1D7
330
1F
100
AcDbEntity
  8
100
  6
Continuous
 62
     7
370
    30
100
AcDbLine
 10
96.89983017462598
 20
27.07994096734552
 30
0.0
 11
103.813892674626
 21
28.13462846734552
 31
0.0
  0
LINE
  5
1D8
330
1F
100
AcDbEntity
  8
100
  6
Continuous
 62
     7
370
    30
100
AcDbLine
 10
90.39592392462598
 20
26.40611284234552
 30
0.0
 11
96.89983017462598
 21
27.07994096734552
 31
0.0
  0
LINE
  5
1D9
330
1F
100
AcDbEntity
  8
100
  6
Continuous
 62
     7
370
    30
100
AcDbLine
 10
83.86272079962598
 20
26.43540971734552
 30
0.0
 11
90.39592392462598
 21
26.40611284234552
 31
0.0
  0
LINE
  5
1DA
330
1F
100
AcDbEntity
  8
100
  6
Continuous
 62
     7
370
    30
100
AcDbLine
 10
77.76897079962598
 20
26.84556596734552
 30
0.0
 11
83.86272079962598
 21
26.43540971734552
 31
0.0
  0
LINE
  5
1DB
330
1F
100
AcDbEntity
  8
100
  6
Continuous
 62
     7
370
    30
100
AcDbLine
 10
74.44154623153986
 20
27.16603556403547
 30
0.0
 11
77.76897079962598
 21
26.84556596734552
 31
0.0
  0
LINE
  5
1DC
330
1F
100
AcDbEntity
  8
100
  6
Continuous
 62
     7
370
    30
100
AcDbLine
 10
75.51311142462598
 20
29.65806596734552
 30
0.0
 11
74.40554307062831
 21
29.83512917744244
 31
0.0
  0
LINE
  5
1DD
330
1F
100
AcDbEntity
  8
100
  6
Continuous
 62
     7
370
    30
100
AcDbLine
 10
79.58537704962598
 20
29.18931596734552
 30
0.0
 11
75.51311142462598
 21
29.65806596734552
 31
0.0
  0
LINE
  5
1DE
330
1F
100
AcDbEntity
  8
100
  6
Continuous
 62
     7
370
    30
100
AcDbLine
 10
85.26897079962598
 20
29.10142534234552
 30
0.0
 11
79.58537704962598
 21
29.18931596734552
 31
0.0
  0
LINE
  5
1DF
330
1F
100
AcDbEntity
  8
100
  6
Continuous
 62
     7
370
    30
100
AcDbLine
 10
88.90178329962598
 20
29.18931596734552
 30
0.0
 11
85.26897079962598
 21
29.10142534234552
 31
0.0
  0
LINE
  5
1E0
330
1F
100
AcDbEntity
  8
100
  6
Continuous
 62
     7
370
    30
100
AcDbLine
 10
96.07951767462598
 20
29.57017534234552
 30
0.0
 11
88.90178329962598
 21
29.18931596734552
 31
0.0
  0
LINE
  5
1E1
330
1F
100
AcDbEntity
  8
100
  6
Continuous
 62
     7
370
    30
100
AcDbLine
 10
101.118580174626
 20
30.39048784234552
 30
0.0
 11
96.07951767462598
 21
29.57017534234552
 31
0.0
  0
LINE
  5
1E2
330
1F
100
AcDbEntity
  8
100
  6
Continuous
 62
     7
370
    30
100
AcDbLine
 10
104.546314549626
 20
31.38658159234552
 30
0.0
 11
101.118580174626
 21
30.39048784234552
 31
0.0
  0
LINE
  5
1E3
330
1F
100
AcDbEntity
  8
100
  6
Continuous
 62
     7
370
    30
100
AcDbLine
 10
107.549244237126
 20
32.10435502984552
 30
0.0
 11
104.546314549626
 21
31.38658159234552
 31
0.0
  0
LINE
  5
1E4
330
1F
100
AcDbEntity
  8
100
  6
Continuous
 62
     7
370
    30
100
AcDbLine
 10
110.024830174626
 20
33.10044877984552
 30
0.0
 11
107.549244237126
 21
32.10435502984552
 31
0.0
  0
LINE
  5
1E5
330
1F
100
AcDbEntity
  8
100
  6
Continuous
 62
     7
370
    30
100
AcDbLine
 10
112.280689549626
 20
34.34556596734552
 30
0.0
 11
110.024830174626
 21
33.10044877984552
 31
0.0
  0
LINE
  5
1E6
330
1F
100
AcDbEntity
  8
100
  6
Continuous
 62
     7
370
    30
100
AcDbLine
 10
114.331470799626
 20
36.04478471734552
 30
0.0
 11
112.280689549626
 21
34.34556596734552
 31
0.0
  0
LINE
  5
1E7
330
1F
100
AcDbEntity
  8
100
  6
Continuous
 62
     7
370
    30
100
AcDbLine
 10
116.382252049626
 20
39.32603471734552
 30
0.0
 11
114.331470799626
 21
36.04478471734552
 31
0.0
  0
LINE
  5
1E8
330
1F
100
AcDbEntity
  8
100
  6
Continuous
 62
     7
370
    30
100
AcDbLine
 10
116.792408299626
 20
39.79478471734552
 30
0.0
 11
116.382252049626
 21
39.32603471734552
 31
0.0
  0
LINE
  5
1E9
330
1F
100
AcDbEntity
  8
100
  6
Continuous
 62
     7
370
    30
100
AcDbLine
 10
117.0685028544197
 20
51.63320145860857
 30
0.0
 11
116.792408299626
 21
39.79478471734552
 31
0.0
  0
LINE
  5
1EA
330
1F
100
AcDbEntity
  8
100
  6
Continuous
 62
     7
370
    30
100
AcDbLine
 10
75.16154892462598
 20
47.70494096734552
 30
0.0
 11
75.27960195450511
 21
48.7983674864816
 31
0.0
  0
LINE
  5
1EB
330
1F
100
AcDbEntity
  8
100
  6
Continuous
 62
     7
370
    30
100
AcDbLine
 10
74.95647079962598
 20
46.18150346734552
 30
0.0
 11
75.16154892462598
 21
47.70494096734552
 31
0.0
  0
LINE
  5
1EC
330
1F
100
AcDbEntity
  8
100
  6
Continuous
 62
     7
370
    30
100
AcDbLine
 10
74.83928329962598
 20
43.63267534234552
 30
0.0
 11
74.95647079962598
 21
46.18150346734552
 31
0.0
  0
LINE
  5
1ED
330
1F
100
AcDbEntity
  8
100
  6
Continuous
 62
     7
370
    30
100
AcDbLine
 10
74.66350204962598
 20
38.88658159234552
 30
0.0
 11
74.83928329962598
 21
43.63267534234552
 31
0.0
  0
LINE
  5
1EE
330
1F
100
AcDbEntity
  8
100
  6
Continuous
 62
     7
370
    30
100
AcDbLine
 10
74.51701767462598
 20
34.43345659234552
 30
0.0
 11
74.66350204962598
 21
38.88658159234552
 31
0.0
  0
LINE
  5
1EF
330
1F
100
AcDbEntity
  8
100
  6
Continuous
 62
     7
370
    30
100
AcDbLine
 10
74.39983017462598
 20
29.59947221734552
 30
0.0
 11
74.51701767462598
 21
34.43345659234552
 31
0.0
  0
LINE
  5
1F0
330
1F
100
AcDbEntity
  8
100
  6
Continuous
 62
     7
370
    30
100
AcDbLine
 10
74.48772079962598
 20
24.47251909234552
 30
0.0
 11
74.39983017462598
 21
29.59947221734552
 31
0.0
  0
LINE
  5
1F1
330
1F
100
AcDbEntity
  8
100
  6
Continuous
 62
     7
370
    30
100
AcDbLine
 10
74.34123642462598
 20
23.27134721734552
 30
0.0
 11
74.48772079962598
 21
24.47251909234552
 31
0.0
  0
LINE
  5
1F2
330
1F
100
AcDbEntity
  8
100
  6
Continuous
 62
     7
370
    30
100
AcDbLine
 10
74.80998642462598
 20
23.68150346734552
 30
0.0
 11
74.48772079962598
 21
24.47251909234552
 31
0.0
  0
LINE
  5
1F3
330
1F
100
AcDbEntity
  8
100
  6
Continuous
 62
     7
370
    30
100
AcDbLine
 10
74.34123642462598
 20
23.27134721734552
 30
0.0
 11
74.80998642462598
 21
23.68150346734552
 31
0.0
  0
LINE
  5
1F4
330
1F
100
AcDbEntity
  8
100
  6
Continuous
 62
     7
370
    30
100
AcDbLine
 10
73.52092392462598
 20
22.97837846734552
 30
0.0
 11
74.34123642462598
 21
23.27134721734552
 31
0.0
  0
LINE
  5
1F5
330
1F
100
AcDbEntity
  8
100
  6
Continuous
 62
     7
370
    30
100
AcDbLine
 10
72.37834579962598
 20
23.00767534234552
 30
0.0
 11
73.52092392462598
 21
22.97837846734552
 31
0.0
  0
LINE
  5
1F6
330
1F
100
AcDbEntity
  8
100
  6
Continuous
 62
     7
370
    30
100
AcDbLine
 10
71.61662704962598
 20
23.12486284234552
 30
0.0
 11
72.37834579962598
 21
23.00767534234552
 31
0.0
  0
LINE
  5
1F7
330
1F
100
AcDbEntity
  8
100
  6
Continuous
 62
     7
370
    30
100
AcDbLine
 10
71.08928329962598
 20
23.76939409234552
 30
0.0
 11
71.61662704962598
 21
23.12486284234552
 31
0.0
  0
LINE
  5
1F8
330
1F
100
AcDbEntity
  8
100
  6
Continuous
 62
     7
370
    30
100
AcDbLine
 10
71.26506454962598
 20
24.23814409234552
 30
0.0
 11
71.08928329962598
 21
23.76939409234552
 31
0.0
  0
LINE
  5
1F9
330
1F
100
AcDbEntity
  8
100
  6
Continuous
 62
     7
370
    30
100
AcDbLine
 10
71.35295517462598
 20
27.07994096734552
 30
0.0
 11
71.26506454962598
 21
24.23814409234552
 31
0.0
  0
LINE
  5
1FA
330
1F
100
AcDbEntity
  8
100
  6
Continuous
 62
     7
370
    30
100
AcDbLine
 10
71.32365829962598
 20
30.41978471734552
 30
0.0
 11
71.35295517462598
 21
27.07994096734552
 31
0.0
  0
LINE
  5
1FB
330
1F
100
AcDbEntity
  8
100
  6
Continuous
 62
     7
370
    30
100
AcDbLine
 10
71.41154892462598
 20
34.25767534234552
 30
0.0
 11
71.32365829962598
 21
30.41978471734552
 31
0.0
  0
LINE
  5
1FC
330
1F
100
AcDbEntity
  8
100
  6
Continuous
 62
     7
370
    30
100
AcDbLine
 10
71.52873642462598
 20
39.06236284234552
 30
0.0
 11
71.41154892462598
 21
34.25767534234552
 31
0.0
  0
LINE
  5
1FD
330
1F
100
AcDbEntity
  8
100
  6
Continuous
 62
     7
370
    30
100
AcDbLine
 10
71.61662704962598
 20
43.33970659234552
 30
0.0
 11
71.52873642462598
 21
39.06236284234552
 31
0.0
  0
LINE
  5
1FE
330
1F
100
AcDbEntity
  8
100
  6
Continuous
 62
     7
370
    30
100
AcDbLine
 10
71.82170517462598
 20
46.26939409234552
 30
0.0
 11
71.61662704962598
 21
43.33970659234552
 31
0.0
  0
LINE
  5
1FF
330
1F
100
AcDbEntity
  8
100
  6
Continuous
 62
     7
370
    30
100
AcDbLine
 10
72.03077805291431
 20
49.09617634412743
 30
0.0
 11
71.82170517462598
 21
46.26939409234552
 31
0.0
  0
LINE
  5
200
330
1F
100
AcDbEntity
  8
100
  6
Continuous
 62
     7
370
    30
100
AcDbLine
 10
67.57365829962598
 20
31.21080034234552
 30
0.0
 11
71.32365829962598
 21
30.41978471734552
 31
0.0
  0
LINE
  5
201
330
1F
100
AcDbEntity
  8
100
  6
Continuous
 62
     7
370
    30
100
AcDbLine
 10
64.61467392462598
 20
31.94322221734552
 30
0.0
 11
67.57365829962598
 21
31.21080034234552
 31
0.0
  0
LINE
  5
202
330
1F
100
AcDbEntity
  8
100
  6
Continuous
 62
     7
370
    30
100
AcDbLine
 10
61.42131454962597
 20
33.26158159234552
 30
0.0
 11
64.61467392462598
 21
31.94322221734552
 31
0.0
  0
LINE
  5
203
330
1F
100
AcDbEntity
  8
100
  6
Continuous
 62
     7
370
    30
100
AcDbLine
 10
58.98967392462597
 20
34.34556596734552
 30
0.0
 11
61.42131454962597
 21
33.26158159234552
 31
0.0
  0
LINE
  5
204
330
1F
100
AcDbEntity
  8
100
  6
Continuous
 62
     7
370
    30
100
AcDbLine
 10
56.64592392462597
 20
35.75181596734552
 30
0.0
 11
58.98967392462597
 21
34.34556596734552
 31
0.0
  0
LINE
  5
205
330
1F
100
AcDbEntity
  8
100
  6
Continuous
 62
     7
370
    30
100
AcDbLine
 10
55.12248642462597
 20
37.21665971734552
 30
0.0
 11
56.64592392462597
 21
35.75181596734552
 31
0.0
  0
LINE
  5
206
330
1F
100
AcDbEntity
  8
100
  6
Continuous
 62
     7
370
    30
100
AcDbLine
 10
53.74553329962597
 20
39.56040971734552
 30
0.0
 11
55.12248642462597
 21
37.21665971734552
 31
0.0
  0
LINE
  5
207
330
1F
100
AcDbEntity
  8
100
  6
Continuous
 62
     7
370
    30
100
AcDbLine
 10
53.15959579962597
 20
41.43540971734552
 30
0.0
 11
53.74553329962597
 21
39.56040971734552
 31
0.0
  0
LINE
  5
208
330
1F
100
AcDbEntity
  8
100
  6
Continuous
 62
     7
370
    30
100
AcDbLine
 10
53.02899136236749
 20
52.94194669002692
 30
0.0
 11
53.15959579962597
 21
41.43540971734552
 31
0.0
  0
LINE
  5
209
330
1F
100
AcDbEntity
  8
100
  6
Continuous
 62
     7
370
    30
100
AcDbLine
 10
52.30998642462597
 20
48.11509721734552
 30
0.0
 11
52.36782542473331
 21
53.19070219131504
 31
0.0
  0
LINE
  5
20A
330
1F
100
AcDbEntity
  8
100
  6
Continuous
 62
     7
370
    30
100
AcDbLine
 10
52.51506454962597
 20
44.92173784234552
 30
0.0
 11
52.30998642462597
 21
48.11509721734552
 31
0.0
  0
LINE
  5
20B
330
1F
100
AcDbEntity
  8
100
  6
Continuous
 62
     7
370
    30
100
AcDbLine
 10
52.51506454962597
 20
43.25181596734552
 30
0.0
 11
52.51506454962597
 21
44.92173784234552
 31
0.0
  0
LINE
  5
20C
330
1F
100
AcDbEntity
  8
100
  6
Continuous
 62
     7
370
    30
100
AcDbLine
 10
52.89592392462597
 20
41.46470659234552
 30
0.0
 11
52.51506454962597
 21
43.25181596734552
 31
0.0
  0
LINE
  5
20D
330
1F
100
AcDbEntity
  8
100
  6
Continuous
 62
     7
370
    30
100
AcDbLine
 10
51.98772079962597
 20
40.76158159234552
 30
0.0
 11
52.89592392462597
 21
41.46470659234552
 31
0.0
  0
LINE
  5
20E
330
1F
100
AcDbEntity
  8
100
  6
Continuous
 62
     7
370
    30
100
AcDbLine
 10
49.84904892462597
 20
41.31822221734552
 30
0.0
 11
51.98772079962597
 21
40.76158159234552
 31
0.0
  0
LINE
  5
20F
330
1F
100
AcDbEntity
  8
100
  6
Continuous
 62
     7
370
    30
100
AcDbLine
 10
49.87834579962597
 20
42.92955034234552
 30
0.0
 11
49.84904892462597
 21
41.31822221734552
 31
0.0
  0
LINE
  5
210
330
1F
100
AcDbEntity
  8
100
  6
Continuous
 62
     7
370
    30
100
AcDbLine
 10
49.76115829962597
 20
47.99790971734552
 30
0.0
 11
49.87834579962597
 21
42.92955034234552
 31
0.0
  0
LINE
  5
211
330
1F
100
AcDbEntity
  8
100
  6
Continuous
 62
     7
370
    30
100
AcDbLine
 10
49.6301613924233
 20
54.22071440149108
 30
0.0
 11
49.76115829962597
 21
47.99790971734552
 31
0.0
  0
LINE
  5
212
330
1F
100
AcDbEntity
  8
100
  6
Continuous
 62
     7
370
    30
100
AcDbLine
 10
124.702564549626
 20
61.85533159234552
 30
0.0
 11
123.671314549626
 21
62.98033159234552
 31
0.0
  0
LINE
  5
213
330
1F
100
AcDbEntity
  8
100
  6
Continuous
 62
     7
370
    30
100
AcDbLine
 10
125.640064549626
 20
60.39048784234552
 30
0.0
 11
124.702564549626
 21
61.85533159234552
 31
0.0
  0
LINE
  5
214
330
1F
100
AcDbEntity
  8
100
  6
Continuous
 62
     7
370
    30
100
AcDbLine
 10
125.815845799626
 20
57.69517534234552
 30
0.0
 11
125.640064549626
 21
60.39048784234552
 31
0.0
  0
LINE
  5
215
330
1F
100
AcDbEntity
  8
100
  6
Continuous
 62
     7
370
    30
100
AcDbLine
 10
125.054127049626
 20
55.93736284234552
 30
0.0
 11
125.815845799626
 21
57.69517534234552
 31
0.0
  0
LINE
  5
216
330
1F
100
AcDbEntity
  8
100
  6
Continuous
 62
     7
370
    30
100
AcDbLine
 10
122.944752049626
 20
54.12095659234552
 30
0.0
 11
125.054127049626
 21
55.93736284234552
 31
0.0
  0
LINE
  5
217
330
1F
100
AcDbEntity
  8
100
  6
Continuous
 62
     7
370
    30
100
AcDbLine
 10
114.917408299626
 20
50.72251909234552
 30
0.0
 11
122.944752049626
 21
54.12095659234552
 31
0.0
  0
LINE
  5
218
330
1F
100
AcDbEntity
  8
100
  6
Continuous
 62
     7
370
    30
100
AcDbLine
 10
102.554127049626
 20
48.61314409234552
 30
0.0
 11
114.917408299626
 21
50.72251909234552
 31
0.0
  0
LINE
  5
219
330
1F
100
AcDbEntity
  8
100
  6
Continuous
 62
     7
370
    30
100
AcDbLine
 10
90.65959579962598
 20
48.08580034234552
 30
0.0
 11
102.554127049626
 21
48.61314409234552
 31
0.0
  0
LINE
  5
21A
330
1F
100
AcDbEntity
  8
100
  6
Continuous
 62
     7
370
    30
100
AcDbLine
 10
77.30022079962598
 20
48.61314409234552
 30
0.0
 11
90.65959579962598
 21
48.08580034234552
 31
0.0
  0
LINE
  5
21B
330
1F
100
AcDbEntity
  8
100
  6
Continuous
 62
     7
370
    30
100
AcDbLine
 10
70.26897079962598
 20
49.25767534234552
 30
0.0
 11
77.30022079962598
 21
48.61314409234552
 31
0.0
  0
LINE
  5
21C
330
1F
100
AcDbEntity
  8
100
  6
Continuous
 62
     7
370
    30
100
AcDbLine
 10
60.19084579962597
 20
50.83970659234552
 30
0.0
 11
70.26897079962598
 21
49.25767534234552
 31
0.0
  0
LINE
  5
21D
330
1F
100
AcDbEntity
  8
100
  6
Continuous
 62
     7
370
    30
100
AcDbLine
 10
55.03459579962597
 20
52.18736284234552
 30
0.0
 11
60.19084579962597
 21
50.83970659234552
 31
0.0
  0
LINE
  5
21E
330
1F
100
AcDbEntity
  8
100
  6
Continuous
 62
     7
370
    30
100
AcDbLine
 10
49.11662704962597
 20
54.41392534234552
 30
0.0
 11
55.03459579962597
 21
52.18736284234552
 31
0.0
  0
LINE
  5
21F
330
1F
100
AcDbEntity
  8
100
  6
Continuous
 62
     7
370
    30
100
AcDbLine
 10
47.00725204962597
 20
55.99595659234552
 30
0.0
 11
49.11662704962597
 21
54.41392534234552
 31
0.0
  0
LINE
  5
220
330
1F
100
AcDbEntity
  8
100
  6
Continuous
 62
     7
370
    30
100
AcDbLine
 10
45.01506454962597
 20
58.57408159234552
 30
0.0
 11
47.00725204962597
 21
55.99595659234552
 31
0.0
  0
LINE
  5
221
330
1F
100
AcDbEntity
  8
100
  6
Continuous
 62
     7
370
    30
100
AcDbLine
 10
44.72209579962597
 20
61.15220659234552
 30
0.0
 11
45.01506454962597
 21
58.57408159234552
 31
0.0
  0
LINE
  5
222
330
1F
100
AcDbEntity
  8
100
  6
Continuous
 62
     7
370
    30
100
AcDbLine
 10
45.07365829962597
 20
62.79283159234552
 30
0.0
 11
44.72209579962597
 21
61.15220659234552
 31
0.0
  0
LINE
  5
223
330
1F
100
AcDbEntity
  8
100
  6
Continuous
 62
     7
370
    30
100
AcDbLine
 10
46.71428329962597
 20
64.78501909234552
 30
0.0
 11
45.07365829962597
 21
62.79283159234552
 31
0.0
  0
LINE
  5
224
330
1F
100
AcDbEntity
  8
100
  6
Continuous
 62
     7
370
    30
100
AcDbLine
 10
50.61076767462597
 20
66.98228471734552
 30
0.0
 11
46.71428329962597
 21
64.78501909234552
 31
0.0
  0
LINE
  5
225
330
1F
100
AcDbEntity
  8
100
  6
Continuous
 62
     7
370
    30
100
AcDbLine
 10
76.12834579962598
 20
86.23033159234552
 30
0.0
 11
76.37731428017622
 21
88.32970635580565
 31
0.0
  0
LINE
  5
226
330
1F
100
AcDbEntity
  8
100
  6
Continuous
 62
     7
370
    30
100
AcDbLine
 10
75.77678329962598
 20
81.71861284234552
 30
0.0
 11
76.12834579962598
 21
86.23033159234552
 31
0.0
  0
LINE
  5
227
330
1F
100
AcDbEntity
  8
100
  6
Continuous
 62
     7
370
    30
100
AcDbLine
 10
75.42522079962598
 20
71.40611284234552
 30
0.0
 11
75.77678329962598
 21
81.71861284234552
 31
0.0
  0
LINE
  5
228
330
1F
100
AcDbEntity
  8
100
  6
Continuous
 62
     7
370
    30
100
AcDbLine
 10
75.19084579962598
 20
57.40220659234552
 30
0.0
 11
75.42522079962598
 21
71.40611284234552
 31
0.0
  0
LINE
  5
229
330
1F
100
AcDbEntity
  8
100
  6
Continuous
 62
     7
370
    30
100
AcDbLine
 10
75.19084579962598
 20
52.89048784234552
 30
0.0
 11
75.19084579962598
 21
57.40220659234552
 31
0.0
  0
LINE
  5
22A
330
1F
100
AcDbEntity
  8
100
  6
Continuous
 62
     7
370
    30
100
AcDbLine
 10
71.90959579962598
 20
57.28501909234552
 30
0.0
 11
72.14397079962598
 21
53.27134721734552
 31
0.0
  0
LINE
  5
22B
330
1F
100
AcDbEntity
  8
100
  6
Continuous
 62
     7
370
    30
100
AcDbLine
 10
71.90959579962598
 20
59.04283159234552
 30
0.0
 11
71.90959579962598
 21
57.28501909234552
 31
0.0
  0
LINE
  5
22C
330
1F
100
AcDbEntity
  8
100
  6
Continuous
 62
     7
370
    30
100
AcDbLine
 10
71.96818954962598
 20
70.17564409234552
 30
0.0
 11
71.90959579962598
 21
59.04283159234552
 31
0.0
  0
LINE
  5
22D
330
1F
100
AcDbEntity
  8
100
  6
Continuous
 62
     7
370
    30
100
AcDbLine
 10
72.31975204962598
 20
80.48814409234552
 30
0.0
 11
71.96818954962598
 21
70.17564409234552
 31
0.0
  0
LINE
  5
22E
330
1F
100
AcDbEntity
  8
100
  6
Continuous
 62
     7
370
    30
100
AcDbLine
 10
72.43693954962598
 20
85.17564409234552
 30
0.0
 11
72.31975204962598
 21
80.48814409234552
 31
0.0
  0
LINE
  5
22F
330
1F
100
AcDbEntity
  8
100
  6
Continuous
 62
     7
370
    30
100
AcDbLine
 10
73.01845034041983
 20
88.53931202090703
 30
0.0
 11
72.43693954962598
 21
85.17564409234552
 31
0.0
  0
LINE
  5
230
330
1F
100
AcDbEntity
  8
100
  6
Continuous
 62
     7
370
    30
100
AcDbLine
 10
52.78990872659372
 20
61.15263493657939
 30
0.0
 11
52.10711604505522
 21
57.71738321197986
 31
0.0
  0
LINE
  5
231
330
1F
100
AcDbEntity
  8
100
  6
Continuous
 62
     7
370
    30
100
AcDbLine
 10
52.72014267462597
 20
67.74400346734552
 30
0.0
 11
52.8293562080123
 21
57.42570930001642
 31
0.0
  0
LINE
  5
232
330
1F
100
AcDbEntity
  8
100
  6
Continuous
 62
     7
370
    30
100
AcDbLine
 10
52.63225204962597
 20
80.95689409234552
 30
0.0
 11
52.48766516463206
 21
90.52117462838885
 31
0.0
  0
LINE
  5
233
330
1F
100
AcDbEntity
  8
100
  6
Continuous
 62
     7
370
    30
100
AcDbLine
 10
52.72014267462597
 20
67.74400346734552
 30
0.0
 11
52.63225204962597
 21
80.95689409234552
 31
0.0
  0
LINE
  5
234
330
1F
100
AcDbEntity
  8
100
  6
Continuous
 62
     7
370
    30
100
AcDbLine
 10
52.30998642462597
 20
68.76939409234552
 30
0.0
 11
52.72014267462597
 21
67.74400346734552
 31
0.0
  0
LINE
  5
235
330
1F
100
AcDbEntity
  8
100
  6
Continuous
 62
     7
370
    30
100
AcDbLine
 10
51.98772079962597
 20
70.90806596734552
 30
0.0
 11
52.30998642462597
 21
68.76939409234552
 31
0.0
  0
LINE
  5
236
330
1F
100
AcDbEntity
  8
100
  6
Continuous
 62
     7
370
    30
100
AcDbLine
 10
51.69475204962597
 20
77.93931596734552
 30
0.0
 11
51.98772079962597
 21
70.90806596734552
 31
0.0
  0
LINE
  5
237
330
1F
100
AcDbEntity
  8
100
  6
Continuous
 62
     7
370
    30
100
AcDbLine
 10
51.63615829962597
 20
85.20494096734552
 30
0.0
 11
51.69475204962597
 21
77.93931596734552
 31
0.0
  0
LINE
  5
238
330
1F
100
AcDbEntity
  8
100
  6
Continuous
 62
     7
370
    30
100
AcDbLine
 10
51.68756602368257
 20
90.67295393904362
 30
0.0
 11
51.63615829962597
 21
85.20494096734552
 31
0.0
  0
LINE
  5
239
330
1F
100
AcDbEntity
  8
100
  6
Continuous
 62
     7
370
    30
100
AcDbLine
 10
49.32170517462597
 20
82.91978471734552
 30
0.0
 11
49.36979627132408
 21
91.3351738682889
 31
0.0
  0
LINE
  5
23A
330
1F
100
AcDbEntity
  8
100
  6
Continuous
 62
     7
370
    30
100
AcDbLine
 10
49.43889267462597
 20
74.77525346734552
 30
0.0
 11
49.32170517462597
 21
82.91978471734552
 31
0.0
  0
LINE
  5
23B
330
1F
100
AcDbEntity
  8
100
  6
Continuous
 62
     7
370
    30
100
AcDbLine
 10
49.43889267462597
 20
70.58580034234552
 30
0.0
 11
49.43889267462597
 21
74.77525346734552
 31
0.0
  0
LINE
  5
23C
330
1F
100
AcDbEntity
  8
100
  6
Continuous
 62
     7
370
    30
100
AcDbLine
 10
50.05412704962597
 20
68.15415971734552
 30
0.0
 11
49.43889267462597
 21
70.58580034234552
 31
0.0
  0
LINE
  5
23D
330
1F
100
AcDbEntity
  8
100
  6
Continuous
 62
     7
370
    30
100
AcDbLine
 10
50.61076767462597
 20
66.98228471734552
 30
0.0
 11
50.05412704962597
 21
68.15415971734552
 31
0.0
  0
LINE
  5
23E
330
1F
100
AcDbEntity
  8
100
  6
Continuous
 62
     7
370
    30
100
AcDbLine
 10
50.72795517462597
 20
63.73033159234552
 30
0.0
 11
50.61076767462597
 21
66.98228471734552
 31
0.0
  0
LINE
  5
23F
330
1F
100
AcDbEntity
  8
100
  6
Continuous
 62
     7
370
    30
100
AcDbLine
 10
50.64006454962597
 20
62.23619096734552
 30
0.0
 11
50.72795517462597
 21
63.73033159234552
 31
0.0
  0
LINE
  5
240
330
1F
100
AcDbEntity
  8
100
  6
Continuous
 62
     7
370
    30
100
AcDbLine
 10
49.55608017462597
 20
58.80845659234552
 30
0.0
 11
50.64006454962597
 21
62.23619096734552
 31
0.0
  0
LINE
  5
241
330
1F
100
AcDbEntity
  8
100
  6
Continuous
 62
     7
370
    30
100
AcDbLine
 10
49.52678329962597
 20
62.96861284234552
 30
0.0
 11
50.72795517462597
 21
63.73033159234552
 31
0.0
  0
LINE
  5
242
330
1F
100
AcDbEntity
  8
100
  6
Continuous
 62
     7
370
    30
100
AcDbLine
 10
48.50139267462597
 20
62.14830034234552
 30
0.0
 11
49.52678329962597
 21
62.96861284234552
 31
0.0
  0
LINE
  5
243
330
1F
100
AcDbEntity
  8
100
  6
Continuous
 62
     7
370
    30
100
AcDbLine
 10
47.79826767462597
 20
61.53306596734552
 30
0.0
 11
48.50139267462597
 21
62.14830034234552
 31
0.0
  0
LINE
  5
244
330
1F
100
AcDbEntity
  8
100
  6
Continuous
 62
     7
370
    30
100
AcDbLine
 10
47.65178329962597
 20
60.91783159234552
 30
0.0
 11
47.79826767462597
 21
61.53306596734552
 31
0.0
  0
LINE
  5
245
330
1F
100
AcDbEntity
  8
100
  6
Continuous
 62
     7
370
    30
100
AcDbLine
 10
47.94475204962597
 20
60.12681596734552
 30
0.0
 11
47.65178329962597
 21
60.91783159234552
 31
0.0
  0
LINE
  5
246
330
1F
100
AcDbEntity
  8
100
  6
Continuous
 62
     7
370
    30
100
AcDbLine
 10
49.55608017462597
 20
58.80845659234552
 30
0.0
 11
47.94475204962597
 21
60.12681596734552
 31
0.0
  0
LINE
  5
247
330
1F
100
AcDbEntity
  8
100
  6
Continuous
 62
     7
370
    30
100
AcDbLine
 10
52.01701767462597
 20
57.75376909234552
 30
0.0
 11
49.55608017462597
 21
58.80845659234552
 31
0.0
  0
LINE
  5
248
330
1F
100
AcDbEntity
  8
100
  6
Continuous
 62
     7
370
    30
100
AcDbLine
 10
55.06389267462597
 20
56.52330034234552
 30
0.0
 11
52.01701767462597
 21
57.75376909234552
 31
0.0
  0
LINE
  5
249
330
1F
100
AcDbEntity
  8
100
  6
Continuous
 62
     7
370
    30
100
AcDbLine
 10
60.92326767462597
 20
54.99986284234552
 30
0.0
 11
55.06389267462597
 21
56.52330034234552
 31
0.0
  0
LINE
  5
24A
330
1F
100
AcDbEntity
  8
100
  6
Continuous
 62
     7
370
    30
100
AcDbLine
 10
72.14397079962598
 20
53.27134721734552
 30
0.0
 11
60.92326767462597
 21
54.99986284234552
 31
0.0
  0
LINE
  5
24B
330
1F
100
AcDbEntity
  8
100
  6
Continuous
 62
     7
370
    30
100
AcDbLine
 10
75.19084579962598
 20
52.89048784234552
 30
0.0
 11
72.14397079962598
 21
53.27134721734552
 31
0.0
  0
LINE
  5
24C
330
1F
100
AcDbEntity
  8
100
  6
Continuous
 62
     7
370
    30
100
AcDbLine
 10
77.41740829962598
 20
52.74400346734552
 30
0.0
 11
75.19084579962598
 21
52.89048784234552
 31
0.0
  0
LINE
  5
24D
330
1F
100
AcDbEntity
  8
100
  6
Continuous
 62
     7
370
    30
100
AcDbLine
 10
83.97990829962598
 20
52.30455034234552
 30
0.0
 11
77.41740829962598
 21
52.74400346734552
 31
0.0
  0
LINE
  5
24E
330
1F
100
AcDbEntity
  8
100
  6
Continuous
 62
     7
370
    30
100
AcDbLine
 10
92.15373642462598
 20
52.18736284234552
 30
0.0
 11
83.97990829962598
 21
52.30455034234552
 31
0.0
  0
LINE
  5
24F
330
1F
100
AcDbEntity
  8
100
  6
Continuous
 62
     7
370
    30
100
AcDbLine
 10
100.239673924626
 20
52.62681596734552
 30
0.0
 11
92.15373642462598
 21
52.18736284234552
 31
0.0
  0
LINE
  5
250
330
1F
100
AcDbEntity
  8
100
  6
Continuous
 62
     7
370
    30
100
AcDbLine
 10
107.974048924626
 20
53.44712846734552
 30
0.0
 11
100.239673924626
 21
52.62681596734552
 31
0.0
  0
LINE
  5
251
330
1F
100
AcDbEntity
  8
100
  6
Continuous
 62
     7
370
    30
100
AcDbLine
 10
113.423267674626
 20
54.61900346734552
 30
0.0
 11
107.974048924626
 21
53.44712846734552
 31
0.0
  0
LINE
  5
252
330
1F
100
AcDbEntity
  8
100
  6
Continuous
 62
     7
370
    30
100
AcDbLine
 10
117.202564549626
 20
55.58580034234552
 30
0.0
 11
113.423267674626
 21
54.61900346734552
 31
0.0
  0
LINE
  5
253
330
1F
100
AcDbEntity
  8
100
  6
Continuous
 62
     7
370
    30
100
AcDbLine
 10
119.546314549626
 20
56.69908159234552
 30
0.0
 11
117.202564549626
 21
55.58580034234552
 31
0.0
  0
LINE
  5
254
330
1F
100
AcDbEntity
  8
100
  6
Continuous
 62
     7
370
    30
100
AcDbLine
 10
120.542408299626
 20
57.19712846734552
 30
0.0
 11
119.546314549626
 21
56.69908159234552
 31
0.0
  0
LINE
  5
255
330
1F
100
AcDbEntity
  8
100
  6
Continuous
 62
     7
370
    30
100
AcDbLine
 10
122.109791112126
 20
58.23716752984552
 30
0.0
 11
120.542408299626
 21
57.19712846734552
 31
0.0
  0
LINE
  5
256
330
1F
100
AcDbEntity
  8
100
  6
Continuous
 62
     7
370
    30
100
AcDbLine
 10
122.622486424626
 20
58.61802690484552
 30
0.0
 11
122.109791112126
 21
58.23716752984552
 31
0.0
  0
LINE
  5
257
330
1F
100
AcDbEntity
  8
100
  6
Continuous
 62
     7
370
    30
100
AcDbLine
 10
122.651783299626
 20
59.45298784234552
 30
0.0
 11
122.622486424626
 21
58.61802690484552
 31
0.0
  0
LINE
  5
258
330
1F
100
AcDbEntity
  8
100
  6
Continuous
 62
     7
370
    30
100
AcDbLine
 10
122.774465503684
 20
59.8965311954784
 30
0.0
 11
122.651783299626
 21
59.45298784234552
 31
0.0
  0
LINE
  5
259
330
1F
100
AcDbEntity
  8
100
  6
Continuous
 62
     7
370
    30
100
AcDbLine
 10
123.413502049626
 20
62.20689409234552
 30
0.0
 11
122.651783299626
 21
59.45298784234552
 31
0.0
  0
LINE
  5
25A
330
1F
100
AcDbEntity
  8
100
  6
Continuous
 62
     7
370
    30
100
AcDbLine
 10
124.116627049626
 20
64.31626909234552
 30
0.0
 11
123.413502049626
 21
62.20689409234552
 31
0.0
  0
LINE
  5
25B
330
1F
100
AcDbEntity
  8
100
  6
Continuous
 62
     7
370
    30
100
AcDbLine
 10
124.351002049626
 20
72.34361284234552
 30
0.0
 11
124.116627049626
 21
64.31626909234552
 31
0.0
  0
LINE
  5
25C
330
1F
100
AcDbEntity
  8
100
  6
Continuous
 62
     7
370
    30
100
AcDbLine
 10
125.112720799626
 20
85.58580034234552
 30
0.0
 11
124.351002049626
 21
72.34361284234552
 31
0.0
  0
LINE
  5
25D
330
1F
100
AcDbEntity
  8
100
  6
Continuous
 62
     7
370
    30
100
AcDbLine
 10
124.995533299626
 20
87.16783159234552
 30
0.0
 11
125.112720799626
 21
85.58580034234552
 31
0.0
  0
LINE
  5
25E
330
1F
100
AcDbEntity
  8
100
  6
Continuous
 62
     7
370
    30
100
AcDbLine
 10
123.91874579855
 20
90.50569834544416
 30
0.0
 11
124.995533299626
 21
87.16783159234552
 31
0.0
  0
LINE
  5
25F
330
1F
100
AcDbEntity
  8
100
  6
Continuous
 62
     7
370
    30
100
AcDbLine
 10
122.183033299626
 20
86.81626909234552
 30
0.0
 11
121.2244082166974
 21
89.88743063256433
 31
0.0
  0
LINE
  5
260
330
1F
100
AcDbEntity
  8
100
  6
Continuous
 62
     7
370
    30
100
AcDbLine
 10
122.065845799626
 20
79.96080034234552
 30
0.0
 11
122.183033299626
 21
86.81626909234552
 31
0.0
  0
LINE
  5
261
330
1F
100
AcDbEntity
  8
100
  6
Continuous
 62
     7
370
    30
100
AcDbLine
 10
121.655689549626
 20
71.58189409234552
 30
0.0
 11
122.065845799626
 21
79.96080034234552
 31
0.0
  0
LINE
  5
262
330
1F
100
AcDbEntity
  8
100
  6
Continuous
 62
     7
370
    30
100
AcDbLine
 10
121.362720799626
 20
64.37486284234552
 30
0.0
 11
121.655689549626
 21
71.58189409234552
 31
0.0
  0
LINE
  5
263
330
1F
100
AcDbEntity
  8
100
  6
Continuous
 62
     7
370
    30
100
AcDbLine
 10
120.366627049626
 20
61.79673784234552
 30
0.0
 11
121.362720799626
 21
64.37486284234552
 31
0.0
  0
LINE
  5
264
330
1F
100
AcDbEntity
  8
100
  6
Continuous
 62
     7
370
    30
100
AcDbLine
 10
119.722095799626
 20
59.21861284234552
 30
0.0
 11
120.366627049626
 21
61.79673784234552
 31
0.0
  0
LINE
  5
265
330
1F
100
AcDbEntity
  8
100
  6
Continuous
 62
     7
370
    30
100
AcDbLine
 10
119.546314549626
 20
56.69908159234552
 30
0.0
 11
119.722095799626
 21
59.21861284234552
 31
0.0
  0
LINE
  5
266
330
1F
100
AcDbEntity
  8
100
  6
Continuous
 62
     7
370
    30
100
AcDbLine
 10
117.4785642599938
 20
62.91286543092733
 30
0.0
 11
120.366627049626
 21
61.79673784234552
 31
0.0
  0
LINE
  5
267
330
1F
100
AcDbEntity
  8
100
  6
Continuous
 62
     7
370
    30
100
AcDbLine
 10
117.6043590238048
 20
66.2523849580236
 30
0.0
 11
121.362720799626
 21
64.37486284234552
 31
0.0
  0
LINE
  5
268
330
1F
100
AcDbEntity
  8
100
  6
Continuous
 62
     7
370
    30
100
AcDbLine
 10
118.4792153372912
 20
89.47751495373896
 30
0.0
 11
117.202564549626
 21
55.58580034234552
 31
0.0
  0
LINE
  5
269
330
1F
100
AcDbEntity
  8
100
  6
Continuous
 62
     7
370
    30
100
AcDbLine
 10
124.731861424626
 20
95.98619096734552
 30
0.0
 11
124.3711851790493
 21
96.23117942829433
 31
0.0
  0
LINE
  5
26A
330
1F
100
AcDbEntity
  8
100
  6
Continuous
 62
     7
370
    30
100
AcDbLine
 10
125.727955174626
 20
95.28306596734552
 30
0.0
 11
124.731861424626
 21
95.98619096734552
 31
0.0
  0
LINE
  5
26B
330
1F
100
AcDbEntity
  8
100
  6
Continuous
 62
     7
370
    30
100
AcDbLine
 10
126.606861424626
 20
94.66783159234552
 30
0.0
 11
125.727955174626
 21
95.28306596734552
 31
0.0
  0
LINE
  5
26C
330
1F
100
AcDbEntity
  8
100
  6
Continuous
 62
     7
370
    30
100
AcDbLine
 10
126.987720799626
 20
93.90611284234552
 30
0.0
 11
126.606861424626
 21
94.66783159234552
 31
0.0
  0
LINE
  5
26D
330
1F
100
AcDbEntity
  8
100
  6
Continuous
 62
     7
370
    30
100
AcDbLine
 10
126.987720799626
 20
92.73423784234552
 30
0.0
 11
126.987720799626
 21
93.90611284234552
 31
0.0
  0
LINE
  5
26E
330
1F
100
AcDbEntity
  8
100
  6
Continuous
 62
     7
370
    30
100
AcDbLine
 10
126.606861424626
 20
91.97251909234552
 30
0.0
 11
126.987720799626
 21
92.73423784234552
 31
0.0
  0
LINE
  5
26F
330
1F
100
AcDbEntity
  8
100
  6
Continuous
 62
     7
370
    30
100
AcDbLine
 10
124.936939549626
 20
90.85923784234552
 30
0.0
 11
126.606861424626
 21
91.97251909234552
 31
0.0
  0
LINE
  5
270
330
1F
100
AcDbEntity
  8
100
  6
Continuous
 62
     7
370
    30
100
AcDbLine
 10
122.827564549626
 20
90.12681596734552
 30
0.0
 11
124.936939549626
 21
90.85923784234552
 31
0.0
  0
LINE
  5
271
330
1F
100
AcDbEntity
  8
100
  6
Continuous
 62
     7
370
    30
100
AcDbLine
 10
116.352955174626
 20
89.16001909234552
 30
0.0
 11
122.827564549626
 21
90.12681596734552
 31
0.0
  0
LINE
  5
272
330
1F
100
AcDbEntity
  8
100
  6
Continuous
 62
     7
370
    30
100
AcDbLine
 10
109.087330174626
 20
88.48619096734552
 30
0.0
 11
116.352955174626
 21
89.16001909234552
 31
0.0
  0
LINE
  5
273
330
1F
100
AcDbEntity
  8
100
  6
Continuous
 62
     7
370
    30
100
AcDbLine
 10
98.77483017462598
 20
88.07603471734552
 30
0.0
 11
109.087330174626
 21
88.48619096734552
 31
0.0
  0
LINE
  5
274
330
1F
100
AcDbEntity
  8
100
  6
Continuous
 62
     7
370
    30
100
AcDbLine
 10
88.52092392462598
 20
88.04673784234552
 30
0.0
 11
98.77483017462598
 21
88.07603471734552
 31
0.0
  0
LINE
  5
275
330
1F
100
AcDbEntity
  8
100
  6
Continuous
 62
     7
370
    30
100
AcDbLine
 10
77.12443954962598
 20
88.28111284234552
 30
0.0
 11
88.52092392462598
 21
88.04673784234552
 31
0.0
  0
LINE
  5
276
330
1F
100
AcDbEntity
  8
100
  6
Continuous
 62
     7
370
    30
100
AcDbLine
 10
73.52092392462598
 20
88.51548784234552
 30
0.0
 11
77.12443954962598
 21
88.28111284234552
 31
0.0
  0
LINE
  5
277
330
1F
100
AcDbEntity
  8
100
  6
Continuous
 62
     7
370
    30
100
AcDbLine
 10
66.72404892462598
 20
88.83775346734552
 30
0.0
 11
73.52092392462598
 21
88.51548784234552
 31
0.0
  0
LINE
  5
278
330
1F
100
AcDbEntity
  8
100
  6
Continuous
 62
     7
370
    30
100
AcDbLine
 10
59.25334579962597
 20
89.57017534234552
 30
0.0
 11
66.72404892462598
 21
88.83775346734552
 31
0.0
  0
LINE
  5
279
330
1F
100
AcDbEntity
  8
100
  6
Continuous
 62
     7
370
    30
100
AcDbLine
 10
51.95842392462597
 20
90.59556596734552
 30
0.0
 11
59.25334579962597
 21
89.57017534234552
 31
0.0
  0
LINE
  5
27A
330
1F
100
AcDbEntity
  8
100
  6
Continuous
 62
     7
370
    30
100
AcDbLine
 10
48.88225204962597
 20
91.47447221734552
 30
0.0
 11
51.95842392462597
 21
90.59556596734552
 31
0.0
  0
LINE
  5
27B
330
1F
100
AcDbEntity
  8
100
  6
Continuous
 62
     7
370
    30
100
AcDbLine
 10
46.65568954962597
 20
92.30943315484552
 30
0.0
 11
48.88225204962597
 21
91.47447221734552
 31
0.0
  0
LINE
  5
27C
330
1F
100
AcDbEntity
  8
100
  6
Continuous
 62
     7
370
    30
100
AcDbLine
 10
44.88322861212597
 20
93.34947221734552
 30
0.0
 11
46.65568954962597
 21
92.30943315484552
 31
0.0
  0
LINE
  5
27D
330
1F
100
AcDbEntity
  8
100
  6
Continuous
 62
     7
370
    30
100
AcDbLine
 10
44.12150986212597
 20
94.47740190484552
 30
0.0
 11
44.88322861212597
 21
93.34947221734552
 31
0.0
  0
LINE
  5
27E
330
1F
100
AcDbEntity
  8
100
  6
Continuous
 62
     7
370
    30
100
AcDbLine
 10
43.91643173712597
 20
95.34165971734552
 30
0.0
 11
44.12150986212597
 21
94.47740190484552
 31
0.0
  0
LINE
  5
27F
330
1F
100
AcDbEntity
  8
100
  6
Continuous
 62
     7
370
    30
100
AcDbLine
 10
44.06291611212597
 20
96.19126909234552
 30
0.0
 11
43.91643173712597
 21
95.34165971734552
 31
0.0
  0
LINE
  5
280
330
1F
100
AcDbEntity
  8
100
  6
Continuous
 62
     7
370
    30
100
AcDbLine
 10
44.76604111212597
 20
96.87974565484552
 30
0.0
 11
44.06291611212597
 21
96.19126909234552
 31
0.0
  0
LINE
  5
281
330
1F
100
AcDbEntity
  8
100
  6
Continuous
 62
     7
370
    30
100
AcDbLine
 10
45.79143173712597
 20
97.62681596734552
 30
0.0
 11
44.76604111212597
 21
96.87974565484552
 31
0.0
  0
LINE
  5
282
330
1F
100
AcDbEntity
  8
100
  6
Continuous
 62
     7
370
    30
100
AcDbLine
 10
47.03654892462597
 20
98.27134721734552
 30
0.0
 11
45.79143173712597
 21
97.62681596734552
 31
0.0
  0
LINE
  5
283
330
1F
100
AcDbEntity
  8
100
  6
Continuous
 62
     7
370
    30
100
AcDbLine
 10
48.77971298712597
 20
98.68150346734552
 30
0.0
 11
47.03654892462597
 21
98.27134721734552
 31
0.0
  0
LINE
  5
284
330
1F
100
AcDbEntity
  8
100
  6
Continuous
 62
     7
370
    30
100
AcDbLine
 10
50.31784247795848
 20
98.91010039189953
 30
0.0
 11
48.77971298712597
 21
98.68150346734552
 31
0.0
  0
LINE
  5
285
330
1F
100
AcDbEntity
  8
100
  6
Continuous
 62
     7
370
    30
100
AcDbLine
 10
50.05412704962597
 20
95.57603471734552
 30
0.0
 11
50.40015677872331
 21
95.49234851076275
 31
0.0
  0
LINE
  5
286
330
1F
100
AcDbEntity
  8
100
  6
Continuous
 62
     7
370
    30
100
AcDbLine
 10
49.49489546367262
 20
95.34043851900628
 30
0.0
 11
50.05412704962597
 21
95.57603471734552
 31
0.0
  0
LINE
  5
287
330
1F
100
AcDbEntity
  8
100
  6
Continuous
 62
     7
370
    30
100
AcDbLine
 10
120.740162205876
 20
93.76695268609552
 30
0.0
 11
120.801685643376
 21
93.74351518609552
 31
0.0
  0
LINE
  5
288
330
1F
100
AcDbEntity
  8
100
  6
Continuous
 62
     7
370
    30
100
AcDbLine
 10
120.432545018376
 20
93.87681596734552
 30
0.0
 11
120.740162205876
 21
93.76695268609552
 31
0.0
  0
LINE
  5
289
330
1F
100
AcDbEntity
  8
100
  6
Continuous
 62
     7
370
    30
100
AcDbLine
 10
118.7091528093324
 20
94.27985454781049
 30
0.0
 11
120.432545018376
 21
93.87681596734552
 31
0.0
  0
LINE
  5
28A
330
1F
100
AcDbEntity
  8
100
  6
Continuous
 62
     7
370
    30
100
AcDbLine
 10
120.066334080876
 20
97.29722612359552
 30
0.0
 11
121.6006945507073
 21
96.96271967625555
 31
0.0
  0
LINE
  5
28B
330
1F
100
AcDbEntity
  8
100
  6
Continuous
 62
     7
370
    30
100
AcDbLine
 10
118.5443662475177
 20
97.52987540524771
 30
0.0
 11
120.066334080876
 21
97.29722612359552
 31
0.0
  0
LINE
  5
28C
330
1F
100
AcDbEntity
  8
100
  6
Continuous
 62
     7
370
    30
100
AcDbLine
 10
96.13078720587598
 20
127.5316011235955
 30
0.0
 11
96.5280234403062
 21
125.5504597437773
 31
0.0
  0
LINE
  5
28D
330
1F
100
AcDbEntity
  8
100
  6
Continuous
 62
     7
370
    30
100
AcDbLine
 10
95.57414658087598
 20
129.7581636235955
 30
0.0
 11
96.13078720587598
 21
127.5316011235955
 31
0.0
  0
LINE
  5
28E
330
1F
100
AcDbEntity
  8
100
  6
Continuous
 62
     7
370
    30
100
AcDbLine
 10
94.90031845587598
 20
132.1898042485955
 30
0.0
 11
95.57414658087598
 21
129.7581636235955
 31
0.0
  0
LINE
  5
28F
330
1F
100
AcDbEntity
  8
100
  6
Continuous
 62
     7
370
    30
100
AcDbLine
 10
94.02141220587598
 20
134.6800386235955
 30
0.0
 11
94.90031845587598
 21
132.1898042485955
 31
0.0
  0
LINE
  5
290
330
1F
100
AcDbEntity
  8
100
  6
Continuous
 62
     7
370
    30
100
AcDbLine
 10
93.25969345587598
 20
136.3353120610955
 30
0.0
 11
94.02141220587598
 21
134.6800386235955
 31
0.0
  0
LINE
  5
291
330
1F
100
AcDbEntity
  8
100
  6
Continuous
 62
     7
370
    30
100
AcDbLine
 10
91.32609970587598
 20
135.1780854985955
 30
0.0
 11
90.65233451203508
 21
136.3827185873472
 31
0.0
  0
LINE
  5
292
330
1F
100
AcDbEntity
  8
100
  6
Continuous
 62
     7
370
    30
100
AcDbLine
 10
92.02922470587598
 20
133.2444917485955
 30
0.0
 11
91.32609970587598
 21
135.1780854985955
 31
0.0
  0
LINE
  5
293
330
1F
100
AcDbEntity
  8
100
  6
Continuous
 62
     7
370
    30
100
AcDbLine
 10
92.58586533087598
 20
131.5159761235955
 30
0.0
 11
92.02922470587598
 21
133.2444917485955
 31
0.0
  0
LINE
  5
294
330
1F
100
AcDbEntity
  8
100
  6
Continuous
 62
     7
370
    30
100
AcDbLine
 10
93.25969345587598
 20
128.7913667485955
 30
0.0
 11
92.58586533087598
 21
131.5159761235955
 31
0.0
  0
LINE
  5
295
330
1F
100
AcDbEntity
  8
100
  6
Continuous
 62
     7
370
    30
100
AcDbLine
 10
93.55408745925435
 20
126.5621121033253
 30
0.0
 11
93.25969345587598
 21
128.7913667485955
 31
0.0
  0
LINE
  5
296
330
1F
100
AcDbEntity
  8
100
  6
Continuous
 62
     7
370
    30
100
AcDbLine
 10
82.18547470587598
 20
127.3265229985955
 30
0.0
 11
80.46488944186734
 21
127.1653396742421
 31
0.0
  0
LINE
  5
297
330
1F
100
AcDbEntity
  8
100
  6
Continuous
 62
     7
370
    30
100
AcDbLine
 10
84.26555283087598
 20
127.4144136235955
 30
0.0
 11
82.18547470587598
 21
127.3265229985955
 31
0.0
  0
LINE
  5
298
330
1F
100
AcDbEntity
  8
100
  6
Continuous
 62
     7
370
    30
100
AcDbLine
 10
86.75578720587598
 20
127.4144136235955
 30
0.0
 11
84.26555283087598
 21
127.4144136235955
 31
0.0
  0
LINE
  5
299
330
1F
100
AcDbEntity
  8
100
  6
Continuous
 62
     7
370
    30
100
AcDbLine
 10
89.53899033087598
 20
127.1800386235955
 30
0.0
 11
86.75578720587598
 21
127.4144136235955
 31
0.0
  0
LINE
  5
29A
330
1F
100
AcDbEntity
  8
100
  6
Continuous
 62
     7
370
    30
100
AcDbLine
 10
93.25969345587598
 20
126.6526948735955
 30
0.0
 11
89.53899033087598
 21
127.1800386235955
 31
0.0
  0
LINE
  5
29B
330
1F
100
AcDbEntity
  8
100
  6
Continuous
 62
     7
370
    30
100
AcDbLine
 10
95.54484970587598
 20
125.9495698735955
 30
0.0
 11
93.25969345587598
 21
126.6526948735955
 31
0.0
  0
LINE
  5
29C
330
1F
100
AcDbEntity
  8
100
  6
Continuous
 62
     7
370
    30
100
AcDbLine
 10
98.50383408087598
 20
124.7483979985955
 30
0.0
 11
95.54484970587598
 21
125.9495698735955
 31
0.0
  0
LINE
  5
29D
330
1F
100
AcDbEntity
  8
100
  6
Continuous
 62
     7
370
    30
100
AcDbLine
 10
100.847584080876
 20
123.5472261235955
 30
0.0
 11
98.50383408087598
 21
124.7483979985955
 31
0.0
  0
LINE
  5
29E
330
1F
100
AcDbEntity
  8
100
  6
Continuous
 62
     7
370
    30
100
AcDbLine
 10
103.279224705876
 20
122.0237886235955
 30
0.0
 11
100.847584080876
 21
123.5472261235955
 31
0.0
  0
LINE
  5
29F
330
1F
100
AcDbEntity
  8
100
  6
Continuous
 62
     7
370
    30
100
AcDbLine
 10
107.849537205876
 20
118.6253511235955
 30
0.0
 11
103.279224705876
 21
122.0237886235955
 31
0.0
  0
LINE
  5
2A0
330
1F
100
AcDbEntity
  8
100
  6
Continuous
 62
     7
370
    30
100
AcDbLine
 10
111.394459080876
 20
115.0511323735955
 30
0.0
 11
107.849537205876
 21
118.6253511235955
 31
0.0
  0
LINE
  5
2A1
330
1F
100
AcDbEntity
  8
100
  6
Continuous
 62
     7
370
    30
100
AcDbLine
 10
113.913990330876
 20
111.2425386235955
 30
0.0
 11
111.394459080876
 21
115.0511323735955
 31
0.0
  0
LINE
  5
2A2
330
1F
100
AcDbEntity
  8
100
  6
Continuous
 62
     7
370
    30
100
AcDbLine
 10
116.755787205876
 20
105.1487886235955
 30
0.0
 11
113.913990330876
 21
111.2425386235955
 31
0.0
  0
LINE
  5
2A3
330
1F
100
AcDbEntity
  8
100
  6
Continuous
 62
     7
370
    30
100
AcDbLine
 10
118.015552830876
 20
100.7542573735955
 30
0.0
 11
116.755787205876
 21
105.1487886235955
 31
0.0
  0
LINE
  5
2A4
330
1F
100
AcDbEntity
  8
100
  6
Continuous
 62
     7
370
    30
100
AcDbLine
 10
118.484302830876
 20
98.49839799859552
 30
0.0
 11
118.015552830876
 21
100.7542573735955
 31
0.0
  0
LINE
  5
2A5
330
1F
100
AcDbEntity
  8
100
  6
Continuous
 62
     7
370
    30
100
AcDbLine
 10
118.718677830876
 20
94.71910112359552
 30
0.0
 11
118.484302830876
 21
98.49839799859552
 31
0.0
  0
LINE
  5
2A6
330
1F
100
AcDbEntity
  8
100
  6
Continuous
 62
     7
370
    30
100
AcDbLine
 10
118.6909553605853
 20
93.44067880279039
 30
0.0
 11
118.718677830876
 21
94.71910112359552
 31
0.0
  0
LINE
  5
2A7
330
1F
100
AcDbEntity
  8
100
  6
Continuous
 62
     7
370
    30
100
AcDbLine
 10
121.003834080876
 20
93.81089799859552
 30
0.0
 11
123.669849705876
 21
94.08921831109552
 31
0.0
  0
LINE
  5
2A8
330
1F
100
AcDbEntity
  8
100
  6
Continuous
 62
     7
370
    30
100
AcDbLine
 10
120.300709080876
 20
93.57652299859552
 30
0.0
 11
121.003834080876
 21
93.81089799859552
 31
0.0
  0
LINE
  5
2A9
330
1F
100
AcDbEntity
  8
100
  6
Continuous
 62
     7
370
    30
100
AcDbLine
 10
113.357349705876
 20
92.99058549859552
 30
0.0
 11
120.300709080876
 21
93.57652299859552
 31
0.0
  0
LINE
  5
2AA
330
1F
100
AcDbEntity
  8
100
  6
Continuous
 62
     7
370
    30
100
AcDbLine
 10
103.484302830876
 20
92.40464799859552
 30
0.0
 11
113.357349705876
 21
92.99058549859552
 31
0.0
  0
LINE
  5
2AB
330
1F
100
AcDbEntity
  8
100
  6
Continuous
 62
     7
370
    30
100
AcDbLine
 10
92.67375595587598
 20
92.11167924859552
 30
0.0
 11
103.484302830876
 21
92.40464799859552
 31
0.0
  0
LINE
  5
2AC
330
1F
100
AcDbEntity
  8
100
  6
Continuous
 62
     7
370
    30
100
AcDbLine
 10
82.12688095587598
 20
92.31675737359552
 30
0.0
 11
92.67375595587598
 21
92.11167924859552
 31
0.0
  0
LINE
  5
2AD
330
1F
100
AcDbEntity
  8
100
  6
Continuous
 62
     7
370
    30
100
AcDbLine
 10
76.41399033087598
 20
92.65367143609552
 30
0.0
 11
82.12688095587598
 21
92.31675737359552
 31
0.0
  0
LINE
  5
2AE
330
1F
100
AcDbEntity
  8
100
  6
Continuous
 62
     7
370
    30
100
AcDbLine
 10
72.89836533087598
 20
92.85874956109552
 30
0.0
 11
76.41399033087598
 21
92.65367143609552
 31
0.0
  0
LINE
  5
2AF
330
1F
100
AcDbEntity
  8
100
  6
Continuous
 62
     7
370
    30
100
AcDbLine
 10
68.47453720587598
 20
92.96128862359552
 30
0.0
 11
72.89836533087598
 21
92.85874956109552
 31
0.0
  0
LINE
  5
2B0
330
1F
100
AcDbEntity
  8
100
  6
Continuous
 62
     7
370
    30
100
AcDbLine
 10
56.53606064337597
 20
94.03062456109552
 30
0.0
 11
68.47453720587598
 21
92.96128862359552
 31
0.0
  0
LINE
  5
2B1
330
1F
100
AcDbEntity
  8
100
  6
Continuous
 62
     7
370
    30
100
AcDbLine
 10
52.39055283087597
 20
94.76304643609552
 30
0.0
 11
56.53606064337597
 21
94.03062456109552
 31
0.0
  0
LINE
  5
2B2
330
1F
100
AcDbEntity
  8
100
  6
Continuous
 62
     7
370
    30
100
AcDbLine
 10
50.33977158087597
 20
95.20249956109552
 30
0.0
 11
52.39055283087597
 21
94.76304643609552
 31
0.0
  0
LINE
  5
2B3
330
1F
100
AcDbEntity
  8
100
  6
Continuous
 62
     7
370
    30
100
AcDbLine
 10
48.90422470587597
 20
95.43687456109552
 30
0.0
 11
50.33977158087597
 21
95.20249956109552
 31
0.0
  0
LINE
  5
2B4
330
1F
100
AcDbEntity
  8
100
  6
Continuous
 62
     7
370
    30
100
AcDbLine
 10
47.39543564337597
 20
96.11070268609552
 30
0.0
 11
48.90422470587597
 21
95.43687456109552
 31
0.0
  0
LINE
  5
2B5
330
1F
100
AcDbEntity
  8
100
  6
Continuous
 62
     7
370
    30
100
AcDbLine
 10
52.59563095587597
 20
100.5931245610955
 30
0.0
 11
52.90378149038062
 21
100.0342513207272
 31
0.0
  0
LINE
  5
2B6
330
1F
100
AcDbEntity
  8
100
  6
Continuous
 62
     7
370
    30
100
AcDbLine
 10
52.36125595587597
 20
101.6771089360955
 30
0.0
 11
52.59563095587597
 21
100.5931245610955
 31
0.0
  0
LINE
  5
2B7
330
1F
100
AcDbEntity
  8
100
  6
Continuous
 62
     7
370
    30
100
AcDbLine
 10
52.30266220587597
 20
103.4056245610955
 30
0.0
 11
52.36125595587597
 21
101.6771089360955
 31
0.0
  0
LINE
  5
2B8
330
1F
100
AcDbEntity
  8
100
  6
Continuous
 62
     7
370
    30
100
AcDbLine
 10
52.33195908087597
 20
105.7200776860955
 30
0.0
 11
52.30266220587597
 21
103.4056245610955
 31
0.0
  0
LINE
  5
2B9
330
1F
100
AcDbEntity
  8
100
  6
Continuous
 62
     7
370
    30
100
AcDbLine
 10
52.53703720587597
 20
108.0931245610955
 30
0.0
 11
52.33195908087597
 21
105.7200776860955
 31
0.0
  0
LINE
  5
2BA
330
1F
100
AcDbEntity
  8
100
  6
Continuous
 62
     7
370
    30
100
AcDbLine
 10
52.88859970587597
 20
110.0853120610955
 30
0.0
 11
52.53703720587597
 21
108.0931245610955
 31
0.0
  0
LINE
  5
2BB
330
1F
100
AcDbEntity
  8
100
  6
Continuous
 62
     7
370
    30
100
AcDbLine
 10
53.62102158087597
 20
112.5169526860955
 30
0.0
 11
52.88859970587597
 21
110.0853120610955
 31
0.0
  0
LINE
  5
2BC
330
1F
100
AcDbEntity
  8
100
  6
Continuous
 62
     7
370
    30
100
AcDbLine
 10
54.64641220587597
 20
116.0618745610955
 30
0.0
 11
53.62102158087597
 21
112.5169526860955
 31
0.0
  0
LINE
  5
2BD
330
1F
100
AcDbEntity
  8
100
  6
Continuous
 62
     7
370
    30
100
AcDbLine
 10
56.58000595587597
 20
120.0755464360955
 30
0.0
 11
54.64641220587597
 21
116.0618745610955
 31
0.0
  0
LINE
  5
2BE
330
1F
100
AcDbEntity
  8
100
  6
Continuous
 62
     7
370
    30
100
AcDbLine
 10
59.18742783087597
 20
123.9720308110955
 30
0.0
 11
56.58000595587597
 21
120.0755464360955
 31
0.0
  0
LINE
  5
2BF
330
1F
100
AcDbEntity
  8
100
  6
Continuous
 62
     7
370
    30
100
AcDbLine
 10
61.58977158087597
 20
126.6380464360955
 30
0.0
 11
59.18742783087597
 21
123.9720308110955
 31
0.0
  0
LINE
  5
2C0
330
1F
100
AcDbEntity
  8
100
  6
Continuous
 62
     7
370
    30
100
AcDbLine
 10
63.78703720587597
 20
128.9232026860955
 30
0.0
 11
61.58977158087597
 21
126.6380464360955
 31
0.0
  0
LINE
  5
2C1
330
1F
100
AcDbEntity
  8
100
  6
Continuous
 62
     7
370
    30
100
AcDbLine
 10
66.59953720587598
 20
130.9153901860955
 30
0.0
 11
63.78703720587597
 21
128.9232026860955
 31
0.0
  0
LINE
  5
2C2
330
1F
100
AcDbEntity
  8
100
  6
Continuous
 62
     7
370
    30
100
AcDbLine
 10
70.02727158087598
 20
132.9954683110955
 30
0.0
 11
66.59953720587598
 21
130.9153901860955
 31
0.0
  0
LINE
  5
2C3
330
1F
100
AcDbEntity
  8
100
  6
Continuous
 62
     7
370
    30
100
AcDbLine
 10
74.27531845587598
 20
135.0169526860955
 30
0.0
 11
70.02727158087598
 21
132.9954683110955
 31
0.0
  0
LINE
  5
2C4
330
1F
100
AcDbEntity
  8
100
  6
Continuous
 62
     7
370
    30
100
AcDbLine
 10
77.14641220587598
 20
135.8372651860955
 30
0.0
 11
74.27531845587598
 21
135.0169526860955
 31
0.0
  0
LINE
  5
2C5
330
1F
100
AcDbEntity
  8
100
  6
Continuous
 62
     7
370
    30
100
AcDbLine
 10
80.60344345587598
 20
136.6868745610955
 30
0.0
 11
77.14641220587598
 21
135.8372651860955
 31
0.0
  0
LINE
  5
2C6
330
1F
100
AcDbEntity
  8
100
  6
Continuous
 62
     7
370
    30
100
AcDbLine
 10
80.9596773291558
 20
136.6147504928616
 30
0.0
 11
80.60344345587598
 21
136.6868745610955
 31
0.0
  0
LINE
  5
2C7
330
1F
100
AcDbEntity
  8
100
  6
Continuous
 62
     7
370
    30
100
AcDbLine
 10
74.65617783087598
 20
125.5833589360955
 30
0.0
 11
76.72467518947563
 21
126.318984001802
 31
0.0
  0
LINE
  5
2C8
330
1F
100
AcDbEntity
  8
100
  6
Continuous
 62
     7
370
    30
100
AcDbLine
 10
71.78508408087598
 20
124.4114839360955
 30
0.0
 11
74.65617783087598
 21
125.5833589360955
 31
0.0
  0
LINE
  5
2C9
330
1F
100
AcDbEntity
  8
100
  6
Continuous
 62
     7
370
    30
100
AcDbLine
 10
67.77141220587598
 20
122.2142183110955
 30
0.0
 11
71.78508408087598
 21
124.4114839360955
 31
0.0
  0
LINE
  5
2CA
330
1F
100
AcDbEntity
  8
100
  6
Continuous
 62
     7
370
    30
100
AcDbLine
 10
65.16399033087598
 20
120.3392183110955
 30
0.0
 11
67.77141220587598
 21
122.2142183110955
 31
0.0
  0
LINE
  5
2CB
330
1F
100
AcDbEntity
  8
100
  6
Continuous
 62
     7
370
    30
100
AcDbLine
 10
62.52727158087597
 20
117.9368745610955
 30
0.0
 11
65.16399033087598
 21
120.3392183110955
 31
0.0
  0
LINE
  5
2CC
330
1F
100
AcDbEntity
  8
100
  6
Continuous
 62
     7
370
    30
100
AcDbLine
 10
59.77336533087597
 20
115.1829683110955
 30
0.0
 11
62.52727158087597
 21
117.9368745610955
 31
0.0
  0
LINE
  5
2CD
330
1F
100
AcDbEntity
  8
100
  6
Continuous
 62
     7
370
    30
100
AcDbLine
 10
57.10734970587597
 20
111.4036714360955
 30
0.0
 11
59.77336533087597
 21
115.1829683110955
 31
0.0
  0
LINE
  5
2CE
330
1F
100
AcDbEntity
  8
100
  6
Continuous
 62
     7
370
    30
100
AcDbLine
 10
55.34953720587597
 20
108.0052339360955
 30
0.0
 11
57.10734970587597
 21
111.4036714360955
 31
0.0
  0
LINE
  5
2CF
330
1F
100
AcDbEntity
  8
100
  6
Continuous
 62
     7
370
    30
100
AcDbLine
 10
53.76750595587597
 20
103.3470308110955
 30
0.0
 11
55.34953720587597
 21
108.0052339360955
 31
0.0
  0
LINE
  5
2D0
330
1F
100
AcDbEntity
  8
100
  6
Continuous
 62
     7
370
    30
100
AcDbLine
 10
52.94719345587597
 20
100.3294526860955
 30
0.0
 11
53.76750595587597
 21
103.3470308110955
 31
0.0
  0
LINE
  5
2D1
330
1F
100
AcDbEntity
  8
100
  6
Continuous
 62
     7
370
    30
100
AcDbLine
 10
52.50774033087597
 20
97.34117143609552
 30
0.0
 11
52.94719345587597
 21
100.3294526860955
 31
0.0
  0
LINE
  5
2D2
330
1F
100
AcDbEntity
  8
100
  6
Continuous
 62
     7
370
    30
100
AcDbLine
 10
52.39055283087597
 20
94.76304643609552
 30
0.0
 11
52.50774033087597
 21
97.34117143609552
 31
0.0
  0
LINE
  5
2D3
330
1F
100
AcDbEntity
  8
100
  6
Continuous
 62
     7
370
    30
100
AcDbLine
 10
50.48625595587597
 20
95.90562456109552
 30
0.0
 11
50.33977158087597
 21
95.20249956109552
 31
0.0
  0
LINE
  5
2D4
330
1F
100
AcDbEntity
  8
100
  6
Continuous
 62
     7
370
    30
100
AcDbLine
 10
50.63274033087597
 20
97.86851518609552
 30
0.0
 11
50.48625595587597
 21
95.90562456109552
 31
0.0
  0
LINE
  5
2D5
330
1F
100
AcDbEntity
  8
100
  6
Continuous
 62
     7
370
    30
100
AcDbLine
 10
50.25188095587597
 20
99.12828081109552
 30
0.0
 11
50.63274033087597
 21
97.86851518609552
 31
0.0
  0
LINE
  5
2D6
330
1F
100
AcDbEntity
  8
100
  6
Continuous
 62
     7
370
    30
100
AcDbLine
 10
50.04680283087597
 20
101.2083589360955
 30
0.0
 11
50.25188095587597
 21
99.12828081109552
 31
0.0
  0
LINE
  5
2D7
330
1F
100
AcDbEntity
  8
100
  6
Continuous
 62
     7
370
    30
100
AcDbLine
 10
49.78313095587597
 20
103.1419526860955
 30
0.0
 11
50.04680283087597
 21
101.2083589360955
 31
0.0
  0
LINE
  5
2D8
330
1F
100
AcDbEntity
  8
100
  6
Continuous
 62
     7
370
    30
100
AcDbLine
 10
49.75383408087597
 20
105.2220308110955
 30
0.0
 11
49.78313095587597
 21
103.1419526860955
 31
0.0
  0
LINE
  5
2D9
330
1F
100
AcDbEntity
  8
100
  6
Continuous
 62
     7
370
    30
100
AcDbLine
 10
50.04680283087597
 20
108.0638276860955
 30
0.0
 11
49.75383408087597
 21
105.2220308110955
 31
0.0
  0
LINE
  5
2DA
330
1F
100
AcDbEntity
  8
100
  6
Continuous
 62
     7
370
    30
100
AcDbLine
 10
50.66203720587597
 20
111.7552339360955
 30
0.0
 11
50.04680283087597
 21
108.0638276860955
 31
0.0
  0
LINE
  5
2DB
330
1F
100
AcDbEntity
  8
100
  6
Continuous
 62
     7
370
    30
100
AcDbLine
 10
51.89250595587597
 20
115.9739839360955
 30
0.0
 11
50.66203720587597
 21
111.7552339360955
 31
0.0
  0
LINE
  5
2DC
330
1F
100
AcDbEntity
  8
100
  6
Continuous
 62
     7
370
    30
100
AcDbLine
 10
53.59172470587597
 20
119.7825776860955
 30
0.0
 11
51.89250595587597
 21
115.9739839360955
 31
0.0
  0
LINE
  5
2DD
330
1F
100
AcDbEntity
  8
100
  6
Continuous
 62
     7
370
    30
100
AcDbLine
 10
55.78899033087597
 20
123.7376558110955
 30
0.0
 11
53.59172470587597
 21
119.7825776860955
 31
0.0
  0
LINE
  5
2DE
330
1F
100
AcDbEntity
  8
100
  6
Continuous
 62
     7
370
    30
100
AcDbLine
 10
57.16594345587597
 20
125.6712495610955
 30
0.0
 11
55.78899033087597
 21
123.7376558110955
 31
0.0
  0
LINE
  5
2DF
330
1F
100
AcDbEntity
  8
100
  6
Continuous
 62
     7
370
    30
100
AcDbLine
 10
59.27531845587597
 20
128.0735933110955
 30
0.0
 11
57.16594345587597
 21
125.6712495610955
 31
0.0
  0
LINE
  5
2E0
330
1F
100
AcDbEntity
  8
100
  6
Continuous
 62
     7
370
    30
100
AcDbLine
 10
61.56047470587597
 20
130.3587495610955
 30
0.0
 11
59.27531845587597
 21
128.0735933110955
 31
0.0
  0
LINE
  5
2E1
330
1F
100
AcDbEntity
  8
100
  6
Continuous
 62
     7
370
    30
100
AcDbLine
 10
64.19719345587598
 20
132.4095308110955
 30
0.0
 11
61.56047470587597
 21
130.3587495610955
 31
0.0
  0
LINE
  5
2E2
330
1F
100
AcDbEntity
  8
100
  6
Continuous
 62
     7
370
    30
100
AcDbLine
 10
67.47844345587598
 20
134.6653901860955
 30
0.0
 11
64.19719345587598
 21
132.4095308110955
 31
0.0
  0
LINE
  5
2E3
330
1F
100
AcDbEntity
  8
100
  6
Continuous
 62
     7
370
    30
100
AcDbLine
 10
71.63859970587598
 20
136.8626558110955
 30
0.0
 11
67.47844345587598
 21
134.6653901860955
 31
0.0
  0
LINE
  5
2E4
330
1F
100
AcDbEntity
  8
100
  6
Continuous
 62
     7
370
    30
100
AcDbLine
 10
75.21281845587598
 20
138.3567964360955
 30
0.0
 11
71.63859970587598
 21
136.8626558110955
 31
0.0
  0
LINE
  5
2E5
330
1F
100
AcDbEntity
  8
100
  6
Continuous
 62
     7
370
    30
100
AcDbLine
 10
78.58195908087598
 20
139.2942964360955
 30
0.0
 11
75.21281845587598
 21
138.3567964360955
 31
0.0
  0
LINE
  5
2E6
330
1F
100
AcDbEntity
  8
100
  6
Continuous
 62
     7
370
    30
100
AcDbLine
 10
81.24797470587598
 20
139.6458589360955
 30
0.0
 11
78.58195908087598
 21
139.2942964360955
 31
0.0
  0
LINE
  5
2E7
330
1F
100
AcDbEntity
  8
100
  6
Continuous
 62
     7
370
    30
100
AcDbLine
 10
83.12297470587598
 20
139.9095308110955
 30
0.0
 11
81.24797470587598
 21
139.6458589360955
 31
0.0
  0
LINE
  5
2E8
330
1F
100
AcDbEntity
  8
100
  6
Continuous
 62
     7
370
    30
100
AcDbLine
 10
91.38469345587598
 20
140.1732026860955
 30
0.0
 11
91.99934445855921
 21
139.3051239917903
 31
0.0
  0
LINE
  5
2E9
330
1F
100
AcDbEntity
  8
100
  6
Continuous
 62
     7
370
    30
100
AcDbLine
 10
90.56438095587598
 20
140.7884370610955
 30
0.0
 11
91.38469345587598
 21
140.1732026860955
 31
0.0
  0
LINE
  5
2EA
330
1F
100
AcDbEntity
  8
100
  6
Continuous
 62
     7
370
    30
100
AcDbLine
 10
89.01164658087598
 20
141.8431245610955
 30
0.0
 11
90.56438095587598
 21
140.7884370610955
 31
0.0
  0
LINE
  5
2EB
330
1F
100
AcDbEntity
  8
100
  6
Continuous
 62
     7
370
    30
100
AcDbLine
 10
87.13664658087598
 20
142.1653901860955
 30
0.0
 11
89.01164658087598
 21
141.8431245610955
 31
0.0
  0
LINE
  5
2EC
330
1F
100
AcDbEntity
  8
100
  6
Continuous
 62
     7
370
    30
100
AcDbLine
 10
86.08195908087598
 20
141.8724214360955
 30
0.0
 11
87.13664658087598
 21
142.1653901860955
 31
0.0
  0
LINE
  5
2ED
330
1F
100
AcDbEntity
  8
100
  6
Continuous
 62
     7
370
    30
100
AcDbLine
 10
84.23625595587598
 20
140.9349214360955
 30
0.0
 11
86.08195908087598
 21
141.8724214360955
 31
0.0
  0
LINE
  5
2EE
330
1F
100
AcDbEntity
  8
100
  6
Continuous
 62
     7
370
    30
100
AcDbLine
 10
83.12297470587598
 20
139.9095308110955
 30
0.0
 11
84.23625595587598
 21
140.9349214360955
 31
0.0
  0
LINE
  5
2EF
330
1F
100
AcDbEntity
  8
100
  6
Continuous
 62
     7
370
    30
100
AcDbLine
 10
81.10149033087598
 20
136.9212495610955
 30
0.0
 11
83.12297470587598
 21
139.9095308110955
 31
0.0
  0
LINE
  5
2F0
330
1F
100
AcDbEntity
  8
100
  6
Continuous
 62
     7
370
    30
100
AcDbLine
 10
79.28508408087598
 20
132.9954683110955
 30
0.0
 11
81.10149033087598
 21
136.9212495610955
 31
0.0
  0
LINE
  5
2F1
330
1F
100
AcDbEntity
  8
100
  6
Continuous
 62
     7
370
    30
100
AcDbLine
 10
78.05461533087598
 20
130.2415620610955
 30
0.0
 11
79.28508408087598
 21
132.9954683110955
 31
0.0
  0
LINE
  5
2F2
330
1F
100
AcDbEntity
  8
100
  6
Continuous
 62
     7
370
    30
100
AcDbLine
 10
76.85344345587598
 20
126.7845308110955
 30
0.0
 11
78.05461533087598
 21
130.2415620610955
 31
0.0
  0
LINE
  5
2F3
330
1F
100
AcDbEntity
  8
100
  6
Continuous
 62
     7
370
    30
100
AcDbLine
 10
75.71086533087598
 20
122.6536714360955
 30
0.0
 11
76.85344345587598
 21
126.7845308110955
 31
0.0
  0
LINE
  5
2F4
330
1F
100
AcDbEntity
  8
100
  6
Continuous
 62
     7
370
    30
100
AcDbLine
 10
74.56828720587598
 20
116.6478120610955
 30
0.0
 11
75.71086533087598
 21
122.6536714360955
 31
0.0
  0
LINE
  5
2F5
330
1F
100
AcDbEntity
  8
100
  6
Continuous
 62
     7
370
    30
100
AcDbLine
 10
73.95305283087598
 20
112.0774995610955
 30
0.0
 11
74.56828720587598
 21
116.6478120610955
 31
0.0
  0
LINE
  5
2F6
330
1F
100
AcDbEntity
  8
100
  6
Continuous
 62
     7
370
    30
100
AcDbLine
 10
73.51359970587598
 20
108.7669526860955
 30
0.0
 11
73.95305283087598
 21
112.0774995610955
 31
0.0
  0
LINE
  5
2F7
330
1F
100
AcDbEntity
  8
100
  6
Continuous
 62
     7
370
    30
100
AcDbLine
 10
73.04484970587598
 20
103.5521089360955
 30
0.0
 11
73.51359970587598
 21
108.7669526860955
 31
0.0
  0
LINE
  5
2F8
330
1F
100
AcDbEntity
  8
100
  6
Continuous
 62
     7
370
    30
100
AcDbLine
 10
72.86906845587598
 20
100.4173433110955
 30
0.0
 11
73.04484970587598
 21
103.5521089360955
 31
0.0
  0
LINE
  5
2F9
330
1F
100
AcDbEntity
  8
100
  6
Continuous
 62
     7
370
    30
100
AcDbLine
 10
72.86906845587598
 20
97.66343706109552
 30
0.0
 11
72.86906845587598
 21
100.4173433110955
 31
0.0
  0
LINE
  5
2FA
330
1F
100
AcDbEntity
  8
100
  6
Continuous
 62
     7
370
    30
100
AcDbLine
 10
72.89836533087598
 20
92.85874956109552
 30
0.0
 11
72.86906845587598
 21
97.66343706109552
 31
0.0
  0
LINE
  5
2FB
330
1F
100
AcDbEntity
  8
100
  6
Continuous
 62
     7
370
    30
100
AcDbLine
 10
76.44328720587598
 20
101.0032808110955
 30
0.0
 11
76.41399033087598
 21
92.65367143609552
 31
0.0
  0
LINE
  5
2FC
330
1F
100
AcDbEntity
  8
100
  6
Continuous
 62
     7
370
    30
100
AcDbLine
 10
76.70695908087598
 20
105.5735933110955
 30
0.0
 11
76.44328720587598
 21
101.0032808110955
 31
0.0
  0
LINE
  5
2FD
330
1F
100
AcDbEntity
  8
100
  6
Continuous
 62
     7
370
    30
100
AcDbLine
 10
77.29289658087598
 20
110.9642183110955
 30
0.0
 11
76.70695908087598
 21
105.5735933110955
 31
0.0
  0
LINE
  5
2FE
330
1F
100
AcDbEntity
  8
100
  6
Continuous
 62
     7
370
    30
100
AcDbLine
 10
77.76164658087598
 20
114.3919526860955
 30
0.0
 11
77.29289658087598
 21
110.9642183110955
 31
0.0
  0
LINE
  5
2FF
330
1F
100
AcDbEntity
  8
100
  6
Continuous
 62
     7
370
    30
100
AcDbLine
 10
78.34758408087598
 20
118.4642183110955
 30
0.0
 11
77.76164658087598
 21
114.3919526860955
 31
0.0
  0
LINE
  5
300
330
1F
100
AcDbEntity
  8
100
  6
Continuous
 62
     7
370
    30
100
AcDbLine
 10
79.19719345587598
 20
122.3607026860955
 30
0.0
 11
78.34758408087598
 21
118.4642183110955
 31
0.0
  0
LINE
  5
301
330
1F
100
AcDbEntity
  8
100
  6
Continuous
 62
     7
370
    30
100
AcDbLine
 10
80.01750595587598
 20
125.6126558110955
 30
0.0
 11
79.19719345587598
 21
122.3607026860955
 31
0.0
  0
LINE
  5
302
330
1F
100
AcDbEntity
  8
100
  6
Continuous
 62
     7
370
    30
100
AcDbLine
 10
81.01359970587598
 20
129.0696870610955
 30
0.0
 11
80.01750595587598
 21
125.6126558110955
 31
0.0
  0
LINE
  5
303
330
1F
100
AcDbEntity
  8
100
  6
Continuous
 62
     7
370
    30
100
AcDbLine
 10
81.89250595587598
 20
131.4134370610955
 30
0.0
 11
81.01359970587598
 21
129.0696870610955
 31
0.0
  0
LINE
  5
304
330
1F
100
AcDbEntity
  8
100
  6
Continuous
 62
     7
370
    30
100
AcDbLine
 10
83.24016220587598
 20
134.4603120610955
 30
0.0
 11
81.89250595587598
 21
131.4134370610955
 31
0.0
  0
LINE
  5
305
330
1F
100
AcDbEntity
  8
100
  6
Continuous
 62
     7
370
    30
100
AcDbLine
 10
84.76359970587598
 20
136.9505464360955
 30
0.0
 11
83.24016220587598
 21
134.4603120610955
 31
0.0
  0
LINE
  5
306
330
1F
100
AcDbEntity
  8
100
  6
Continuous
 62
     7
370
    30
100
AcDbLine
 10
85.64250595587598
 20
138.1810151860955
 30
0.0
 11
84.76359970587598
 21
136.9505464360955
 31
0.0
  0
LINE
  5
307
330
1F
100
AcDbEntity
  8
100
  6
Continuous
 62
     7
370
    30
100
AcDbLine
 10
86.46281845587598
 20
139.0013276860955
 30
0.0
 11
85.64250595587598
 21
138.1810151860955
 31
0.0
  0
LINE
  5
308
330
1F
100
AcDbEntity
  8
100
  6
Continuous
 62
     7
370
    30
100
AcDbLine
 10
87.31242783087598
 20
139.4847261235955
 30
0.0
 11
86.46281845587598
 21
139.0013276860955
 31
0.0
  0
LINE
  5
309
330
1F
100
AcDbEntity
  8
100
  6
Continuous
 62
     7
370
    30
100
AcDbLine
 10
85.70109970587598
 20
136.6282808110955
 30
0.0
 11
84.76359970587598
 21
136.9505464360955
 31
0.0
  0
LINE
  5
30A
330
1F
100
AcDbEntity
  8
100
  6
Continuous
 62
     7
370
    30
100
AcDbLine
 10
87.54680283087598
 20
136.3646089360955
 30
0.0
 11
85.70109970587598
 21
136.6282808110955
 31
0.0
  0
LINE
  5
30B
330
1F
100
AcDbEntity
  8
100
  6
Continuous
 62
     7
370
    30
100
AcDbLine
 10
90.03703720587598
 20
136.3939058110955
 30
0.0
 11
87.54680283087598
 21
136.3646089360955
 31
0.0
  0
LINE
  5
30C
330
1F
100
AcDbEntity
  8
100
  6
Continuous
 62
     7
370
    30
100
AcDbLine
 10
93.25969345587598
 20
136.3353120610955
 30
0.0
 11
90.03703720587598
 21
136.3939058110955
 31
0.0
  0
LINE
  5
30D
330
1F
100
AcDbEntity
  8
100
  6
Continuous
 62
     7
370
    30
100
AcDbLine
 10
94.43156845587598
 20
136.1888276860955
 30
0.0
 11
93.25969345587598
 21
136.3353120610955
 31
0.0
  0
LINE
  5
30E
330
1F
100
AcDbEntity
  8
100
  6
Continuous
 62
     7
370
    30
100
AcDbLine
 10
96.24797470587598
 20
135.6028901860955
 30
0.0
 11
94.43156845587598
 21
136.1888276860955
 31
0.0
  0
LINE
  5
30F
330
1F
100
AcDbEntity
  8
100
  6
Continuous
 62
     7
370
    30
100
AcDbLine
 10
98.53313095587598
 20
134.8997651860955
 30
0.0
 11
96.24797470587598
 21
135.6028901860955
 31
0.0
  0
LINE
  5
310
330
1F
100
AcDbEntity
  8
100
  6
Continuous
 62
     7
370
    30
100
AcDbLine
 10
100.788990330876
 20
133.8157808110955
 30
0.0
 11
98.53313095587598
 21
134.8997651860955
 31
0.0
  0
LINE
  5
311
330
1F
100
AcDbEntity
  8
100
  6
Continuous
 62
     7
370
    30
100
AcDbLine
 10
103.367115330876
 20
132.5560151860955
 30
0.0
 11
100.788990330876
 21
133.8157808110955
 31
0.0
  0
LINE
  5
312
330
1F
100
AcDbEntity
  8
100
  6
Continuous
 62
     7
370
    30
100
AcDbLine
 10
105.798755955876
 20
131.0618745610955
 30
0.0
 11
103.367115330876
 21
132.5560151860955
 31
0.0
  0
LINE
  5
313
330
1F
100
AcDbEntity
  8
100
  6
Continuous
 62
     7
370
    30
100
AcDbLine
 10
108.288990330876
 20
129.2161714360955
 30
0.0
 11
105.798755955876
 21
131.0618745610955
 31
0.0
  0
LINE
  5
314
330
1F
100
AcDbEntity
  8
100
  6
Continuous
 62
     7
370
    30
100
AcDbLine
 10
110.163990330876
 20
127.7806245610955
 30
0.0
 11
108.288990330876
 21
129.2161714360955
 31
0.0
  0
LINE
  5
315
330
1F
100
AcDbEntity
  8
100
  6
Continuous
 62
     7
370
    30
100
AcDbLine
 10
112.214771580876
 20
125.7884370610955
 30
0.0
 11
110.163990330876
 21
127.7806245610955
 31
0.0
  0
LINE
  5
316
330
1F
100
AcDbEntity
  8
100
  6
Continuous
 62
     7
370
    30
100
AcDbLine
 10
114.031177830876
 20
123.7669526860955
 30
0.0
 11
112.214771580876
 21
125.7884370610955
 31
0.0
  0
LINE
  5
317
330
1F
100
AcDbEntity
  8
100
  6
Continuous
 62
     7
370
    30
100
AcDbLine
 10
115.378834080876
 20
122.0384370610955
 30
0.0
 11
114.031177830876
 21
123.7669526860955
 31
0.0
  0
LINE
  5
318
330
1F
100
AcDbEntity
  8
100
  6
Continuous
 62
     7
370
    30
100
AcDbLine
 10
116.638599705876
 20
119.9290620610955
 30
0.0
 11
115.378834080876
 21
122.0384370610955
 31
0.0
  0
LINE
  5
319
330
1F
100
AcDbEntity
  8
100
  6
Continuous
 62
     7
370
    30
100
AcDbLine
 10
118.220630955876
 20
117.4974214360955
 30
0.0
 11
116.638599705876
 21
119.9290620610955
 31
0.0
  0
LINE
  5
31A
330
1F
100
AcDbEntity
  8
100
  6
Continuous
 62
     7
370
    30
100
AcDbLine
 10
119.451099705876
 20
114.5677339360955
 30
0.0
 11
118.220630955876
 21
117.4974214360955
 31
0.0
  0
LINE
  5
31B
330
1F
100
AcDbEntity
  8
100
  6
Continuous
 62
     7
370
    30
100
AcDbLine
 10
120.447193455876
 20
111.7552339360955
 30
0.0
 11
119.451099705876
 21
114.5677339360955
 31
0.0
  0
LINE
  5
31C
330
1F
100
AcDbEntity
  8
100
  6
Continuous
 62
     7
370
    30
100
AcDbLine
 10
121.179615330876
 20
109.2649995610955
 30
0.0
 11
120.447193455876
 21
111.7552339360955
 31
0.0
  0
LINE
  5
31D
330
1F
100
AcDbEntity
  8
100
  6
Continuous
 62
     7
370
    30
100
AcDbLine
 10
121.736255955876
 20
106.1888276860955
 30
0.0
 11
121.179615330876
 21
109.2649995610955
 31
0.0
  0
LINE
  5
31E
330
1F
100
AcDbEntity
  8
100
  6
Continuous
 62
     7
370
    30
100
AcDbLine
 10
121.999927830876
 20
103.9622651860955
 30
0.0
 11
121.736255955876
 21
106.1888276860955
 31
0.0
  0
LINE
  5
31F
330
1F
100
AcDbEntity
  8
100
  6
Continuous
 62
     7
370
    30
100
AcDbLine
 10
122.117115330876
 20
102.0872651860955
 30
0.0
 11
121.999927830876
 21
103.9622651860955
 31
0.0
  0
LINE
  5
320
330
1F
100
AcDbEntity
  8
100
  6
Continuous
 62
     7
370
    30
100
AcDbLine
 10
122.058521580876
 20
99.83140581109552
 30
0.0
 11
122.117115330876
 21
102.0872651860955
 31
0.0
  0
LINE
  5
321
330
1F
100
AcDbEntity
  8
100
  6
Continuous
 62
     7
370
    30
100
AcDbLine
 10
121.912037205876
 20
97.98570268609552
 30
0.0
 11
122.058521580876
 21
99.83140581109552
 31
0.0
  0
LINE
  5
322
330
1F
100
AcDbEntity
  8
100
  6
Continuous
 62
     7
370
    30
100
AcDbLine
 10
121.296802830876
 20
95.96421831109552
 30
0.0
 11
121.912037205876
 21
97.98570268609552
 31
0.0
  0
LINE
  5
323
330
1F
100
AcDbEntity
  8
100
  6
Continuous
 62
     7
370
    30
100
AcDbLine
 10
120.740162205876
 20
93.76695268609552
 30
0.0
 11
121.296802830876
 21
95.96421831109552
 31
0.0
  0
LINE
  5
324
330
1F
100
AcDbEntity
  8
100
  6
Continuous
 62
     7
370
    30
100
AcDbLine
 10
124.167896580876
 20
95.49546831109552
 30
0.0
 11
123.669849705876
 21
94.08921831109552
 31
0.0
  0
LINE
  5
325
330
1F
100
AcDbEntity
  8
100
  6
Continuous
 62
     7
370
    30
100
AcDbLine
 10
124.783130955876
 20
97.72203081109552
 30
0.0
 11
124.167896580876
 21
95.49546831109552
 31
0.0
  0
LINE
  5
326
330
1F
100
AcDbEntity
  8
100
  6
Continuous
 62
     7
370
    30
100
AcDbLine
 10
125.076099705876
 20
99.80210893609552
 30
0.0
 11
124.783130955876
 21
97.72203081109552
 31
0.0
  0
LINE
  5
327
330
1F
100
AcDbEntity
  8
100
  6
Continuous
 62
     7
370
    30
100
AcDbLine
 10
125.046802830876
 20
102.2923433110955
 30
0.0
 11
125.076099705876
 21
99.80210893609552
 31
0.0
  0
LINE
  5
328
330
1F
100
AcDbEntity
  8
100
  6
Continuous
 62
     7
370
    30
100
AcDbLine
 10
124.607349705876
 20
106.4524995610955
 30
0.0
 11
125.046802830876
 21
102.2923433110955
 31
0.0
  0
LINE
  5
329
330
1F
100
AcDbEntity
  8
100
  6
Continuous
 62
     7
370
    30
100
AcDbLine
 10
124.138599705876
 20
109.0892183110955
 30
0.0
 11
124.607349705876
 21
106.4524995610955
 31
0.0
  0
LINE
  5
32A
330
1F
100
AcDbEntity
  8
100
  6
Continuous
 62
     7
370
    30
100
AcDbLine
 10
123.083912205876
 20
112.9271089360955
 30
0.0
 11
124.138599705876
 21
109.0892183110955
 31
0.0
  0
LINE
  5
32B
330
1F
100
AcDbEntity
  8
100
  6
Continuous
 62
     7
370
    30
100
AcDbLine
 10
122.175709080876
 20
115.4173433110955
 30
0.0
 11
123.083912205876
 21
112.9271089360955
 31
0.0
  0
LINE
  5
32C
330
1F
100
AcDbEntity
  8
100
  6
Continuous
 62
     7
370
    30
100
AcDbLine
 10
120.857349705876
 20
118.0540620610955
 30
0.0
 11
122.175709080876
 21
115.4173433110955
 31
0.0
  0
LINE
  5
32D
330
1F
100
AcDbEntity
  8
100
  6
Continuous
 62
     7
370
    30
100
AcDbLine
 10
119.099537205876
 20
121.3646089360955
 30
0.0
 11
120.857349705876
 21
118.0540620610955
 31
0.0
  0
LINE
  5
32E
330
1F
100
AcDbEntity
  8
100
  6
Continuous
 62
     7
370
    30
100
AcDbLine
 10
117.517505955876
 20
123.8255464360955
 30
0.0
 11
119.099537205876
 21
121.3646089360955
 31
0.0
  0
LINE
  5
32F
330
1F
100
AcDbEntity
  8
100
  6
Continuous
 62
     7
370
    30
100
AcDbLine
 10
115.173755955876
 20
126.5501558110955
 30
0.0
 11
117.517505955876
 21
123.8255464360955
 31
0.0
  0
LINE
  5
330
330
1F
100
AcDbEntity
  8
100
  6
Continuous
 62
     7
370
    30
100
AcDbLine
 10
113.064380955876
 20
128.8353120610955
 30
0.0
 11
115.173755955876
 21
126.5501558110955
 31
0.0
  0
LINE
  5
331
330
1F
100
AcDbEntity
  8
100
  6
Continuous
 62
     7
370
    30
100
AcDbLine
 10
110.662037205876
 20
130.9153901860955
 30
0.0
 11
113.064380955876
 21
128.8353120610955
 31
0.0
  0
LINE
  5
332
330
1F
100
AcDbEntity
  8
100
  6
Continuous
 62
     7
370
    30
100
AcDbLine
 10
107.263599705876
 20
133.5228120610955
 30
0.0
 11
110.662037205876
 21
130.9153901860955
 31
0.0
  0
LINE
  5
333
330
1F
100
AcDbEntity
  8
100
  6
Continuous
 62
     7
370
    30
100
AcDbLine
 10
104.421802830876
 20
135.2513276860955
 30
0.0
 11
107.263599705876
 21
133.5228120610955
 31
0.0
  0
LINE
  5
334
330
1F
100
AcDbEntity
  8
100
  6
Continuous
 62
     7
370
    30
100
AcDbLine
 10
101.023365330876
 20
136.9798433110955
 30
0.0
 11
104.421802830876
 21
135.2513276860955
 31
0.0
  0
LINE
  5
335
330
1F
100
AcDbEntity
  8
100
  6
Continuous
 62
     7
370
    30
100
AcDbLine
 10
98.12297470587598
 20
138.1810151860955
 30
0.0
 11
101.023365330876
 21
136.9798433110955
 31
0.0
  0
LINE
  5
336
330
1F
100
AcDbEntity
  8
100
  6
Continuous
 62
     7
370
    30
100
AcDbLine
 10
95.89641220587598
 20
138.7962495610955
 30
0.0
 11
98.12297470587598
 21
138.1810151860955
 31
0.0
  0
LINE
  5
337
330
1F
100
AcDbEntity
  8
100
  6
Continuous
 62
     7
370
    30
100
AcDbLine
 10
94.25578720587598
 20
139.1331636235955
 30
0.0
 11
95.89641220587598
 21
138.7962495610955
 31
0.0
  0
LINE
  5
338
330
1F
100
AcDbEntity
  8
100
  6
Continuous
 62
     7
370
    30
100
AcDbLine
 10
92.45402939337598
 20
139.3089448735955
 30
0.0
 11
94.25578720587598
 21
139.1331636235955
 31
0.0
  0
LINE
  5
339
330
1F
100
AcDbEntity
  8
100
  6
Continuous
 62
     7
370
    30
100
AcDbLine
 10
90.71086533087598
 20
139.2942964360955
 30
0.0
 11
92.45402939337598
 21
139.3089448735955
 31
0.0
  0
LINE
  5
33A
330
1F
100
AcDbEntity
  8
100
  6
Continuous
 62
     7
370
    30
100
AcDbLine
 10
88.58684189337598
 20
139.4114839360955
 30
0.0
 11
90.71086533087598
 21
139.2942964360955
 31
0.0
  0
LINE
  5
33B
330
1F
100
AcDbEntity
  8
100
  6
Continuous
 62
     7
370
    30
100
AcDbLine
 10
87.31242783087598
 20
139.4847261235955
 30
0.0
 11
88.58684189337598
 21
139.4114839360955
 31
0.0
  0
MTEXT
  5
33C
330
1F
100
AcDbEntity
  8
100
  6
Continuous
 62
     7
370
     9
100
AcDbMText
 10
-27.60812437757615
 20
-103.283507730781
 30
0.0
 40
25.0
 41
293.4182016041797
 46
25.0
 71
     7
 72
     1
  1
{\fＭＳ ゴシック;\W0.714286;松本船舶電機製作所}
 73
     1
 44
1.0
  0
MTEXT
  5
33D
330
1F
100
AcDbEntity
  8
1
  6
DOT
 62
     7
370
     9
100
AcDbMText
 10
9.505384914629943
 20
249.8711389319843
 30
0.0
 40
25.0
 41
152.9102596313618
 46
25.0
 71
     7
 72
     1
  1
{\fＭＳ ゴシック;\W0.714286;（RPR-DK-S）}
 73
     1
 44
1.0
  0
MTEXT
  5
33E
330
1F
100
AcDbEntity
  8
100
  6
Continuous
 62
     7
370
     9
100
AcDbMText
 10
-69.25350369322092
 20
219.7621636651642
 30
0.0
 40
25.0
 41
386.3049853513505
 46
25.0
 71
     7
 72
     1
  1
{\fＭＳ ゴシック;\W0.714286;Ｒプレミアデッキシルバー}
 73
     1
 44
1.0
  0
MTEXT
  5
33F
330
1F
100
AcDbEntity
  8
100
  6
Continuous
 62
     7
370
     9
100
AcDbMText
 10
-53.92736517533109
 20
187.4139077996623
 30
0.0
 40
25.0
 41
349.4765505874703
 46
25.0
 71
     7
 72
     1
  1
{\fＭＳ ゴシック;\W0.714286;[電球色ＬＥＤランプ付]}
 73
     1
 44
1.0
  0
ENDSEC
  0
SECTION
  2
OBJECTS
  0
DICTIONARY
  5
C
330
0
100
AcDbDictionary
281
     1
  3
ACAD_DETAILVIEWSTYLE
350
347
  3
ACAD_GROUP
350
D
  3
ACAD_LAYOUT
350
1A
  3
ACAD_MATERIAL
350
43
  3
ACAD_MLEADERSTYLE
350
6B
  3
ACAD_MLINESTYLE
350
17
  3
ACAD_PLOTSETTINGS
350
19
  3
ACAD_PLOTSTYLENAME
350
E
  3
ACAD_SCALELIST
350
47
  3
ACAD_SECTIONVIEWSTYLE
350
348
  3
ACAD_TABLESTYLE
350
69
  3
ACAD_VISUALSTYLE
350
2A
  3
ACDB_RECOMPOSE_DATA
350
344
  3
AcDbVariableDictionary
350
340
  0
SUN
  5
6D
330
29
100
AcDbSun
 90
        1
290
     0
 63
     7
421
 16777215
 40
1.0
291
     1
 91
  2455826
 92
 54000000
292
     0
 70
     2
 71
   256
280
     1
  0
DICTIONARY
  5
347
102
{ACAD_REACTORS
330
C
102
}
330
C
100
AcDbDictionary
281
     1
  0
DICTIONARY
  5
D
102
{ACAD_REACTORS
330
C
102
}
330
C
100
AcDbDictionary
281
     1
  0
DICTIONARY
  5
1A
102
{ACAD_REACTORS
330
C
102
}
330
C
100
AcDbDictionary
281
     1
  3
Layout1
350
1E
  3
Layout2
350
26
  3
Model
350
22
  0
DICTIONARY
  5
43
102
{ACAD_REACTORS
330
C
102
}
330
C
100
AcDbDictionary
281
     1
  3
ByBlock
350
45
  3
ByLayer
350
44
  3
Global
350
46
  0
DICTIONARY
  5
6B
102
{ACAD_REACTORS
330
C
102
}
330
C
100
AcDbDictionary
281
     1
  3
Standard
350
6C
  0
DICTIONARY
  5
17
102
{ACAD_REACTORS
330
C
102
}
330
C
100
AcDbDictionary
281
     1
  3
Standard
350
18
  0
DICTIONARY
  5
19
102
{ACAD_REACTORS
330
C
102
}
330
C
100
AcDbDictionary
281
     1
  0
ACDBDICTIONARYWDFLT
  5
E
102
{ACAD_REACTORS
330
C
102
}
330
C
100
AcDbDictionary
281
     1
  3
Normal
350
F
100
AcDbDictionaryWithDefault
340
F
  0
DICTIONARY
  5
47
102
{ACAD_REACTORS
330
C
102
}
330
C
100
AcDbDictionary
281
     1
  3
A0
350
48
  3
A1
350
49
  3
A2
350
4A
  3
A3
350
4B
  3
A4
350
4C
  3
A5
350
4D
  3
A6
350
4E
  3
A7
350
4F
  3
A8
350
50
  3
A9
350
51
  3
B0
350
52
  3
B1
350
53
  3
B2
350
54
  3
B3
350
55
  3
B4
350
56
  3
B5
350
57
  3
B6
350
58
  3
B7
350
59
  3
B8
350
5A
  3
B9
350
5B
  3
C0
350
5C
  3
C1
350
5D
  3
C2
350
5E
  3
C3
350
5F
  3
C4
350
60
  3
C5
350
61
  3
C6
350
62
  3
C7
350
63
  3
C8
350
64
  3
C9
350
65
  3
D0
350
66
  3
D1
350
67
  3
D2
350
68
  0
DICTIONARY
  5
348
102
{ACAD_REACTORS
330
C
102
}
330
C
100
AcDbDictionary
281
     1
  0
DICTIONARY
  5
69
102
{ACAD_REACTORS
330
C
102
}
330
C
100
AcDbDictionary
281
     1
  3
Standard
350
6A
  0
DICTIONARY
  5
2A
102
{ACAD_REACTORS
330
C
102
}
330
C
100
AcDbDictionary
281
     1
  3
2dWireframe
350
2F
  3
Basic
350
32
  3
Brighten
350
36
  3
ColorChange
350
3A
  3
Conceptual
350
34
  3
Dim
350
35
  3
EdgeColorOff
350
3D
  3
Facepattern
350
39
  3
Flat
350
2B
  3
FlatWithEdges
350
2C
  3
Gouraud
350
2D
  3
GouraudWithEdges
350
2E
  3
Hidden
350
31
  3
JitterOff
350
3B
  3
Linepattern
350
38
  3
OverhangOff
350
3C
  3
Realistic
350
33
  3
Shaded
350
42
  3
Shaded with edges
350
41
  3
Shades of Gray
350
3E
  3
Sketchy
350
3F
  3
Thicken
350
37
  3
Wireframe
350
30
  3
X-Ray
350
40
  0
XRECORD
  5
344
102
{ACAD_REACTORS
330
C
102
}
330
C
100
AcDbXrecord
280
     1
 90
        1
330
6A
  0
DICTIONARY
  5
340
102
{ACAD_REACTORS
330
C
102
}
330
C
100
AcDbDictionary
281
     1
  3
CANNOSCALE
350
341
  3
CMLEADERSTYLE
350
346
  3
CTABLESTYLE
350
345
  0
LAYOUT
  5
1E
102
{ACAD_REACTORS
330
1A
102
}
330
1A
100
AcDbPlotSettings
  1

  2
none_device
  4

  6

 40
0.0
 41
0.0
 42
0.0
 43
0.0
 44
0.0
 45
0.0
 46
0.0
 47
0.0
 48
0.0
 49
0.0
140
0.0
141
0.0
142
1.0
143
1.0
 70
   688
 72
     0
 73
     0
 74
     5
  7

 75
    16
 76
     0
 77
     2
 78
   300
147
1.0
148
0.0
149
0.0
100
AcDbLayout
  1
Layout1
 70
     1
 71
     1
 10
0.0
 20
0.0
 11
297.0
 21
210.0
 12
0.0
 22
0.0
 32
0.0
 14
0.0
 24
0.0
 34
0.0
 15
297.0
 25
210.0
 35
0.0
146
0.0
 13
0.0
 23
0.0
 33
0.0
 16
1.0
 26
0.0
 36
0.0
 17
0.0
 27
1.0
 37
0.0
 76
     0
330
1B
  0
LAYOUT
  5
26
102
{ACAD_REACTORS
330
1A
102
}
330
1A
100
AcDbPlotSettings
  1

  2
none_device
  4

  6

 40
0.0
 41
0.0
 42
0.0
 43
0.0
 44
0.0
 45
0.0
 46
0.0
 47
0.0
 48
0.0
 49
0.0
140
0.0
141
0.0
142
1.0
143
1.0
 70
   688
 72
     0
 73
     0
 74
     5
  7

 75
    16
 76
     0
 77
     2
 78
   300
147
1.0
148
0.0
149
0.0
100
AcDbLayout
  1
Layout2
 70
     1
 71
     2
 10
0.0
 20
0.0
 11
0.0
 21
0.0
 12
0.0
 22
0.0
 32
0.0
 14
0.0
 24
0.0
 34
0.0
 15
0.0
 25
0.0
 35
0.0
146
0.0
 13
0.0
 23
0.0
 33
0.0
 16
1.0
 26
0.0
 36
0.0
 17
0.0
 27
1.0
 37
0.0
 76
     0
330
23
  0
LAYOUT
  5
22
102
{ACAD_REACTORS
330
1A
102
}
330
1A
100
AcDbPlotSettings
  1

  2
none_device
  4
Letter_(8.50_x_11.00_Inches)
  6

 40
6.35
 41
6.35
 42
6.35000508
 43
6.35000508
 44
215.9
 45
279.4
 46
0.0
 47
0.0
 48
0.0
 49
0.0
140
0.0
141
0.0
142
1.0
143
1.0
 70
  1712
 72
     0
 73
     0
 74
     0
  7

 75
     0
 76
     0
 77
     2
 78
   300
147
1.0
148
0.0
149
0.0
100
AcDbLayout
  1
Model
 70
     1
 71
     0
 10
0.0
 20
0.0
 11
297.0
 21
210.0
 12
0.0
 22
0.0
 32
0.0
 14
-69.25350369322092
 24
-103.283507730781
 34
0.0
 15
230.7464963067791
 25
274.8711389319843
 35
0.0
146
0.0
 13
0.0
 23
0.0
 33
0.0
 16
1.0
 26
0.0
 36
0.0
 17
0.0
 27
1.0
 37
0.0
 76
     0
330
1F
331
29
  0
MATERIAL
  5
45
102
{ACAD_REACTORS
330
43
102
}
330
43
100
AcDbMaterial
  1
ByBlock
 72
     1
 94
      127
  0
MATERIAL
  5
44
102
{ACAD_REACTORS
330
43
102
}
330
43
100
AcDbMaterial
  1
ByLayer
 72
     1
 94
      127
  0
MATERIAL
  5
46
102
{ACAD_REACTORS
330
43
102
}
330
43
100
AcDbMaterial
  1
Global
 72
     1
 94
      127
  0
MLEADERSTYLE
  5
6C
102
{ACAD_REACTORS
330
6B
102
}
330
6B
100
AcDbMLeaderStyle
179
     2
170
     2
171
     1
172
     0
 90
        2
 40
0.0
 41
0.0
173
     1
 91
-1056964608
340
14
 92
       -2
290
     1
 42
0.09
291
     1
 43
0.36
  3
Standard
341
0
 44
0.18
300

342
11
174
     1
178
     6
175
     1
176
     0
 93
-1056964608
 45
0.18
292
     0
297
     0
 46
0.18
343
0
 94
-1056964608
 47
1.0
 49
1.0
140
1.0
293
     1
141
0.0
294
     1
177
     0
142
1.0
295
     0
296
     0
143
0.125
271
     0
272
     9
273
     9
298
     0
  0
MLINESTYLE
  5
18
102
{ACAD_REACTORS
330
17
102
}
330
17
100
AcDbMlineStyle
  2
Standard
 70
     0
  3

 62
   256
 51
90.0
 52
90.0
 71
     2
 49
0.5
 62
   256
  6
BYLAYER
 49
-0.5
 62
   256
  6
BYLAYER
  0
ACDBPLACEHOLDER
  5
F
102
{ACAD_REACTORS
330
E
102
}
330
E
  0
SCALE
  5
48
102
{ACAD_REACTORS
330
47
102
}
330
47
100
AcDbScale
 70
     0
300
1:1
140
1.0
141
1.0
290
     1
  0
SCALE
  5
49
102
{ACAD_REACTORS
330
47
102
}
330
47
100
AcDbScale
 70
     0
300
1:2
140
1.0
141
2.0
290
     0
  0
SCALE
  5
4A
102
{ACAD_REACTORS
330
47
102
}
330
47
100
AcDbScale
 70
     0
300
1:4
140
1.0
141
4.0
290
     0
  0
SCALE
  5
4B
102
{ACAD_REACTORS
330
47
102
}
330
47
100
AcDbScale
 70
     0
300
1:5
140
1.0
141
5.0
290
     0
  0
SCALE
  5
4C
102
{ACAD_REACTORS
330
47
102
}
330
47
100
AcDbScale
 70
     0
300
1:8
140
1.0
141
8.0
290
     0
  0
SCALE
  5
4D
102
{ACAD_REACTORS
330
47
102
}
330
47
100
AcDbScale
 70
     0
300
1:10
140
1.0
141
10.0
290
     0
  0
SCALE
  5
4E
102
{ACAD_REACTORS
330
47
102
}
330
47
100
AcDbScale
 70
     0
300
1:16
140
1.0
141
16.0
290
     0
  0
SCALE
  5
4F
102
{ACAD_REACTORS
330
47
102
}
330
47
100
AcDbScale
 70
     0
300
1:20
140
1.0
141
20.0
290
     0
  0
SCALE
  5
50
102
{ACAD_REACTORS
330
47
102
}
330
47
100
AcDbScale
 70
     0
300
1:30
140
1.0
141
30.0
290
     0
  0
SCALE
  5
51
102
{ACAD_REACTORS
330
47
102
}
330
47
100
AcDbScale
 70
     0
300
1:40
140
1.0
141
40.0
290
     0
  0
SCALE
  5
52
102
{ACAD_REACTORS
330
47
102
}
330
47
100
AcDbScale
 70
     0
300
1:50
140
1.0
141
50.0
290
     0
  0
SCALE
  5
53
102
{ACAD_REACTORS
330
47
102
}
330
47
100
AcDbScale
 70
     0
300
1:100
140
1.0
141
100.0
290
     0
  0
SCALE
  5
54
102
{ACAD_REACTORS
330
47
102
}
330
47
100
AcDbScale
 70
     0
300
2:1
140
2.0
141
1.0
290
     0
  0
SCALE
  5
55
102
{ACAD_REACTORS
330
47
102
}
330
47
100
AcDbScale
 70
     0
300
4:1
140
4.0
141
1.0
290
     0
  0
SCALE
  5
56
102
{ACAD_REACTORS
330
47
102
}
330
47
100
AcDbScale
 70
     0
300
8:1
140
8.0
141
1.0
290
     0
  0
SCALE
  5
57
102
{ACAD_REACTORS
330
47
102
}
330
47
100
AcDbScale
 70
     0
300
10:1
140
10.0
141
1.0
290
     0
  0
SCALE
  5
58
102
{ACAD_REACTORS
330
47
102
}
330
47
100
AcDbScale
 70
     0
300
100:1
140
100.0
141
1.0
290
     0
  0
SCALE
  5
59
102
{ACAD_REACTORS
330
47
102
}
330
47
100
AcDbScale
 70
     0
300
1/128" = 1'-0"
140
0.0078125
141
12.0
290
     0
  0
SCALE
  5
5A
102
{ACAD_REACTORS
330
47
102
}
330
47
100
AcDbScale
 70
     0
300
1/64" = 1'-0"
140
0.015625
141
12.0
290
     0
  0
SCALE
  5
5B
102
{ACAD_REACTORS
330
47
102
}
330
47
100
AcDbScale
 70
     0
300
1/32" = 1'-0"
140
0.03125
141
12.0
290
     0
  0
SCALE
  5
5C
102
{ACAD_REACTORS
330
47
102
}
330
47
100
AcDbScale
 70
     0
300
1/16" = 1'-0"
140
0.0625
141
12.0
290
     0
  0
SCALE
  5
5D
102
{ACAD_REACTORS
330
47
102
}
330
47
100
AcDbScale
 70
     0
300
3/32" = 1'-0"
140
0.09375
141
12.0
290
     0
  0
SCALE
  5
5E
102
{ACAD_REACTORS
330
47
102
}
330
47
100
AcDbScale
 70
     0
300
1/8" = 1'-0"
140
0.125
141
12.0
290
     0
  0
SCALE
  5
5F
102
{ACAD_REACTORS
330
47
102
}
330
47
100
AcDbScale
 70
     0
300
3/16" = 1'-0"
140
0.1875
141
12.0
290
     0
  0
SCALE
  5
60
102
{ACAD_REACTORS
330
47
102
}
330
47
100
AcDbScale
 70
     0
300
1/4" = 1'-0"
140
0.25
141
12.0
290
     0
  0
SCALE
  5
61
102
{ACAD_REACTORS
330
47
102
}
330
47
100
AcDbScale
 70
     0
300
3/8" = 1'-0"
140
0.375
141
12.0
290
     0
  0
SCALE
  5
62
102
{ACAD_REACTORS
330
47
102
}
330
47
100
AcDbScale
 70
     0
300
1/2" = 1'-0"
140
0.5
141
12.0
290
     0
  0
SCALE
  5
63
102
{ACAD_REACTORS
330
47
102
}
330
47
100
AcDbScale
 70
     0
300
3/4" = 1'-0"
140
0.75
141
12.0
290
     0
  0
SCALE
  5
64
102
{ACAD_REACTORS
330
47
102
}
330
47
100
AcDbScale
 70
     0
300
1" = 1'-0"
140
1.0
141
12.0
290
     0
  0
SCALE
  5
65
102
{ACAD_REACTORS
330
47
102
}
330
47
100
AcDbScale
 70
     0
300
1-1/2" = 1'-0"
140
1.5
141
12.0
290
     0
  0
SCALE
  5
66
102
{ACAD_REACTORS
330
47
102
}
330
47
100
AcDbScale
 70
     0
300
3" = 1'-0"
140
3.0
141
12.0
290
     0
  0
SCALE
  5
67
102
{ACAD_REACTORS
330
47
102
}
330
47
100
AcDbScale
 70
     0
300
6" = 1'-0"
140
6.0
141
12.0
290
     0
  0
SCALE
  5
68
102
{ACAD_REACTORS
330
47
102
}
330
47
100
AcDbScale
 70
     0
300
1'-0" = 1'-0"
140
12.0
141
12.0
290
     0
  0
TABLESTYLE
  5
6A
102
{ACAD_REACTORS
330
69
102
}
102
{ACAD_XDICTIONARY
360
342
102
}
330
69
100
AcDbTableStyle
  3
Standard
 70
     0
 71
     0
 40
0.06
 41
0.06
280
     0
281
     0
  7
Standard
140
0.18
170
     2
 62
     0
 63
   257
283
     0
 90
        4
 91
        0
  1

274
    -2
284
     1
 64
     0
275
    -2
285
     1
 65
     0
276
    -2
286
     1
 66
     0
277
    -2
287
     1
 67
     0
278
    -2
288
     1
 68
     0
279
    -2
289
     1
 69
     0
  7
Standard
140
0.25
170
     5
 62
     0
 63
   257
283
     0
 90
        4
 91
        0
  1

274
    -2
284
     1
 64
     0
275
    -2
285
     1
 65
     0
276
    -2
286
     1
 66
     0
277
    -2
287
     1
 67
     0
278
    -2
288
     1
 68
     0
279
    -2
289
     1
 69
     0
  7
Standard
140
0.18
170
     5
 62
     0
 63
   257
283
     0
 90
        4
 91
        0
  1

274
    -2
284
     1
 64
     0
275
    -2
285
     1
 65
     0
276
    -2
286
     1
 66
     0
277
    -2
287
     1
 67
     0
278
    -2
288
     1
 68
     0
279
    -2
289
     1
 69
     0
  0
VISUALSTYLE
  5
2F
102
{ACAD_REACTORS
330
2A
102
}
330
2A
100
AcDbVisualStyle
  2
2dWireframe
 70
     4
177
     3
291
     0
 70
    58
 90
        0
176
     1
 90
        2
176
     1
 90
        0
176
     1
 90
        0
176
     1
 40
0.6
176
     1
 40
30.0
176
     1
 62
     7
420
 16777215
176
     1
 90
        1
176
     1
 90
        4
176
     1
 62
     7
176
     1
 62
   257
176
     1
 90
        1
176
     1
 90
        1
176
     1
 40
1.0
176
     1
 90
        0
176
     1
 62
   257
176
     1
 40
1.0
176
     1
 90
        1
176
     1
 90
        6
176
     1
 90
        2
176
     1
 62
     7
176
     1
 90
        5
176
     1
 90
        0
176
     1
 90
        0
176
     1
290
     0
176
     1
 90
        1
176
     1
 40
0.0
176
     1
 90
        0
176
     1
290
     1
176
     1
290
     1
176
     1
290
     0
176
     1
290
     0
176
     1
290
     0
176
     1
290
     0
176
     1
290
     0
176
     1
290
     0
176
     1
290
     0
176
     1
 90
       50
176
     1
 40
0.0
176
     1
 40
1.0
176
     1
 90
        0
176
     1
 62
    18
420
        0
176
     1
 90
       50
176
     1
 90
        3
176
     1
 62
     5
420
      255
176
     1
290
     0
176
     1
 90
       50
176
     1
 90
       50
176
     1
 90
       50
176
     1
290
     0
176
     1
 90
       50
176
     1
 62
   256
176
     0
 40
1.0
176
     0
 90
        2
176
     1
  1
strokes_ogs.tif
176
     1
290
     0
176
     1
 40
1.0
176
     1
 40
1.0
176
     1
  0
VISUALSTYLE
  5
32
102
{ACAD_REACTORS
330
2A
102
}
330
2A
100
AcDbVisualStyle
  2
Basic
 70
     7
177
     3
291
     1
 70
    58
 90
        1
176
     1
 90
        0
176
     1
 90
        1
176
     1
 90
        0
176
     1
 40
0.6
176
     1
 40
30.0
176
     1
 62
     7
420
 16777215
176
     1
 90
        0
176
     1
 90
        4
176
     1
 62
     7
176
     1
 62
   257
176
     1
 90
        1
176
     1
 90
        1
176
     1
 40
1.0
176
     1
 90
        8
176
     1
 62
     7
176
     1
 40
1.0
176
     1
 90
        1
176
     1
 90
        6
176
     1
 90
        2
176
     1
 62
     7
176
     1
 90
        5
176
     1
 90
        0
176
     1
 90
        0
176
     1
290
     0
176
     1
 90
        1
176
     1
 40
0.0
176
     1
 90
        0
176
     1
290
     0
176
     1
290
     1
176
     1
290
     1
176
     1
290
     0
176
     1
290
     0
176
     1
290
     0
176
     1
290
     0
176
     1
290
     0
176
     1
290
     0
176
     1
 90
       50
176
     1
 40
0.0
176
     1
 40
1.0
176
     1
 90
        0
176
     1
 62
    18
420
        0
176
     1
 90
       50
176
     1
 90
        3
176
     1
 62
     5
420
      255
176
     1
290
     0
176
     1
 90
       50
176
     1
 90
       50
176
     1
 90
       50
176
     1
290
     0
176
     1
 90
       50
176
     1
 62
   256
176
     0
 40
1.0
176
     0
 90
        2
176
     1
  1
strokes_ogs.tif
176
     1
290
     0
176
     1
 40
1.0
176
     1
 40
1.0
176
     1
  0
VISUALSTYLE
  5
36
102
{ACAD_REACTORS
330
2A
102
}
330
2A
100
AcDbVisualStyle
  2
Brighten
 70
    12
177
     3
291
     1
 70
    58
 90
        2
176
     1
 90
        2
176
     1
 90
        0
176
     1
 90
        0
176
     1
 40
0.6
176
     1
 40
30.0
176
     1
 62
     7
420
 16777215
176
     1
 90
        1
176
     1
 90
        4
176
     1
 62
     7
176
     1
 62
   257
176
     1
 90
        1
176
     1
 90
        1
176
     1
 40
1.0
176
     1
 90
        8
176
     1
 62
     7
176
     1
 40
1.0
176
     1
 90
        1
176
     1
 90
        6
176
     1
 90
        2
176
     1
 62
     7
176
     1
 90
        5
176
     1
 90
        0
176
     1
 90
        0
176
     1
290
     0
176
     1
 90
        1
176
     1
 40
50.0
176
     1
 90
        0
176
     1
290
     0
176
     1
290
     1
176
     1
290
     1
176
     1
290
     0
176
     1
290
     0
176
     1
290
     0
176
     1
290
     0
176
     1
290
     0
176
     1
290
     0
176
     1
 90
       50
176
     1
 40
0.0
176
     1
 40
1.0
176
     1
 90
        0
176
     1
 62
    18
420
        0
176
     1
 90
       50
176
     1
 90
        3
176
     1
 62
     5
420
      255
176
     1
290
     0
176
     1
 90
       50
176
     1
 90
       50
176
     1
 90
       50
176
     1
290
     0
176
     1
 90
       50
176
     1
 62
   256
176
     0
 40
1.0
176
     0
 90
        2
176
     1
  1
strokes_ogs.tif
176
     1
290
     0
176
     1
 40
1.0
176
     1
 40
1.0
176
     1
  0
VISUALSTYLE
  5
3A
102
{ACAD_REACTORS
330
2A
102
}
330
2A
100
AcDbVisualStyle
  2
ColorChange
 70
    16
177
     3
291
     1
 70
    58
 90
        2
176
     1
 90
        2
176
     1
 90
        3
176
     1
 90
        0
176
     1
 40
0.6
176
     1
 40
30.0
176
     1
 62
     8
420
  8421504
176
     1
 90
        1
176
     1
 90
        4
176
     1
 62
     7
176
     1
 62
   257
176
     1
 90
        1
176
     1
 90
        1
176
     1
 40
1.0
176
     1
 90
        8
176
     1
 62
     8
420
  8421504
176
     1
 40
1.0
176
     1
 90
        1
176
     1
 90
        6
176
     1
 90
        2
176
     1
 62
     7
176
     1
 90
        5
176
     1
 90
        0
176
     1
 90
        0
176
     1
290
     0
176
     1
 90
        1
176
     1
 40
0.0
176
     1
 90
        0
176
     1
290
     0
176
     1
290
     1
176
     1
290
     1
176
     1
290
     0
176
     1
290
     0
176
     1
290
     0
176
     1
290
     0
176
     1
290
     0
176
     1
290
     0
176
     1
 90
       50
176
     1
 40
0.0
176
     1
 40
1.0
176
     1
 90
        0
176
     1
 62
    18
420
        0
176
     1
 90
       50
176
     1
 90
        3
176
     1
 62
     5
420
      255
176
     1
290
     0
176
     1
 90
       50
176
     1
 90
       50
176
     1
 90
       50
176
     1
290
     0
176
     1
 90
       50
176
     1
 62
   256
176
     0
 40
1.0
176
     0
 90
        2
176
     1
  1
strokes_ogs.tif
176
     1
290
     0
176
     1
 40
1.0
176
     1
 40
1.0
176
     1
  0
VISUALSTYLE
  5
34
102
{ACAD_REACTORS
330
2A
102
}
330
2A
100
AcDbVisualStyle
  2
Conceptual
 70
     9
177
     3
291
     0
 70
    58
 90
        3
176
     1
 90
        2
176
     1
 90
        0
176
     1
 90
        0
176
     1
 40
0.6
176
     1
 40
30.0
176
     1
 62
     7
420
 16777215
176
     1
 90
        2
176
     1
 90
        2
176
     1
 62
     7
176
     1
 62
   257
176
     1
 90
        1
176
     1
 90
        1
176
     1
 40
179.0
176
     1
 90
        8
176
     1
 62
     7
176
     1
 40
1.0
176
     1
 90
        1
176
     1
 90
        6
176
     1
 90
        2
176
     1
 62
     7
176
     1
 90
        3
176
     1
 90
        0
176
     1
 90
        0
176
     1
290
     0
176
     1
 90
        1
176
     1
 40
0.0
176
     1
 90
        0
176
     1
290
     0
176
     1
290
     1
176
     1
290
     1
176
     1
290
     0
176
     1
290
     0
176
     1
290
     0
176
     1
290
     0
176
     1
290
     0
176
     1
290
     0
176
     1
 90
       50
176
     1
 40
0.0
176
     1
 40
1.0
176
     1
 90
        0
176
     1
 62
    18
420
        0
176
     1
 90
       50
176
     1
 90
        3
176
     1
 62
     5
420
      255
176
     1
290
     0
176
     1
 90
       50
176
     1
 90
       50
176
     1
 90
       50
176
     1
290
     0
176
     1
 90
       50
176
     1
 62
   256
176
     0
 40
1.0
176
     0
 90
        2
176
     1
  1
strokes_ogs.tif
176
     1
290
     0
176
     1
 40
1.0
176
     1
 40
1.0
176
     1
  0
VISUALSTYLE
  5
35
102
{ACAD_REACTORS
330
2A
102
}
330
2A
100
AcDbVisualStyle
  2
Dim
 70
    11
177
     3
291
     1
 70
    58
 90
        2
176
     1
 90
        2
176
     1
 90
        0
176
     1
 90
        0
176
     1
 40
0.6
176
     1
 40
30.0
176
     1
 62
     7
420
 16777215
176
     1
 90
        1
176
     1
 90
        4
176
     1
 62
     7
176
     1
 62
   257
176
     1
 90
        1
176
     1
 90
        1
176
     1
 40
1.0
176
     1
 90
        8
176
     1
 62
     7
176
     1
 40
1.0
176
     1
 90
        1
176
     1
 90
        6
176
     1
 90
        2
176
     1
 62
     7
176
     1
 90
        5
176
     1
 90
        0
176
     1
 90
        0
176
     1
290
     0
176
     1
 90
        1
176
     1
 40
-50.0
176
     1
 90
        0
176
     1
290
     0
176
     1
290
     1
176
     1
290
     1
176
     1
290
     0
176
     1
290
     0
176
     1
290
     0
176
     1
290
     0
176
     1
290
     0
176
     1
290
     0
176
     1
 90
       50
176
     1
 40
0.0
176
     1
 40
1.0
176
     1
 90
        0
176
     1
 62
    18
420
        0
176
     1
 90
       50
176
     1
 90
        3
176
     1
 62
     5
420
      255
176
     1
290
     0
176
     1
 90
       50
176
     1
 90
       50
176
     1
 90
       50
176
     1
290
     0
176
     1
 90
       50
176
     1
 62
   256
176
     0
 40
1.0
176
     0
 90
        2
176
     1
  1
strokes_ogs.tif
176
     1
290
     0
176
     1
 40
1.0
176
     1
 40
1.0
176
     1
  0
VISUALSTYLE
  5
3D
102
{ACAD_REACTORS
330
2A
102
}
330
2A
100
AcDbVisualStyle
  2
EdgeColorOff
 70
    22
177
     3
291
     1
 70
    58
 90
        2
176
     0
 90
        2
176
     0
 90
        0
176
     0
 90
        0
176
     0
 40
0.6
176
     0
 40
30.0
176
     0
 62
     7
420
 16777215
176
     0
 90
        1
176
     0
 90
        4
176
     0
 62
     7
176
     0
 62
   257
176
     0
 90
        1
176
     0
 90
        1
176
     0
 40
1.0
176
     0
 90
        8
176
     2
 62
     7
176
     0
 40
1.0
176
     0
 90
        1
176
     0
 90
        6
176
     0
 90
        2
176
     0
 62
     7
176
     0
 90
        5
176
     0
 90
        0
176
     0
 90
        0
176
     0
290
     0
176
     0
 90
        1
176
     0
 40
0.0
176
     0
 90
        0
176
     0
290
     0
176
     0
290
     1
176
     0
290
     1
176
     0
290
     0
176
     0
290
     0
176
     0
290
     0
176
     0
290
     0
176
     0
290
     0
176
     0
290
     0
176
     0
 90
       50
176
     0
 40
0.0
176
     0
 40
1.0
176
     0
 90
        0
176
     0
 62
    18
420
        0
176
     0
 90
       50
176
     0
 90
        3
176
     0
 62
     5
420
      255
176
     0
290
     0
176
     0
 90
       50
176
     0
 90
       50
176
     0
 90
       50
176
     0
290
     0
176
     0
 90
       50
176
     0
 62
   256
176
     0
 40
1.0
176
     0
 90
        2
176
     0
  1
strokes_ogs.tif
176
     0
290
     0
176
     0
 40
1.0
176
     0
 40
1.0
176
     0
  0
VISUALSTYLE
  5
39
102
{ACAD_REACTORS
330
2A
102
}
330
2A
100
AcDbVisualStyle
  2
Facepattern
 70
    15
177
     3
291
     1
 70
    58
 90
        2
176
     1
 90
        2
176
     1
 90
        0
176
     1
 90
        0
176
     1
 40
0.6
176
     1
 40
30.0
176
     1
 62
     7
420
 16777215
176
     1
 90
        1
176
     1
 90
        4
176
     1
 62
     7
176
     1
 62
   257
176
     1
 90
        1
176
     1
 90
        1
176
     1
 40
1.0
176
     1
 90
        8
176
     1
 62
     7
176
     1
 40
1.0
176
     1
 90
        1
176
     1
 90
        6
176
     1
 90
        2
176
     1
 62
     7
176
     1
 90
        5
176
     1
 90
        0
176
     1
 90
        0
176
     1
290
     0
176
     1
 90
        1
176
     1
 40
0.0
176
     1
 90
        0
176
     1
290
     0
176
     1
290
     1
176
     1
290
     1
176
     1
290
     0
176
     1
290
     0
176
     1
290
     0
176
     1
290
     0
176
     1
290
     0
176
     1
290
     0
176
     1
 90
       50
176
     1
 40
0.0
176
     1
 40
1.0
176
     1
 90
        0
176
     1
 62
    18
420
        0
176
     1
 90
       50
176
     1
 90
        3
176
     1
 62
     5
420
      255
176
     1
290
     0
176
     1
 90
       50
176
     1
 90
       50
176
     1
 90
       50
176
     1
290
     0
176
     1
 90
       50
176
     1
 62
   256
176
     0
 40
1.0
176
     0
 90
        2
176
     1
  1
strokes_ogs.tif
176
     1
290
     0
176
     1
 40
1.0
176
     1
 40
1.0
176
     1
  0
VISUALSTYLE
  5
2B
102
{ACAD_REACTORS
330
2A
102
}
330
2A
100
AcDbVisualStyle
  2
Flat
 70
     0
177
     3
291
     1
 70
    58
 90
        2
176
     1
 90
        1
176
     1
 90
        1
176
     1
 90
        2
176
     1
 40
0.6
176
     1
 40
30.0
176
     1
 62
     7
420
 16777215
176
     1
 90
        0
176
     1
 90
        0
176
     1
 62
     7
176
     1
 62
   257
176
     1
 90
        1
176
     1
 90
        1
176
     1
 40
1.0
176
     1
 90
        8
176
     1
 62
     7
176
     1
 40
1.0
176
     1
 90
        1
176
     1
 90
        6
176
     1
 90
        2
176
     1
 62
     7
176
     1
 90
        5
176
     1
 90
        0
176
     1
 90
        0
176
     1
290
     0
176
     1
 90
       13
176
     1
 40
0.0
176
     1
 90
        0
176
     1
290
     0
176
     1
290
     1
176
     1
290
     1
176
     1
290
     0
176
     1
290
     0
176
     1
290
     0
176
     1
290
     0
176
     1
290
     0
176
     1
290
     0
176
     1
 90
       50
176
     1
 40
0.0
176
     1
 40
1.0
176
     1
 90
        0
176
     1
 62
    18
420
        0
176
     1
 90
       50
176
     1
 90
        3
176
     1
 62
     5
420
      255
176
     1
290
     0
176
     1
 90
       50
176
     1
 90
       50
176
     1
 90
       50
176
     1
290
     0
176
     1
 90
       50
176
     1
 62
   256
176
     0
 40
1.0
176
     0
 90
        2
176
     1
  1
strokes_ogs.tif
176
     1
290
     0
176
     1
 40
1.0
176
     1
 40
1.0
176
     1
  0
VISUALSTYLE
  5
2C
102
{ACAD_REACTORS
330
2A
102
}
330
2A
100
AcDbVisualStyle
  2
FlatWithEdges
 70
     1
177
     3
291
     1
 70
    58
 90
        2
176
     1
 90
        1
176
     1
 90
        1
176
     1
 90
        2
176
     1
 40
0.6
176
     1
 40
30.0
176
     1
 62
     7
420
 16777215
176
     1
 90
        1
176
     1
 90
        0
176
     1
 62
     7
176
     1
 62
   257
176
     1
 90
        1
176
     1
 90
        1
176
     1
 40
1.0
176
     1
 90
        0
176
     1
 62
   257
176
     1
 40
1.0
176
     1
 90
        1
176
     1
 90
        6
176
     1
 90
        2
176
     1
 62
     7
176
     1
 90
        5
176
     1
 90
        0
176
     1
 90
        0
176
     1
290
     0
176
     1
 90
       13
176
     1
 40
0.0
176
     1
 90
        0
176
     1
290
     0
176
     1
290
     1
176
     1
290
     1
176
     1
290
     0
176
     1
290
     0
176
     1
290
     0
176
     1
290
     0
176
     1
290
     0
176
     1
290
     0
176
     1
 90
       50
176
     1
 40
0.0
176
     1
 40
1.0
176
     1
 90
        0
176
     1
 62
    18
420
        0
176
     1
 90
       50
176
     1
 90
        3
176
     1
 62
     5
420
      255
176
     1
290
     0
176
     1
 90
       50
176
     1
 90
       50
176
     1
 90
       50
176
     1
290
     0
176
     1
 90
       50
176
     1
 62
   256
176
     0
 40
1.0
176
     0
 90
        2
176
     1
  1
strokes_ogs.tif
176
     1
290
     0
176
     1
 40
1.0
176
     1
 40
1.0
176
     1
  0
VISUALSTYLE
  5
2D
102
{ACAD_REACTORS
330
2A
102
}
330
2A
100
AcDbVisualStyle
  2
Gouraud
 70
     2
177
     3
291
     1
 70
    58
 90
        2
176
     1
 90
        2
176
     1
 90
        1
176
     1
 90
        2
176
     1
 40
0.6
176
     1
 40
30.0
176
     1
 62
     7
420
 16777215
176
     1
 90
        0
176
     1
 90
        0
176
     1
 62
     7
176
     1
 62
   257
176
     1
 90
        1
176
     1
 90
        1
176
     1
 40
1.0
176
     1
 90
        0
176
     1
 62
     7
176
     1
 40
1.0
176
     1
 90
        1
176
     1
 90
        6
176
     1
 90
        2
176
     1
 62
     7
176
     1
 90
        5
176
     1
 90
        0
176
     1
 90
        0
176
     1
290
     0
176
     1
 90
       13
176
     1
 40
0.0
176
     1
 90
        0
176
     1
290
     0
176
     1
290
     1
176
     1
290
     1
176
     1
290
     0
176
     1
290
     0
176
     1
290
     0
176
     1
290
     0
176
     1
290
     0
176
     1
290
     0
176
     1
 90
       50
176
     1
 40
0.0
176
     1
 40
1.0
176
     1
 90
        0
176
     1
 62
    18
420
        0
176
     1
 90
       50
176
     1
 90
        3
176
     1
 62
     5
420
      255
176
     1
290
     0
176
     1
 90
       50
176
     1
 90
       50
176
     1
 90
       50
176
     1
290
     0
176
     1
 90
       50
176
     1
 62
   256
176
     0
 40
1.0
176
     0
 90
        2
176
     1
  1
strokes_ogs.tif
176
     1
290
     0
176
     1
 40
1.0
176
     1
 40
1.0
176
     1
  0
VISUALSTYLE
  5
2E
102
{ACAD_REACTORS
330
2A
102
}
330
2A
100
AcDbVisualStyle
  2
GouraudWithEdges
 70
     3
177
     3
291
     1
 70
    58
 90
        2
176
     1
 90
        2
176
     1
 90
        1
176
     1
 90
        2
176
     1
 40
0.6
176
     1
 40
30.0
176
     1
 62
     7
420
 16777215
176
     1
 90
        1
176
     1
 90
        0
176
     1
 62
     7
176
     1
 62
   257
176
     1
 90
        1
176
     1
 90
        1
176
     1
 40
1.0
176
     1
 90
        0
176
     1
 62
   257
176
     1
 40
1.0
176
     1
 90
        1
176
     1
 90
        6
176
     1
 90
        2
176
     1
 62
     7
176
     1
 90
        5
176
     1
 90
        0
176
     1
 90
        0
176
     1
290
     0
176
     1
 90
       13
176
     1
 40
0.0
176
     1
 90
        0
176
     1
290
     0
176
     1
290
     1
176
     1
290
     1
176
     1
290
     0
176
     1
290
     0
176
     1
290
     0
176
     1
290
     0
176
     1
290
     0
176
     1
290
     0
176
     1
 90
       50
176
     1
 40
0.0
176
     1
 40
1.0
176
     1
 90
        0
176
     1
 62
    18
420
        0
176
     1
 90
       50
176
     1
 90
        3
176
     1
 62
     5
420
      255
176
     1
290
     0
176
     1
 90
       50
176
     1
 90
       50
176
     1
 90
       50
176
     1
290
     0
176
     1
 90
       50
176
     1
 62
   256
176
     0
 40
1.0
176
     0
 90
        2
176
     1
  1
strokes_ogs.tif
176
     1
290
     0
176
     1
 40
1.0
176
     1
 40
1.0
176
     1
  0
VISUALSTYLE
  5
31
102
{ACAD_REACTORS
330
2A
102
}
330
2A
100
AcDbVisualStyle
  2
Hidden
 70
     6
177
     3
291
     0
 70
    58
 90
        1
176
     1
 90
        2
176
     1
 90
        2
176
     1
 90
        0
176
     1
 40
0.6
176
     1
 40
30.0
176
     1
 62
     7
420
 16777215
176
     1
 90
        2
176
     1
 90
        2
176
     1
 62
     7
176
     1
 62
   257
176
     1
 90
        2
176
     1
 90
        1
176
     1
 40
40.0
176
     1
 90
        0
176
     1
 62
   257
176
     1
 40
1.0
176
     1
 90
        1
176
     1
 90
        6
176
     1
 90
        2
176
     1
 62
     7
176
     1
 90
        3
176
     1
 90
        0
176
     1
 90
        0
176
     1
290
     0
176
     1
 90
        1
176
     1
 40
0.0
176
     1
 90
        0
176
     1
290
     0
176
     1
290
     1
176
     1
290
     1
176
     1
290
     0
176
     1
290
     0
176
     1
290
     0
176
     1
290
     0
176
     1
290
     0
176
     1
290
     0
176
     1
 90
       50
176
     1
 40
0.0
176
     1
 40
1.0
176
     1
 90
        0
176
     1
 62
    18
420
        0
176
     1
 90
       50
176
     1
 90
        3
176
     1
 62
     5
420
      255
176
     1
290
     0
176
     1
 90
       50
176
     1
 90
       50
176
     1
 90
       50
176
     1
290
     0
176
     1
 90
       50
176
     1
 62
   256
176
     0
 40
1.0
176
     0
 90
        2
176
     1
  1
strokes_ogs.tif
176
     1
290
     0
176
     1
 40
1.0
176
     1
 40
1.0
176
     1
  0
VISUALSTYLE
  5
3B
102
{ACAD_REACTORS
330
2A
102
}
330
2A
100
AcDbVisualStyle
  2
JitterOff
 70
    20
177
     3
291
     1
 70
    58
 90
        2
176
     0
 90
        2
176
     0
 90
        0
176
     0
 90
        0
176
     0
 40
0.6
176
     0
 40
30.0
176
     0
 62
     7
420
 16777215
176
     0
 90
        1
176
     0
 90
        4
176
     0
 62
     7
176
     0
 62
   257
176
     0
 90
        1
176
     0
 90
        1
176
     0
 40
1.0
176
     0
 90
       10
176
     2
 62
     7
176
     0
 40
1.0
176
     0
 90
        1
176
     0
 90
        6
176
     0
 90
        2
176
     0
 62
     7
176
     0
 90
        5
176
     0
 90
        0
176
     0
 90
        0
176
     0
290
     0
176
     0
 90
        1
176
     0
 40
0.0
176
     0
 90
        0
176
     0
290
     0
176
     0
290
     1
176
     0
290
     1
176
     0
290
     0
176
     0
290
     0
176
     0
290
     0
176
     0
290
     0
176
     0
290
     0
176
     0
290
     0
176
     0
 90
       50
176
     0
 40
0.0
176
     0
 40
1.0
176
     0
 90
        0
176
     0
 62
    18
420
        0
176
     0
 90
       50
176
     0
 90
        3
176
     0
 62
     5
420
      255
176
     0
290
     0
176
     0
 90
       50
176
     0
 90
       50
176
     0
 90
       50
176
     0
290
     0
176
     0
 90
       50
176
     0
 62
   256
176
     0
 40
1.0
176
     0
 90
        2
176
     0
  1
strokes_ogs.tif
176
     0
290
     0
176
     0
 40
1.0
176
     0
 40
1.0
176
     0
  0
VISUALSTYLE
  5
38
102
{ACAD_REACTORS
330
2A
102
}
330
2A
100
AcDbVisualStyle
  2
Linepattern
 70
    14
177
     3
291
     1
 70
    58
 90
        2
176
     1
 90
        2
176
     1
 90
        0
176
     1
 90
        0
176
     1
 40
0.6
176
     1
 40
30.0
176
     1
 62
     7
420
 16777215
176
     1
 90
        1
176
     1
 90
        4
176
     1
 62
     7
176
     1
 62
   257
176
     1
 90
        7
176
     1
 90
        7
176
     1
 40
1.0
176
     1
 90
        8
176
     1
 62
     7
176
     1
 40
1.0
176
     1
 90
        1
176
     1
 90
        6
176
     1
 90
        2
176
     1
 62
     7
176
     1
 90
        5
176
     1
 90
        0
176
     1
 90
        0
176
     1
290
     0
176
     1
 90
        1
176
     1
 40
0.0
176
     1
 90
        0
176
     1
290
     0
176
     1
290
     1
176
     1
290
     1
176
     1
290
     0
176
     1
290
     0
176
     1
290
     0
176
     1
290
     0
176
     1
290
     0
176
     1
290
     0
176
     1
 90
       50
176
     1
 40
0.0
176
     1
 40
1.0
176
     1
 90
        0
176
     1
 62
    18
420
        0
176
     1
 90
       50
176
     1
 90
        3
176
     1
 62
     5
420
      255
176
     1
290
     0
176
     1
 90
       50
176
     1
 90
       50
176
     1
 90
       50
176
     1
290
     0
176
     1
 90
       50
176
     1
 62
   256
176
     0
 40
1.0
176
     0
 90
        2
176
     1
  1
strokes_ogs.tif
176
     1
290
     0
176
     1
 40
1.0
176
     1
 40
1.0
176
     1
  0
VISUALSTYLE
  5
3C
102
{ACAD_REACTORS
330
2A
102
}
330
2A
100
AcDbVisualStyle
  2
OverhangOff
 70
    21
177
     3
291
     1
 70
    58
 90
        2
176
     0
 90
        2
176
     0
 90
        0
176
     0
 90
        0
176
     0
 40
0.6
176
     0
 40
30.0
176
     0
 62
     7
420
 16777215
176
     0
 90
        1
176
     0
 90
        4
176
     0
 62
     7
176
     0
 62
   257
176
     0
 90
        1
176
     0
 90
        1
176
     0
 40
1.0
176
     0
 90
        9
176
     2
 62
     7
176
     0
 40
1.0
176
     0
 90
        1
176
     0
 90
        6
176
     0
 90
        2
176
     0
 62
     7
176
     0
 90
        5
176
     0
 90
        0
176
     0
 90
        0
176
     0
290
     0
176
     0
 90
        1
176
     0
 40
0.0
176
     0
 90
        0
176
     0
290
     0
176
     0
290
     1
176
     0
290
     1
176
     0
290
     0
176
     0
290
     0
176
     0
290
     0
176
     0
290
     0
176
     0
290
     0
176
     0
290
     0
176
     0
 90
       50
176
     0
 40
0.0
176
     0
 40
1.0
176
     0
 90
        0
176
     0
 62
    18
420
        0
176
     0
 90
       50
176
     0
 90
        3
176
     0
 62
     5
420
      255
176
     0
290
     0
176
     0
 90
       50
176
     0
 90
       50
176
     0
 90
       50
176
     0
290
     0
176
     0
 90
       50
176
     0
 62
   256
176
     0
 40
1.0
176
     0
 90
        2
176
     0
  1
strokes_ogs.tif
176
     0
290
     0
176
     0
 40
1.0
176
     0
 40
1.0
176
     0
  0
VISUALSTYLE
  5
33
102
{ACAD_REACTORS
330
2A
102
}
330
2A
100
AcDbVisualStyle
  2
Realistic
 70
     8
177
     3
291
     0
 70
    58
 90
        2
176
     1
 90
        3
176
     1
 90
        0
176
     1
 90
        2
176
     1
 40
0.6
176
     1
 40
30.0
176
     1
 62
     7
420
 16777215
176
     1
 90
        0
176
     1
 90
        0
176
     1
 62
     7
176
     1
 62
   257
176
     1
 90
        1
176
     1
 90
        1
176
     1
 40
1.0
176
     1
 90
        8
176
     1
 62
   257
176
     1
 40
1.0
176
     1
 90
        1
176
     1
 90
        6
176
     1
 90
        2
176
     1
 62
     7
176
     1
 90
        3
176
     1
 90
        0
176
     1
 90
        0
176
     1
290
     0
176
     1
 90
       13
176
     1
 40
0.0
176
     1
 90
        0
176
     1
290
     0
176
     1
290
     1
176
     1
290
     1
176
     1
290
     0
176
     1
290
     0
176
     1
290
     0
176
     1
290
     0
176
     1
290
     0
176
     1
290
     0
176
     1
 90
       50
176
     1
 40
0.0
176
     1
 40
1.0
176
     1
 90
        0
176
     1
 62
    18
420
        0
176
     1
 90
       50
176
     1
 90
        3
176
     1
 62
     5
420
      255
176
     1
290
     0
176
     1
 90
       50
176
     1
 90
       50
176
     1
 90
       50
176
     1
290
     0
176
     1
 90
       50
176
     1
 62
   256
176
     0
 40
1.0
176
     0
 90
        2
176
     1
  1
strokes_ogs.tif
176
     1
290
     0
176
     1
 40
1.0
176
     1
 40
1.0
176
     1
  0
VISUALSTYLE
  5
42
102
{ACAD_REACTORS
330
2A
102
}
330
2A
100
AcDbVisualStyle
  2
Shaded
 70
    27
177
     3
291
     0
 70
    58
 90
        2
176
     1
 90
        2
176
     1
 90
        1
176
     1
 90
        2
176
     1
 40
0.6
176
     1
 40
30.0
176
     1
 62
     7
420
 16777215
176
     1
 90
        0
176
     1
 90
        4
176
     1
 62
     7
176
     1
 62
   257
176
     1
 90
        1
176
     1
 90
        1
176
     1
 40
1.0
176
     1
 90
        8
176
     1
 62
   257
176
     1
 40
1.0
176
     1
 90
        1
176
     1
 90
        6
176
     1
 90
        2
176
     1
 62
     8
420
  7895160
176
     1
 90
        3
176
     1
 90
        0
176
     1
 90
        0
176
     1
290
     0
176
     1
 90
        5
176
     1
 40
0.0
176
     1
 90
        0
176
     1
290
     0
176
     1
290
     1
176
     1
290
     1
176
     1
290
     0
176
     1
290
     0
176
     1
290
     0
176
     1
290
     0
176
     1
290
     0
176
     1
290
     0
176
     1
 90
       50
176
     1
 40
0.0
176
     1
 40
1.0
176
     1
 90
        0
176
     1
 62
    18
420
        0
176
     1
 90
       50
176
     1
 90
        3
176
     1
 62
     5
420
      255
176
     1
290
     0
176
     1
 90
       50
176
     1
 90
       50
176
     1
 90
       50
176
     1
290
     0
176
     1
 90
       50
176
     1
 62
   256
176
     0
 40
1.0
176
     0
 90
        2
176
     1
  1
strokes_ogs.tif
176
     1
290
     0
176
     1
 40
1.0
176
     1
 40
1.0
176
     1
  0
VISUALSTYLE
  5
41
102
{ACAD_REACTORS
330
2A
102
}
330
2A
100
AcDbVisualStyle
  2
Shaded with edges
 70
    26
177
     3
291
     0
 70
    58
 90
        2
176
     1
 90
        2
176
     1
 90
        1
176
     1
 90
        2
176
     1
 40
0.6
176
     1
 40
30.0
176
     1
 62
     7
420
 16777215
176
     1
 90
        1
176
     1
 90
       10
176
     1
 62
     7
176
     1
 62
   257
176
     1
 90
        2
176
     1
 90
        1
176
     1
 40
1.0
176
     1
 90
        8
176
     1
 62
   257
176
     1
 40
1.0
176
     1
 90
        1
176
     1
 90
        6
176
     1
 90
        2
176
     1
 62
     7
176
     1
 90
        3
176
     1
 90
        0
176
     1
 90
        0
176
     1
290
     0
176
     1
 90
        5
176
     1
 40
0.0
176
     1
 90
        0
176
     1
290
     0
176
     1
290
     1
176
     1
290
     1
176
     1
290
     0
176
     1
290
     0
176
     1
290
     0
176
     1
290
     0
176
     1
290
     0
176
     1
290
     0
176
     1
 90
       50
176
     1
 40
0.0
176
     1
 40
1.0
176
     1
 90
        0
176
     1
 62
    18
420
        0
176
     1
 90
       50
176
     1
 90
        3
176
     1
 62
     5
420
      255
176
     1
290
     0
176
     1
 90
       50
176
     1
 90
       50
176
     1
 90
       50
176
     1
290
     0
176
     1
 90
       50
176
     1
 62
   256
176
     0
 40
1.0
176
     0
 90
        2
176
     1
  1
strokes_ogs.tif
176
     1
290
     0
176
     1
 40
1.0
176
     1
 40
1.0
176
     1
  0
VISUALSTYLE
  5
3E
102
{ACAD_REACTORS
330
2A
102
}
330
2A
100
AcDbVisualStyle
  2
Shades of Gray
 70
    23
177
     3
291
     0
 70
    58
 90
        2
176
     1
 90
        2
176
     1
 90
        3
176
     1
 90
        0
176
     1
 40
0.6
176
     1
 40
30.0
176
     1
 62
     7
420
 16777215
176
     1
 90
        2
176
     1
 90
        2
176
     1
 62
     7
176
     1
 62
     7
176
     1
 90
        1
176
     1
 90
        1
176
     1
 40
40.0
176
     1
 90
        8
176
     1
 62
     7
176
     1
 40
1.0
176
     1
 90
        1
176
     1
 90
        6
176
     1
 90
        2
176
     1
 62
     7
176
     1
 90
        3
176
     1
 90
        0
176
     1
 90
        0
176
     1
290
     0
176
     1
 90
        1
176
     1
 40
0.0
176
     1
 90
        0
176
     1
290
     0
176
     1
290
     1
176
     1
290
     1
176
     1
290
     0
176
     1
290
     0
176
     1
290
     0
176
     1
290
     0
176
     1
290
     0
176
     1
290
     0
176
     1
 90
       50
176
     1
 40
0.0
176
     1
 40
1.0
176
     1
 90
        0
176
     1
 62
    18
420
        0
176
     1
 90
       50
176
     1
 90
        3
176
     1
 62
     5
420
      255
176
     1
290
     0
176
     1
 90
       50
176
     1
 90
       50
176
     1
 90
       50
176
     1
290
     0
176
     1
 90
       50
176
     1
 62
   256
176
     0
 40
1.0
176
     0
 90
        2
176
     1
  1
strokes_ogs.tif
176
     1
290
     0
176
     1
 40
1.0
176
     1
 40
1.0
176
     1
  0
VISUALSTYLE
  5
3F
102
{ACAD_REACTORS
330
2A
102
}
330
2A
100
AcDbVisualStyle
  2
Sketchy
 70
    24
177
     3
291
     0
 70
    58
 90
        1
176
     1
 90
        2
176
     1
 90
        2
176
     1
 90
        0
176
     1
 40
0.6
176
     1
 40
30.0
176
     1
 62
     7
420
 16777215
176
     1
 90
        2
176
     1
 90
        2
176
     1
 62
     7
176
     1
 62
     7
176
     1
 90
        1
176
     1
 90
        1
176
     1
 40
40.0
176
     1
 90
       11
176
     1
 62
     7
176
     1
 40
1.0
176
     1
 90
        1
176
     1
 90
        6
176
     1
 90
        2
176
     1
 62
     7
176
     1
 90
        6
176
     1
 90
        0
176
     1
 90
        0
176
     1
290
     0
176
     1
 90
        1
176
     1
 40
0.0
176
     1
 90
        0
176
     1
290
     0
176
     1
290
     1
176
     1
290
     1
176
     1
290
     0
176
     1
290
     0
176
     1
290
     0
176
     1
290
     0
176
     1
290
     0
176
     1
290
     0
176
     1
 90
       50
176
     1
 40
0.0
176
     1
 40
1.0
176
     1
 90
        0
176
     1
 62
    18
420
        0
176
     1
 90
       50
176
     1
 90
        3
176
     1
 62
     5
420
      255
176
     1
290
     0
176
     1
 90
       50
176
     1
 90
       50
176
     1
 90
       50
176
     1
290
     0
176
     1
 90
       50
176
     1
 62
   256
176
     0
 40
1.0
176
     0
 90
        2
176
     1
  1
strokes_ogs.tif
176
     1
290
     0
176
     1
 40
1.0
176
     1
 40
1.0
176
     1
  0
VISUALSTYLE
  5
37
102
{ACAD_REACTORS
330
2A
102
}
330
2A
100
AcDbVisualStyle
  2
Thicken
 70
    13
177
     3
291
     1
 70
    58
 90
        2
176
     1
 90
        2
176
     1
 90
        0
176
     1
 90
        0
176
     1
 40
0.6
176
     1
 40
30.0
176
     1
 62
     7
420
 16777215
176
     1
 90
        1
176
     1
 90
        4
176
     1
 62
     7
176
     1
 62
   257
176
     1
 90
        1
176
     1
 90
        1
176
     1
 40
1.0
176
     1
 90
       12
176
     1
 62
     7
176
     1
 40
1.0
176
     1
 90
        1
176
     1
 90
        6
176
     1
 90
        2
176
     1
 62
     7
176
     1
 90
        5
176
     1
 90
        0
176
     1
 90
        0
176
     1
290
     0
176
     1
 90
        1
176
     1
 40
0.0
176
     1
 90
        0
176
     1
290
     0
176
     1
290
     1
176
     1
290
     1
176
     1
290
     0
176
     1
290
     0
176
     1
290
     0
176
     1
290
     0
176
     1
290
     0
176
     1
290
     0
176
     1
 90
       50
176
     1
 40
0.0
176
     1
 40
1.0
176
     1
 90
        0
176
     1
 62
    18
420
        0
176
     1
 90
       50
176
     1
 90
        3
176
     1
 62
     5
420
      255
176
     1
290
     0
176
     1
 90
       50
176
     1
 90
       50
176
     1
 90
       50
176
     1
290
     0
176
     1
 90
       50
176
     1
 62
   256
176
     0
 40
1.0
176
     0
 90
        2
176
     1
  1
strokes_ogs.tif
176
     1
290
     0
176
     1
 40
1.0
176
     1
 40
1.0
176
     1
  0
VISUALSTYLE
  5
30
102
{ACAD_REACTORS
330
2A
102
}
330
2A
100
AcDbVisualStyle
  2
Wireframe
 70
     5
177
     3
291
     0
 70
    58
 90
        0
176
     1
 90
        2
176
     1
 90
        0
176
     1
 90
        0
176
     1
 40
0.6
176
     1
 40
30.0
176
     1
 62
     7
420
 16777215
176
     1
 90
        1
176
     1
 90
        4
176
     1
 62
     7
176
     1
 62
   257
176
     1
 90
        1
176
     1
 90
        1
176
     1
 40
1.0
176
     1
 90
        0
176
     1
 62
   257
176
     1
 40
1.0
176
     1
 90
        1
176
     1
 90
        6
176
     1
 90
        2
176
     1
 62
     7
176
     1
 90
        3
176
     1
 90
        0
176
     1
 90
        0
176
     1
290
     0
176
     1
 90
        1
176
     1
 40
0.0
176
     1
 90
        0
176
     1
290
     0
176
     1
290
     1
176
     1
290
     1
176
     1
290
     0
176
     1
290
     0
176
     1
290
     0
176
     1
290
     0
176
     1
290
     0
176
     1
290
     0
176
     1
 90
       50
176
     1
 40
0.0
176
     1
 40
1.0
176
     1
 90
        0
176
     1
 62
    18
420
        0
176
     1
 90
       50
176
     1
 90
        3
176
     1
 62
     5
420
      255
176
     1
290
     0
176
     1
 90
       50
176
     1
 90
       50
176
     1
 90
       50
176
     1
290
     0
176
     1
 90
       50
176
     1
 62
   256
176
     0
 40
1.0
176
     0
 90
        2
176
     1
  1
strokes_ogs.tif
176
     1
290
     0
176
     1
 40
1.0
176
     1
 40
1.0
176
     1
  0
VISUALSTYLE
  5
40
102
{ACAD_REACTORS
330
2A
102
}
330
2A
100
AcDbVisualStyle
  2
X-Ray
 70
    25
177
     3
291
     0
 70
    58
 90
        2
176
     1
 90
        2
176
     1
 90
        1
176
     1
 90
        1
176
     1
 40
0.5
176
     1
 40
30.0
176
     1
 62
     7
420
 16777215
176
     1
 90
        1
176
     1
 90
        0
176
     1
 62
     7
176
     1
 62
   257
176
     1
 90
        1
176
     1
 90
        1
176
     1
 40
1.0
176
     1
 90
        8
176
     1
 62
     7
176
     1
 40
1.0
176
     1
 90
        1
176
     1
 90
        6
176
     1
 90
        2
176
     1
 62
     7
176
     1
 90
        3
176
     1
 90
        0
176
     1
 90
        0
176
     1
290
     0
176
     1
 90
       13
176
     1
 40
0.0
176
     1
 90
        0
176
     1
290
     0
176
     1
290
     1
176
     1
290
     1
176
     1
290
     0
176
     1
290
     0
176
     1
290
     0
176
     1
290
     0
176
     1
290
     0
176
     1
290
     0
176
     1
 90
       50
176
     1
 40
0.0
176
     1
 40
1.0
176
     1
 90
        0
176
     1
 62
    18
420
        0
176
     1
 90
       50
176
     1
 90
        3
176
     1
 62
     5
420
      255
176
     1
290
     0
176
     1
 90
       50
176
     1
 90
       50
176
     1
 90
       50
176
     1
290
     0
176
     1
 90
       50
176
     1
 62
   256
176
     0
 40
1.0
176
     0
 90
        2
176
     1
  1
strokes_ogs.tif
176
     1
290
     0
176
     1
 40
1.0
176
     1
 40
1.0
176
     1
  0
DICTIONARYVAR
  5
341
102
{ACAD_REACTORS
330
340
102
}
330
340
100
DictionaryVariables
280
     0
  1
1:1
  0
DICTIONARYVAR
  5
346
102
{ACAD_REACTORS
330
340
102
}
330
340
100
DictionaryVariables
280
     0
  1
Standard
  0
DICTIONARYVAR
  5
345
102
{ACAD_REACTORS
330
340
102
}
330
340
100
DictionaryVariables
280
     0
  1
Standard
  0
DICTIONARY
  5
342
330
6A
100
AcDbDictionary
280
     1
281
     1
  3
ACAD_ROUNDTRIP_2008_TABLESTYLE_CELLSTYLEMAP
360
343
  0
CELLSTYLEMAP
  5
343
102
{ACAD_REACTORS
330
342
102
}
330
342
100
AcDbCellStyleMap
 90
        3
300
CELLSTYLE
  1
TABLEFORMAT_BEGIN
 90
        5
170
     1
 91
        0
 92
    32768
 62
   257
 93
        1
300
CONTENTFORMAT
  1
CONTENTFORMAT_BEGIN
 90
        0
 91
        0
 92
        4
 93
        0
300

 40
0.0
140
1.0
 94
        5
 62
     0
340
11
144
0.25
309
CONTENTFORMAT_END
171
     1
301
MARGIN
  1
CELLMARGIN_BEGIN
 40
0.06
 40
0.06
 40
0.06
 40
0.06
 40
0.06
 40
0.06
309
CELLMARGIN_END
 94
        6
 95
        1
302
GRIDFORMAT
  1
GRIDFORMAT_BEGIN
 90
        0
 91
        1
 62
     0
 92
       -2
340
14
 93
        0
 40
0.045
309
GRIDFORMAT_END
 95
        2
302
GRIDFORMAT
  1
GRIDFORMAT_BEGIN
 90
        0
 91
        1
 62
     0
 92
       -2
340
14
 93
        0
 40
0.045
309
GRIDFORMAT_END
 95
        4
302
GRIDFORMAT
  1
GRIDFORMAT_BEGIN
 90
        0
 91
        1
 62
     0
 92
       -2
340
14
 93
        0
 40
0.045
309
GRIDFORMAT_END
 95
        8
302
GRIDFORMAT
  1
GRIDFORMAT_BEGIN
 90
        0
 91
        1
 62
     0
 92
       -2
340
14
 93
        0
 40
0.045
309
GRIDFORMAT_END
 95
       16
302
GRIDFORMAT
  1
GRIDFORMAT_BEGIN
 90
        0
 91
        1
 62
     0
 92
       -2
340
14
 93
        0
 40
0.045
309
GRIDFORMAT_END
 95
       32
302
GRIDFORMAT
  1
GRIDFORMAT_BEGIN
 90
        0
 91
        1
 62
     0
 92
       -2
340
14
 93
        0
 40
0.045
309
GRIDFORMAT_END
309
TABLEFORMAT_END
  1
CELLSTYLE_BEGIN
 90
        1
 91
        1
300
_TITLE
309
CELLSTYLE_END
300
CELLSTYLE
  1
TABLEFORMAT_BEGIN
 90
        5
170
     1
 91
        0
 92
        0
 62
   257
 93
        1
300
CONTENTFORMAT
  1
CONTENTFORMAT_BEGIN
 90
        0
 91
        0
 92
        4
 93
        0
300

 40
0.0
140
1.0
 94
        5
 62
     0
340
11
144
0.18
309
CONTENTFORMAT_END
171
     1
301
MARGIN
  1
CELLMARGIN_BEGIN
 40
0.06
 40
0.06
 40
0.06
 40
0.06
 40
0.06
 40
0.06
309
CELLMARGIN_END
 94
        6
 95
        1
302
GRIDFORMAT
  1
GRIDFORMAT_BEGIN
 90
        0
 91
        1
 62
     0
 92
       -2
340
14
 93
        0
 40
0.045
309
GRIDFORMAT_END
 95
        2
302
GRIDFORMAT
  1
GRIDFORMAT_BEGIN
 90
        0
 91
        1
 62
     0
 92
       -2
340
14
 93
        0
 40
0.045
309
GRIDFORMAT_END
 95
        4
302
GRIDFORMAT
  1
GRIDFORMAT_BEGIN
 90
        0
 91
        1
 62
     0
 92
       -2
340
14
 93
        0
 40
0.045
309
GRIDFORMAT_END
 95
        8
302
GRIDFORMAT
  1
GRIDFORMAT_BEGIN
 90
        0
 91
        1
 62
     0
 92
       -2
340
14
 93
        0
 40
0.045
309
GRIDFORMAT_END
 95
       16
302
GRIDFORMAT
  1
GRIDFORMAT_BEGIN
 90
        0
 91
        1
 62
     0
 92
       -2
340
14
 93
        0
 40
0.045
309
GRIDFORMAT_END
 95
       32
302
GRIDFORMAT
  1
GRIDFORMAT_BEGIN
 90
        0
 91
        1
 62
     0
 92
       -2
340
14
 93
        0
 40
0.045
309
GRIDFORMAT_END
309
TABLEFORMAT_END
  1
CELLSTYLE_BEGIN
 90
        2
 91
        1
300
_HEADER
309
CELLSTYLE_END
300
CELLSTYLE
  1
TABLEFORMAT_BEGIN
 90
        5
170
     1
 91
        0
 92
        0
 62
   257
 93
        1
300
CONTENTFORMAT
  1
CONTENTFORMAT_BEGIN
 90
        0
 91
        0
 92
        4
 93
        0
300

 40
0.0
140
1.0
 94
        2
 62
     0
340
11
144
0.18
309
CONTENTFORMAT_END
171
     1
301
MARGIN
  1
CELLMARGIN_BEGIN
 40
0.06
 40
0.06
 40
0.06
 40
0.06
 40
0.06
 40
0.06
309
CELLMARGIN_END
 94
        6
 95
        1
302
GRIDFORMAT
  1
GRIDFORMAT_BEGIN
 90
        0
 91
        1
 62
     0
 92
       -2
340
14
 93
        0
 40
0.045
309
GRIDFORMAT_END
 95
        2
302
GRIDFORMAT
  1
GRIDFORMAT_BEGIN
 90
        0
 91
        1
 62
     0
 92
       -2
340
14
 93
        0
 40
0.045
309
GRIDFORMAT_END
 95
        4
302
GRIDFORMAT
  1
GRIDFORMAT_BEGIN
 90
        0
 91
        1
 62
     0
 92
       -2
340
14
 93
        0
 40
0.045
309
GRIDFORMAT_END
 95
        8
302
GRIDFORMAT
  1
GRIDFORMAT_BEGIN
 90
        0
 91
        1
 62
     0
 92
       -2
340
14
 93
        0
 40
0.045
309
GRIDFORMAT_END
 95
       16
302
GRIDFORMAT
  1
GRIDFORMAT_BEGIN
 90
        0
 91
        1
 62
     0
 92
       -2
340
14
 93
        0
 40
0.045
309
GRIDFORMAT_END
 95
       32
302
GRIDFORMAT
  1
GRIDFORMAT_BEGIN
 90
        0
 91
        1
 62
     0
 92
       -2
340
14
 93
        0
 40
0.045
309
GRIDFORMAT_END
309
TABLEFORMAT_END
  1
CELLSTYLE_BEGIN
 90
        3
 91
        2
300
_DATA
309
CELLSTYLE_END
  0
ENDSEC
  0
EOF
