  0
SECTION
  2
HEADER
  9
$ACADVER
  1
AC1032
  9
$ACADMAINTVER
 90
       55
  9
$DWGCODEPAGE
  3
ANSI_932
  9
$LASTSAVEDBY
  1
client05
  9
$REQUIREDVERSIONS
160
                 0
  9
$INSBASE
 10
0.0
 20
0.0
 30
0.0
  9
$EXTMIN
 10
-46.28246095612654
 20
-126.5146552801502
 30
0.0
  9
$EXTMAX
 10
228.7175390438734
 20
265.325161729656
 30
0.0
  9
$LIMMIN
 10
0.0
 20
0.0
  9
$LIMMAX
 10
297.0
 20
210.0
  9
$ORTHOMODE
 70
     0
  9
$REGENMODE
 70
     1
  9
$FILLMODE
 70
     1
  9
$QTEXTMODE
 70
     0
  9
$MIRRTEXT
 70
     1
  9
$LTSCALE
 40
0.25
  9
$ATTMODE
 70
     1
  9
$TEXTSIZE
 40
5.0
  9
$TRACEWID
 40
0.05
  9
$TEXTSTYLE
  7
Standard
  9
$CLAYER
  8
0
  9
$CELTYPE
  6
ByLayer
  9
$CECOLOR
 62
   256
  9
$CELTSCALE
 40
1.0
  9
$DISPSILH
 70
     0
  9
$DIMSCALE
 40
1.0
  9
$DIMASZ
 40
4.0
  9
$DIMEXO
 40
2.0
  9
$DIMDLI
 40
10.0
  9
$DIMRND
 40
0.0
  9
$DIMDLE
 40
0.0
  9
$DIMEXE
 40
2.0
  9
$DIMTP
 40
0.0
  9
$DIMTM
 40
0.0
  9
$DIMTXT
 40
3.5
  9
$DIMCEN
 40
0.09
  9
$DIMTSZ
 40
0.0
  9
$DIMTOL
 70
     0
  9
$DIMLIM
 70
     0
  9
$DIMTIH
 70
     0
  9
$DIMTOH
 70
     0
  9
$DIMSE1
 70
     0
  9
$DIMSE2
 70
     0
  9
$DIMTAD
 70
     3
  9
$DIMZIN
 70
     8
  9
$DIMBLK
  1

  9
$DIMASO
 70
     1
  9
$DIMSHO
 70
     1
  9
$DIMPOST
  1

  9
$DIMAPOST
  1

  9
$DIMALT
 70
     0
  9
$DIMALTD
 70
     2
  9
$DIMALTF
 40
25.4
  9
$DIMLFAC
 40
1.0
  9
$DIMTOFL
 70
     1
  9
$DIMTVP
 40
0.7
  9
$DIMTIX
 70
     0
  9
$DIMSOXD
 70
     0
  9
$DIMSAH
 70
     0
  9
$DIMBLK1
  1

  9
$DIMBLK2
  1

  9
$DIMSTYLE
  2
Standard
  9
$DIMCLRD
 70
     0
  9
$DIMCLRE
 70
     0
  9
$DIMCLRT
 70
     0
  9
$DIMTFAC
 40
0.5
  9
$DIMGAP
 40
0.09
  9
$DIMJUST
 70
     0
  9
$DIMSD1
 70
     0
  9
$DIMSD2
 70
     0
  9
$DIMTOLJ
 70
     1
  9
$DIMTZIN
 70
     8
  9
$DIMALTZ
 70
     0
  9
$DIMALTTZ
 70
     0
  9
$DIMUPT
 70
     1
  9
$DIMDEC
 70
     2
  9
$DIMTDEC
 70
     4
  9
$DIMALTU
 70
     2
  9
$DIMALTTD
 70
     2
  9
$DIMTXSTY
  7
Standard
  9
$DIMAUNIT
 70
     0
  9
$DIMADEC
 70
     0
  9
$DIMALTRND
 40
0.0
  9
$DIMAZIN
 70
     0
  9
$DIMDSEP
 70
    46
  9
$DIMATFIT
 70
     2
  9
$DIMFRAC
 70
     0
  9
$DIMLDRBLK
  1

  9
$DIMLUNIT
 70
     2
  9
$DIMLWD
 70
    -2
  9
$DIMLWE
 70
    -2
  9
$DIMTMOVE
 70
     2
  9
$DIMFXL
 40
1.0
  9
$DIMFXLON
 70
     0
  9
$DIMJOGANG
 40
0.7853981633974483
  9
$DIMTFILL
 70
     0
  9
$DIMTFILLCLR
 70
     0
  9
$DIMARCSYM
 70
     0
  9
$DIMLTYPE
  6

  9
$DIMLTEX1
  6

  9
$DIMLTEX2
  6

  9
$DIMTXTDIRECTION
 70
     0
  9
$LUNITS
 70
     2
  9
$LUPREC
 70
     4
  9
$SKETCHINC
 40
0.1
  9
$FILLETRAD
 40
0.5
  9
$AUNITS
 70
     0
  9
$AUPREC
 70
     0
  9
$MENU
  1
.
  9
$ELEVATION
 40
0.0
  9
$PELEVATION
 40
0.0
  9
$THICKNESS
 40
0.0
  9
$LIMCHECK
 70
     0
  9
$CHAMFERA
 40
0.0
  9
$CHAMFERB
 40
0.0
  9
$CHAMFERC
 40
0.0
  9
$CHAMFERD
 40
0.0
  9
$SKPOLY
 70
     0
  9
$TDCREATE
 40
2459374.895381944
  9
$TDUCREATE
 40
2459374.520381944
  9
$TDUPDATE
 40
2459374.520392095
  9
$TDUUPDATE
 40
2459374.145392095
  9
$TDINDWG
 40
0.0000000116
  9
$TDUSRTIMER
 40
0.0000000116
  9
$USRTIMER
 70
     1
  9
$ANGBASE
 50
0.0
  9
$ANGDIR
 70
     0
  9
$PDMODE
 70
     0
  9
$PDSIZE
 40
0.0
  9
$PLINEWID
 40
0.0
  9
$SPLFRAME
 70
     0
  9
$SPLINETYPE
 70
     6
  9
$SPLINESEGS
 70
     8
  9
$HANDSEED
  5
54D
  9
$SURFTAB1
 70
     6
  9
$SURFTAB2
 70
     6
  9
$SURFTYPE
 70
     6
  9
$SURFU
 70
     6
  9
$SURFV
 70
     6
  9
$UCSBASE
  2

  9
$UCSNAME
  2

  9
$UCSORG
 10
0.0
 20
0.0
 30
0.0
  9
$UCSXDIR
 10
1.0
 20
0.0
 30
0.0
  9
$UCSYDIR
 10
0.0
 20
1.0
 30
0.0
  9
$UCSORTHOREF
  2

  9
$UCSORTHOVIEW
 70
     0
  9
$UCSORGTOP
 10
0.0
 20
0.0
 30
0.0
  9
$UCSORGBOTTOM
 10
0.0
 20
0.0
 30
0.0
  9
$UCSORGLEFT
 10
0.0
 20
0.0
 30
0.0
  9
$UCSORGRIGHT
 10
0.0
 20
0.0
 30
0.0
  9
$UCSORGFRONT
 10
0.0
 20
0.0
 30
0.0
  9
$UCSORGBACK
 10
0.0
 20
0.0
 30
0.0
  9
$PUCSBASE
  2

  9
$PUCSNAME
  2

  9
$PUCSORG
 10
0.0
 20
0.0
 30
0.0
  9
$PUCSXDIR
 10
1.0
 20
0.0
 30
0.0
  9
$PUCSYDIR
 10
0.0
 20
1.0
 30
0.0
  9
$PUCSORTHOREF
  2

  9
$PUCSORTHOVIEW
 70
     0
  9
$PUCSORGTOP
 10
0.0
 20
0.0
 30
0.0
  9
$PUCSORGBOTTOM
 10
0.0
 20
0.0
 30
0.0
  9
$PUCSORGLEFT
 10
0.0
 20
0.0
 30
0.0
  9
$PUCSORGRIGHT
 10
0.0
 20
0.0
 30
0.0
  9
$PUCSORGFRONT
 10
0.0
 20
0.0
 30
0.0
  9
$PUCSORGBACK
 10
0.0
 20
0.0
 30
0.0
  9
$USERI1
 70
     0
  9
$USERI2
 70
     0
  9
$USERI3
 70
     0
  9
$USERI4
 70
     0
  9
$USERI5
 70
     0
  9
$USERR1
 40
0.0
  9
$USERR2
 40
0.0
  9
$USERR3
 40
0.0
  9
$USERR4
 40
0.0
  9
$USERR5
 40
0.0
  9
$WORLDVIEW
 70
     1
  9
$SHADEDGE
 70
     3
  9
$SHADEDIF
 70
    70
  9
$TILEMODE
 70
     1
  9
$MAXACTVP
 70
    64
  9
$PINSBASE
 10
0.0
 20
0.0
 30
0.0
  9
$PLIMCHECK
 70
     0
  9
$PEXTMIN
 10
0.0
 20
0.0
 30
0.0
  9
$PEXTMAX
 10
297.0
 20
210.0
 30
0.0
  9
$PLIMMIN
 10
0.0
 20
0.0
  9
$PLIMMAX
 10
297.0
 20
210.0
  9
$UNITMODE
 70
     0
  9
$VISRETAIN
 70
     1
  9
$PLINEGEN
 70
     0
  9
$PSLTSCALE
 70
     1
  9
$TREEDEPTH
 70
  3020
  9
$CMLSTYLE
  2
Standard
  9
$CMLJUST
 70
     0
  9
$CMLSCALE
 40
1.0
  9
$PROXYGRAPHICS
 70
     1
  9
$MEASUREMENT
 70
     1
  9
$CELWEIGHT
370
    -1
  9
$ENDCAPS
280
     0
  9
$JOINSTYLE
280
     0
  9
$LWDISPLAY
290
     0
  9
$INSUNITS
 70
     4
  9
$HYPERLINKBASE
  1

  9
$STYLESHEET
  1

  9
$XEDIT
290
     1
  9
$CEPSNTYPE
380
     0
  9
$PSTYLEMODE
290
     1
  9
$FINGERPRINTGUID
  2
{511d68fc-eac4-4bfa-a9b9-aa68725bd756}
  9
$VERSIONGUID
  2
{FAEB1C32-E019-11D5-929B-00C0DF256EC4}
  9
$EXTNAMES
290
     1
  9
$PSVPSCALE
 40
0.0
  9
$OLESTARTUP
290
     0
  9
$SORTENTS
280
   127
  9
$INDEXCTL
280
     0
  9
$HIDETEXT
280
     1
  9
$XCLIPFRAME
280
     2
  9
$HALOGAP
280
     0
  9
$OBSCOLOR
 70
   257
  9
$OBSLTYPE
280
     0
  9
$INTERSECTIONDISPLAY
280
     0
  9
$INTERSECTIONCOLOR
 70
   257
  9
$DIMASSOC
280
     1
  9
$PROJECTNAME
  1

  9
$CAMERADISPLAY
290
     0
  9
$LENSLENGTH
 40
50.0
  9
$CAMERAHEIGHT
 40
0.0
  9
$STEPSPERSEC
 40
2.0
  9
$STEPSIZE
 40
6.0
  9
$3DDWFPREC
 40
2.0
  9
$PSOLWIDTH
 40
0.25
  9
$PSOLHEIGHT
 40
4.0
  9
$LOFTANG1
 40
1.570796326794897
  9
$LOFTANG2
 40
1.570796326794897
  9
$LOFTMAG1
 40
0.0
  9
$LOFTMAG2
 40
0.0
  9
$LOFTPARAM
 70
     7
  9
$LOFTNORMALS
280
     1
  9
$LATITUDE
 40
37.795
  9
$LONGITUDE
 40
-122.394
  9
$NORTHDIRECTION
 40
0.0
  9
$TIMEZONE
 70
 -8000
  9
$LIGHTGLYPHDISPLAY
280
     1
  9
$TILEMODELIGHTSYNCH
280
     1
  9
$CMATERIAL
347
44
  9
$SOLIDHIST
280
     0
  9
$SHOWHIST
280
     1
  9
$DWFFRAME
280
     2
  9
$DGNFRAME
280
     2
  9
$REALWORLDSCALE
290
     1
  9
$INTERFERECOLOR
 62
   256
  9
$CSHADOW
280
     0
  9
$SHADOWPLANELOCATION
 40
0.0
  0
ENDSEC
  0
SECTION
  2
CLASSES
  0
CLASS
  1
ACDBDICTIONARYWDFLT
  2
AcDbDictionaryWithDefault
  3
ObjectDBX Classes
 90
        0
 91
        3
280
     0
281
     0
  0
CLASS
  1
VISUALSTYLE
  2
AcDbVisualStyle
  3
ObjectDBX Classes
 90
     4095
 91
        3
280
     0
281
     0
  0
CLASS
  1
MATERIAL
  2
AcDbMaterial
  3
ObjectDBX Classes
 90
     1153
 91
        3
280
     0
281
     0
  0
CLASS
  1
SCALE
  2
AcDbScale
  3
ObjectDBX Classes
 90
     1153
 91
        3
280
     0
281
     0
  0
CLASS
  1
TABLESTYLE
  2
AcDbTableStyle
  3
ObjectDBX Classes
 90
     4095
 91
        3
280
     0
281
     0
  0
CLASS
  1
MLEADERSTYLE
  2
AcDbMLeaderStyle
  3
ACDB_MLEADERSTYLE_CLASS
 90
     4095
 91
        3
280
     0
281
     0
  0
CLASS
  1
SUN
  2
AcDbSun
  3
SCENEOE
 90
     1153
 91
        3
280
     0
281
     0
  0
CLASS
  1
DICTIONARYVAR
  2
AcDbDictionaryVar
  3
ObjectDBX Classes
 90
        0
 91
        3
280
     0
281
     0
  0
CLASS
  1
CELLSTYLEMAP
  2
AcDbCellStyleMap
  3
ObjectDBX Classes
 90
     1152
 91
        3
280
     0
281
     0
  0
ENDSEC
  0
SECTION
  2
TABLES
  0
TABLE
  2
VPORT
  5
8
330
0
100
AcDbSymbolTable
 70
     1
  0
VPORT
  5
29
330
8
100
AcDbSymbolTableRecord
100
AcDbViewportTableRecord
  2
*Active
 70
     0
 10
0.0
 20
0.0
 11
1.0
 21
1.0
 12
10.42990654205607
 22
4.5
 13
0.0
 23
0.0
 14
0.5
 24
0.5
 15
0.5
 25
0.5
 16
0.0
 26
0.0
 36
1.0
 17
0.0
 27
0.0
 37
0.0
 40
9.0
 41
1.972972972850329
 42
50.0
 43
0.0
 44
0.0
 50
0.0
 51
0.0
 71
     0
 72
   100
 73
     1
 74
     3
 75
     0
 76
     0
 77
     0
 78
     0
281
     0
 65
     1
110
0.0
120
0.0
130
0.0
111
1.0
121
0.0
131
0.0
112
0.0
122
1.0
132
0.0
 79
     0
146
0.0
348
2F
 60
     3
 61
     5
292
     1
282
     1
141
0.0
142
0.0
 63
   250
361
6D
  0
ENDTAB
  0
TABLE
  2
LTYPE
  5
5
330
0
100
AcDbSymbolTable
 70
     9
  0
LTYPE
  5
14
330
5
100
AcDbSymbolTableRecord
100
AcDbLinetypeTableRecord
  2
ByBlock
 70
     0
  3

 72
    65
 73
     0
 40
0.0
  0
LTYPE
  5
15
330
5
100
AcDbSymbolTableRecord
100
AcDbLinetypeTableRecord
  2
ByLayer
 70
     0
  3

 72
    65
 73
     0
 40
0.0
  0
LTYPE
  5
16
330
5
100
AcDbSymbolTableRecord
100
AcDbLinetypeTableRecord
  2
Continuous
 70
     0
  3
Solid line
 72
    65
 73
     0
 40
0.0
  0
LTYPE
  5
BC
330
5
100
AcDbSymbolTableRecord
100
AcDbLinetypeTableRecord
  2
DOT
 70
     0
  3
DOT
 72
    65
 73
     2
 40
4.0
 49
6.0
 74
     0
 49
-2.0
 74
     0
  0
LTYPE
  5
BD
330
5
100
AcDbSymbolTableRecord
100
AcDbLinetypeTableRecord
  2
HIDDEN
 70
     0
  3
HIDDEN
 72
    65
 73
     2
 40
4.2
 49
8.4
 74
     0
 49
-4.2
 74
     0
  0
LTYPE
  5
BE
330
5
100
AcDbSymbolTableRecord
100
AcDbLinetypeTableRecord
  2
DASHDOT
 70
     0
  3
DASHDOT
 72
    65
 73
     4
 40
14.5
 49
30.0
 74
     0
 49
-9.0
 74
     0
 49
2.5
 74
     0
 49
-9.0
 74
     0
  0
LTYPE
  5
BF
330
5
100
AcDbSymbolTableRecord
100
AcDbLinetypeTableRecord
  2
PHANTOM
 70
     0
  3
PHANTOM
 72
    65
 73
     6
 40
12.0
 49
30.0
 74
     0
 49
-9.0
 74
     0
 49
2.5
 74
     0
 49
-5.0
 74
     0
 49
2.5
 74
     0
 49
-9.0
 74
     0
  0
LTYPE
  5
C0
330
5
100
AcDbSymbolTableRecord
100
AcDbLinetypeTableRecord
  2
ACAD_ISO14W100
 70
     0
  3
ACAD_ISO14W100
 72
    65
 73
     8
 40
1.5
 49
12.0
 74
     0
 49
-3.0
 74
     0
 49
0.5
 74
     0
 49
-3.0
 74
     0
 49
0.5
 74
     0
 49
-3.0
 74
     0
 49
0.5
 74
     0
 49
-3.0
 74
     0
  0
LTYPE
  5
C1
330
5
100
AcDbSymbolTableRecord
100
AcDbLinetypeTableRecord
  2
ACAD_ISO06W100
 70
     0
  3
ACAD_ISO06W100
 72
    65
 73
     8
 40
13.5
 49
24.0
 74
     0
 49
-3.0
 74
     0
 49
0.5
 74
     0
 49
-3.0
 74
     0
 49
0.5
 74
     0
 49
-3.0
 74
     0
 49
0.5
 74
     0
 49
-3.0
 74
     0
  0
LTYPE
  5
C2
330
5
100
AcDbSymbolTableRecord
100
AcDbLinetypeTableRecord
  2
ACAD_ISO11W100
 70
     0
  3
ACAD_ISO11W100
 72
    65
 73
     6
 40
15.5
 49
12.0
 74
     0
 49
-3.0
 74
     0
 49
12.0
 74
     0
 49
-3.0
 74
     0
 49
0.5
 74
     0
 49
-3.0
 74
     0
  0
LTYPE
  5
C3
330
5
100
AcDbSymbolTableRecord
100
AcDbLinetypeTableRecord
  2
ACAD_ISO13W100
 70
     0
  3
ACAD_ISO13W100
 72
    65
 73
     8
 40
13.0
 49
12.0
 74
     0
 49
-3.0
 74
     0
 49
12.0
 74
     0
 49
-3.0
 74
     0
 49
0.5
 74
     0
 49
-3.0
 74
     0
 49
0.5
 74
     0
 49
-3.0
 74
     0
  0
ENDTAB
  0
TABLE
  2
LAYER
  5
2
330
0
100
AcDbSymbolTable
 70
    23
  0
LAYER
  5
10
330
2
100
AcDbSymbolTableRecord
100
AcDbLayerTableRecord
  2
0
 70
     0
 62
     7
  6
Continuous
370
    -3
390
F
347
46
348
0
  0
LAYER
  5
C4
330
2
100
AcDbSymbolTableRecord
100
AcDbLayerTableRecord
  2
1
 70
     0
 62
     7
  6
Continuous
370
     9
390
F
347
46
348
0
  0
LAYER
  5
C5
330
2
100
AcDbSymbolTableRecord
100
AcDbLayerTableRecord
  2
2
 70
     0
 62
   136
420
    32896
  6
Continuous
370
     9
390
F
347
46
348
0
  0
LAYER
  5
C6
330
2
100
AcDbSymbolTableRecord
100
AcDbLayerTableRecord
  2
3
 70
     0
 62
   216
420
  8388736
  6
Continuous
370
     9
390
F
347
46
348
0
  0
LAYER
  5
C7
330
2
100
AcDbSymbolTableRecord
100
AcDbLayerTableRecord
  2
4
 70
     0
 62
    56
420
  8421376
  6
Continuous
370
     9
390
F
347
46
348
0
  0
LAYER
  5
C8
330
2
100
AcDbSymbolTableRecord
100
AcDbLayerTableRecord
  2
5
 70
     0
 62
    96
420
    32768
  6
Continuous
370
     9
390
F
347
46
348
0
  0
LAYER
  5
C9
330
2
100
AcDbSymbolTableRecord
100
AcDbLayerTableRecord
  2
6
 70
     0
 62
    16
420
  8388608
  6
Continuous
370
     9
390
F
347
46
348
0
  0
LAYER
  5
CA
330
2
100
AcDbSymbolTableRecord
100
AcDbLayerTableRecord
  2
7
 70
     0
 62
     4
  6
Continuous
370
     9
390
F
347
46
348
0
  0
LAYER
  5
CB
330
2
100
AcDbSymbolTableRecord
100
AcDbLayerTableRecord
  2
8
 70
     0
 62
     6
  6
Continuous
370
     9
390
F
347
46
348
0
  0
LAYER
  5
CC
330
2
100
AcDbSymbolTableRecord
100
AcDbLayerTableRecord
  2
9
 70
     0
 62
     2
  6
Continuous
370
     9
390
F
347
46
348
0
  0
LAYER
  5
CD
330
2
100
AcDbSymbolTableRecord
100
AcDbLayerTableRecord
  2
10
 70
     0
 62
     3
  6
Continuous
370
     9
390
F
347
46
348
0
  0
LAYER
  5
CE
330
2
100
AcDbSymbolTableRecord
100
AcDbLayerTableRecord
  2
11
 70
     0
 62
     8
420
  8421504
  6
Continuous
370
     9
390
F
347
46
348
0
  0
LAYER
  5
CF
330
2
100
AcDbSymbolTableRecord
100
AcDbLayerTableRecord
  2
12
 70
     0
 62
   138
420
    20560
  6
Continuous
370
     9
390
F
347
46
348
0
  0
LAYER
  5
D0
330
2
100
AcDbSymbolTableRecord
100
AcDbLayerTableRecord
  2
13
 70
     0
 62
   218
420
  5242960
  6
Continuous
370
     9
390
F
347
46
348
0
  0
LAYER
  5
D1
330
2
100
AcDbSymbolTableRecord
100
AcDbLayerTableRecord
  2
14
 70
     0
 62
    58
420
  5263360
  6
Continuous
370
     9
390
F
347
46
348
0
  0
LAYER
  5
D2
330
2
100
AcDbSymbolTableRecord
100
AcDbLayerTableRecord
  2
15
 70
     0
 62
    98
420
    20480
  6
Continuous
370
     9
390
F
347
46
348
0
  0
LAYER
  5
D3
330
2
100
AcDbSymbolTableRecord
100
AcDbLayerTableRecord
  2
16
 70
     0
 62
    18
420
  5242880
  6
Continuous
370
     9
390
F
347
46
348
0
  0
LAYER
  5
D4
330
2
100
AcDbSymbolTableRecord
100
AcDbLayerTableRecord
  2
17
 70
     0
 62
   132
420
    49344
  6
Continuous
370
     9
390
F
347
46
348
0
  0
LAYER
  5
D5
330
2
100
AcDbSymbolTableRecord
100
AcDbLayerTableRecord
  2
18
 70
     0
 62
   212
420
 12583104
  6
Continuous
370
     9
390
F
347
46
348
0
  0
LAYER
  5
D6
330
2
100
AcDbSymbolTableRecord
100
AcDbLayerTableRecord
  2
19
 70
     0
 62
    52
420
 12632064
  6
Continuous
370
     9
390
F
347
46
348
0
  0
LAYER
  5
D7
330
2
100
AcDbSymbolTableRecord
100
AcDbLayerTableRecord
  2
20
 70
     0
 62
   251
420
  5263440
  6
Continuous
370
     9
390
F
347
46
348
0
  0
LAYER
  5
D8
330
2
100
AcDbSymbolTableRecord
100
AcDbLayerTableRecord
  2
21
 70
     0
 62
     7
  6
Continuous
370
     9
390
F
347
46
348
0
  0
LAYER
  5
D9
330
2
100
AcDbSymbolTableRecord
100
AcDbLayerTableRecord
  2
100
 70
     0
 62
     7
  6
Continuous
370
     9
390
F
347
46
348
0
  0
ENDTAB
  0
TABLE
  2
STYLE
  5
3
330
0
100
AcDbSymbolTable
 70
     2
  0
STYLE
  5
11
330
3
100
AcDbSymbolTableRecord
100
AcDbTextStyleTableRecord
  2
Standard
 70
     0
 40
0.0
 41
1.0
 50
0.0
 71
     0
 42
5.0
  3
txt
  4
bigfont
  0
STYLE
  5
6F
330
3
100
AcDbSymbolTableRecord
100
AcDbTextStyleTableRecord
  2
T_STANDARD
 70
     4
 40
10.0
 41
1.0
 50
0.0
 71
     0
 42
5.0
  3
txt
  4
bigfont
1001
ACAD
1000

1071
      256
  0
ENDTAB
  0
TABLE
  2
VIEW
  5
6
330
0
100
AcDbSymbolTable
 70
     0
  0
ENDTAB
  0
TABLE
  2
UCS
  5
7
330
0
100
AcDbSymbolTable
 70
     0
  0
ENDTAB
  0
TABLE
  2
APPID
  5
9
330
0
100
AcDbSymbolTable
 70
     2
  0
APPID
  5
12
330
9
100
AcDbSymbolTableRecord
100
AcDbRegAppTableRecord
  2
ACAD
 70
     0
  0
APPID
  5
6E
330
9
100
AcDbSymbolTableRecord
100
AcDbRegAppTableRecord
  2
ODA
 70
     0
  0
ENDTAB
  0
TABLE
  2
DIMSTYLE
  5
A
330
0
100
AcDbSymbolTable
 70
     1
100
AcDbDimStyleTable
  0
DIMSTYLE
105
27
330
A
100
AcDbSymbolTableRecord
100
AcDbDimStyleTableRecord
  2
Standard
 70
     0
178
     0
340
11
  0
ENDTAB
  0
TABLE
  2
BLOCK_RECORD
  5
1
330
0
100
AcDbSymbolTable
 70
    16
  0
BLOCK_RECORD
  5
1F
330
1
100
AcDbSymbolTableRecord
100
AcDbBlockTableRecord
  2
*Model_Space
340
22
 70
     0
280
     1
281
     0
  0
BLOCK_RECORD
  5
1B
330
1
100
AcDbSymbolTableRecord
100
AcDbBlockTableRecord
  2
*Paper_Space
340
1E
 70
     0
280
     1
281
     0
  0
BLOCK_RECORD
  5
23
330
1
100
AcDbSymbolTableRecord
100
AcDbBlockTableRecord
  2
*Paper_Space0
340
26
 70
     0
280
     1
281
     0
  0
BLOCK_RECORD
  5
70
330
1
100
AcDbSymbolTableRecord
100
AcDbBlockTableRecord
  2
_ORIGIN
340
0
 70
     0
280
     1
281
     0
  0
BLOCK_RECORD
  5
75
330
1
100
AcDbSymbolTableRecord
100
AcDbBlockTableRecord
  2
_DOTBLANK
340
0
 70
     0
280
     1
281
     0
  0
BLOCK_RECORD
  5
7A
330
1
100
AcDbSymbolTableRecord
100
AcDbBlockTableRecord
  2
_DOT
340
0
 70
     0
280
     1
281
     0
  0
BLOCK_RECORD
  5
7F
330
1
100
AcDbSymbolTableRecord
100
AcDbBlockTableRecord
  2
_OPEN
340
0
 70
     0
280
     1
281
     0
  0
BLOCK_RECORD
  5
85
330
1
100
AcDbSymbolTableRecord
100
AcDbBlockTableRecord
  2
_CLOSED
340
0
 70
     0
280
     1
281
     0
  0
BLOCK_RECORD
  5
8C
330
1
100
AcDbSymbolTableRecord
100
AcDbBlockTableRecord
  2
_CLOSEDBLANK
340
0
 70
     0
280
     1
281
     0
  0
BLOCK_RECORD
  5
92
330
1
100
AcDbSymbolTableRecord
100
AcDbBlockTableRecord
  2
_ARROWFILLED
340
0
 70
     0
280
     1
281
     0
  0
BLOCK_RECORD
  5
96
330
1
100
AcDbSymbolTableRecord
100
AcDbBlockTableRecord
  2
_BOXBLANK
340
0
 70
     0
280
     1
281
     0
  0
BLOCK_RECORD
  5
9E
330
1
100
AcDbSymbolTableRecord
100
AcDbBlockTableRecord
  2
_BOXFILLED
340
0
 70
     0
280
     1
281
     0
  0
BLOCK_RECORD
  5
A3
330
1
100
AcDbSymbolTableRecord
100
AcDbBlockTableRecord
  2
_INTEGRAL
340
0
 70
     0
280
     1
281
     0
  0
BLOCK_RECORD
  5
A8
330
1
100
AcDbSymbolTableRecord
100
AcDbBlockTableRecord
  2
_OBLIQUE
340
0
 70
     0
280
     1
281
     0
  0
BLOCK_RECORD
  5
AC
330
1
100
AcDbSymbolTableRecord
100
AcDbBlockTableRecord
  2
_NONE
340
0
 70
     0
280
     1
281
     0
  0
BLOCK_RECORD
  5
AF
330
1
100
AcDbSymbolTableRecord
100
AcDbBlockTableRecord
  2
MARK_OPEN
340
0
 70
     0
280
     1
281
     0
  0
BLOCK_RECORD
  5
B4
330
1
100
AcDbSymbolTableRecord
100
AcDbBlockTableRecord
  2
MARK_ORIGIN
340
0
 70
     0
280
     1
281
     0
  0
BLOCK_RECORD
  5
B8
330
1
100
AcDbSymbolTableRecord
100
AcDbBlockTableRecord
  2
MARK_DOT
340
0
 70
     0
280
     1
281
     0
  0
ENDTAB
  0
ENDSEC
  0
SECTION
  2
BLOCKS
  0
BLOCK
  5
20
330
1F
100
AcDbEntity
  8
0
100
AcDbBlockBegin
  2
*Model_Space
 70
     0
 10
0.0
 20
0.0
 30
0.0
  3
*Model_Space
  1

  0
ENDBLK
  5
21
330
1F
100
AcDbEntity
  8
0
100
AcDbBlockEnd
  0
BLOCK
  5
1C
330
1B
100
AcDbEntity
 67
     1
  8
0
100
AcDbBlockBegin
  2
*Paper_Space
 70
     0
 10
0.0
 20
0.0
 30
0.0
  3
*Paper_Space
  1

  0
ENDBLK
  5
1D
330
1B
100
AcDbEntity
 67
     1
  8
0
100
AcDbBlockEnd
  0
BLOCK
  5
24
330
23
100
AcDbEntity
  8
0
100
AcDbBlockBegin
  2
*Paper_Space0
 70
     0
 10
0.0
 20
0.0
 30
0.0
  3
*Paper_Space0
  1

  0
ENDBLK
  5
25
330
23
100
AcDbEntity
  8
0
100
AcDbBlockEnd
  0
BLOCK
  5
73
330
70
100
AcDbEntity
  8
0
100
AcDbBlockBegin
  2
_ORIGIN
 70
     0
 10
0.0
 20
0.0
 30
0.0
  3
_ORIGIN
  1

  0
CIRCLE
  5
71
330
70
100
AcDbEntity
  8
0
 62
     0
100
AcDbCircle
 10
0.0
 20
0.0
 30
0.0
 40
0.5
  0
LINE
  5
72
330
70
100
AcDbEntity
  8
0
 62
     0
100
AcDbLine
 10
0.0
 20
0.0
 30
0.0
 11
-1.0
 21
0.0
 31
0.0
  0
ENDBLK
  5
74
330
70
100
AcDbEntity
  8
0
100
AcDbBlockEnd
  0
BLOCK
  5
78
330
75
100
AcDbEntity
  8
0
100
AcDbBlockBegin
  2
_DOTBLANK
 70
     0
 10
0.0
 20
0.0
 30
0.0
  3
_DOTBLANK
  1

  0
CIRCLE
  5
76
330
75
100
AcDbEntity
  8
0
 62
     0
100
AcDbCircle
 10
0.0
 20
0.0
 30
0.0
 40
0.5
  0
LINE
  5
77
330
75
100
AcDbEntity
  8
0
 62
     0
100
AcDbLine
 10
-0.5
 20
0.0
 30
0.0
 11
-1.0
 21
0.0
 31
0.0
  0
ENDBLK
  5
79
330
75
100
AcDbEntity
  8
0
100
AcDbBlockEnd
  0
BLOCK
  5
7D
330
7A
100
AcDbEntity
  8
0
100
AcDbBlockBegin
  2
_DOT
 70
     0
 10
0.0
 20
0.0
 30
0.0
  3
_DOT
  1

  0
LWPOLYLINE
  5
7B
330
7A
100
AcDbEntity
  8
0
 62
     0
100
AcDbPolyline
 90
        2
 70
     1
 43
0.5
 10
-0.25
 20
0.0
 42
1.0
 10
0.25
 20
0.0
 42
1.0
  0
LINE
  5
7C
330
7A
100
AcDbEntity
  8
0
 62
     0
100
AcDbLine
 10
-0.5
 20
0.0
 30
0.0
 11
-1.0
 21
0.0
 31
0.0
  0
ENDBLK
  5
7E
330
7A
100
AcDbEntity
  8
0
100
AcDbBlockEnd
  0
BLOCK
  5
83
330
7F
100
AcDbEntity
  8
0
100
AcDbBlockBegin
  2
_OPEN
 70
     0
 10
0.0
 20
0.0
 30
0.0
  3
_OPEN
  1

  0
LINE
  5
80
330
7F
100
AcDbEntity
  8
0
 62
     0
100
AcDbLine
 10
0.0
 20
0.0
 30
0.0
 11
-1.0
 21
0.1666666666666667
 31
0.0
  0
LINE
  5
81
330
7F
100
AcDbEntity
  8
0
 62
     0
100
AcDbLine
 10
0.0
 20
0.0
 30
0.0
 11
-1.0
 21
-0.1666666666666667
 31
0.0
  0
LINE
  5
82
330
7F
100
AcDbEntity
  8
0
 62
     0
100
AcDbLine
 10
0.0
 20
0.0
 30
0.0
 11
-1.0
 21
0.0
 31
0.0
  0
ENDBLK
  5
84
330
7F
100
AcDbEntity
  8
0
100
AcDbBlockEnd
  0
BLOCK
  5
8A
330
85
100
AcDbEntity
  8
0
100
AcDbBlockBegin
  2
_CLOSED
 70
     0
 10
0.0
 20
0.0
 30
0.0
  3
_CLOSED
  1

  0
LINE
  5
86
330
85
100
AcDbEntity
  8
0
 62
     0
100
AcDbLine
 10
0.0
 20
0.0
 30
0.0
 11
-1.0
 21
0.1666666666666667
 31
0.0
  0
LINE
  5
87
330
85
100
AcDbEntity
  8
0
 62
     0
100
AcDbLine
 10
0.0
 20
0.0
 30
0.0
 11
-1.0
 21
-0.1666666666666667
 31
0.0
  0
LINE
  5
88
330
85
100
AcDbEntity
  8
0
 62
     0
100
AcDbLine
 10
-1.0
 20
0.1666666666666667
 30
0.0
 11
-1.0
 21
-0.1666666666666667
 31
0.0
  0
LINE
  5
89
330
85
100
AcDbEntity
  8
0
 62
     0
100
AcDbLine
 10
0.0
 20
0.0
 30
0.0
 11
-1.0
 21
0.0
 31
0.0
  0
ENDBLK
  5
8B
330
85
100
AcDbEntity
  8
0
100
AcDbBlockEnd
  0
BLOCK
  5
90
330
8C
100
AcDbEntity
  8
0
100
AcDbBlockBegin
  2
_CLOSEDBLANK
 70
     0
 10
0.0
 20
0.0
 30
0.0
  3
_CLOSEDBLANK
  1

  0
LINE
  5
8D
330
8C
100
AcDbEntity
  8
0
 62
     0
100
AcDbLine
 10
0.0
 20
0.0
 30
0.0
 11
-1.0
 21
0.1666666666666667
 31
0.0
  0
LINE
  5
8E
330
8C
100
AcDbEntity
  8
0
 62
     0
100
AcDbLine
 10
0.0
 20
0.0
 30
0.0
 11
-1.0
 21
-0.1666666666666667
 31
0.0
  0
LINE
  5
8F
330
8C
100
AcDbEntity
  8
0
 62
     0
100
AcDbLine
 10
-1.0
 20
0.1666666666666667
 30
0.0
 11
-1.0
 21
-0.1666666666666667
 31
0.0
  0
ENDBLK
  5
91
330
8C
100
AcDbEntity
  8
0
100
AcDbBlockEnd
  0
BLOCK
  5
94
330
92
100
AcDbEntity
  8
0
100
AcDbBlockBegin
  2
_ARROWFILLED
 70
     0
 10
0.0
 20
0.0
 30
0.0
  3
_ARROWFILLED
  1

  0
SOLID
  5
93
330
92
100
AcDbEntity
  8
0
 62
     0
100
AcDbTrace
 10
0.0
 20
0.0
 30
0.0
 11
-1.0
 21
-0.1666666666666667
 31
0.0
 12
-1.0
 22
0.1666666666666667
 32
0.0
 13
0.0
 23
0.0
 33
0.0
  0
ENDBLK
  5
95
330
92
100
AcDbEntity
  8
0
100
AcDbBlockEnd
  0
BLOCK
  5
9C
330
96
100
AcDbEntity
  8
0
100
AcDbBlockBegin
  2
_BOXBLANK
 70
     0
 10
0.0
 20
0.0
 30
0.0
  3
_BOXBLANK
  1

  0
LINE
  5
97
330
96
100
AcDbEntity
  8
0
 62
     0
100
AcDbLine
 10
-0.5
 20
-0.5
 30
0.0
 11
0.5
 21
-0.5
 31
0.0
  0
LINE
  5
98
330
96
100
AcDbEntity
  8
0
 62
     0
100
AcDbLine
 10
0.5
 20
-0.5
 30
0.0
 11
0.5
 21
0.5
 31
0.0
  0
LINE
  5
99
330
96
100
AcDbEntity
  8
0
 62
     0
100
AcDbLine
 10
0.5
 20
0.5
 30
0.0
 11
-0.5
 21
0.5
 31
0.0
  0
LINE
  5
9A
330
96
100
AcDbEntity
  8
0
 62
     0
100
AcDbLine
 10
-0.5
 20
0.5
 30
0.0
 11
-0.5
 21
-0.5
 31
0.0
  0
LINE
  5
9B
330
96
100
AcDbEntity
  8
0
 62
     0
100
AcDbLine
 10
-0.5
 20
0.0
 30
0.0
 11
-1.0
 21
0.0
 31
0.0
  0
ENDBLK
  5
9D
330
96
100
AcDbEntity
  8
0
100
AcDbBlockEnd
  0
BLOCK
  5
A1
330
9E
100
AcDbEntity
  8
0
100
AcDbBlockBegin
  2
_BOXFILLED
 70
     0
 10
0.0
 20
0.0
 30
0.0
  3
_BOXFILLED
  1

  0
SOLID
  5
9F
330
9E
100
AcDbEntity
  8
0
 62
     0
100
AcDbTrace
 10
-0.5
 20
0.5
 30
0.0
 11
0.5
 21
0.5
 31
0.0
 12
-0.5
 22
-0.5
 32
0.0
 13
0.5
 23
-0.5
 33
0.0
  0
LINE
  5
A0
330
9E
100
AcDbEntity
  8
0
 62
     0
100
AcDbLine
 10
-0.5
 20
0.0
 30
0.0
 11
-1.0
 21
0.0
 31
0.0
  0
ENDBLK
  5
A2
330
9E
100
AcDbEntity
  8
0
100
AcDbBlockEnd
  0
BLOCK
  5
A6
330
A3
100
AcDbEntity
  8
0
100
AcDbBlockBegin
  2
_INTEGRAL
 70
     0
 10
0.0
 20
0.0
 30
0.0
  3
_INTEGRAL
  1

  0
ARC
  5
A4
330
A3
100
AcDbEntity
  8
0
 62
     0
100
AcDbCircle
 10
0.444888
 20
-0.0913346
 30
0.0
 40
0.4541666
100
AcDbArc
 50
101.9999999999999
 51
167.9999999999998
  0
ARC
  5
A5
330
A3
100
AcDbEntity
  8
0
 62
     0
100
AcDbCircle
 10
-0.444888
 20
0.0913346
 30
0.0
 40
0.4541666
100
AcDbArc
 50
281.9999999999997
 51
347.9999999999997
  0
ENDBLK
  5
A7
330
A3
100
AcDbEntity
  8
0
100
AcDbBlockEnd
  0
BLOCK
  5
AA
330
A8
100
AcDbEntity
  8
0
100
AcDbBlockBegin
  2
_OBLIQUE
 70
     0
 10
0.0
 20
0.0
 30
0.0
  3
_OBLIQUE
  1

  0
LINE
  5
A9
330
A8
100
AcDbEntity
  8
0
 62
     0
100
AcDbLine
 10
-0.5
 20
-0.5
 30
0.0
 11
0.5
 21
0.5
 31
0.0
  0
ENDBLK
  5
AB
330
A8
100
AcDbEntity
  8
0
100
AcDbBlockEnd
  0
BLOCK
  5
AD
330
AC
100
AcDbEntity
  8
0
100
AcDbBlockBegin
  2
_NONE
 70
     0
 10
0.0
 20
0.0
 30
0.0
  3
_NONE
  1

  0
ENDBLK
  5
AE
330
AC
100
AcDbEntity
  8
0
100
AcDbBlockEnd
  0
BLOCK
  5
B2
330
AF
100
AcDbEntity
  8
0
100
AcDbBlockBegin
  2
MARK_OPEN
 70
     0
 10
0.0
 20
0.0
 30
0.0
  3
MARK_OPEN
  1

  0
LINE
  5
B0
330
AF
100
AcDbEntity
  8
0
 62
     0
100
AcDbLine
 10
0.0
 20
0.0
 30
0.0
 11
-1.0
 21
0.1666666666666667
 31
0.0
  0
LINE
  5
B1
330
AF
100
AcDbEntity
  8
0
 62
     0
100
AcDbLine
 10
0.0
 20
0.0
 30
0.0
 11
-1.0
 21
-0.1666666666666667
 31
0.0
  0
ENDBLK
  5
B3
330
AF
100
AcDbEntity
  8
0
100
AcDbBlockEnd
  0
BLOCK
  5
B6
330
B4
100
AcDbEntity
  8
0
100
AcDbBlockBegin
  2
MARK_ORIGIN
 70
     0
 10
0.0
 20
0.0
 30
0.0
  3
MARK_ORIGIN
  1

  0
CIRCLE
  5
B5
330
B4
100
AcDbEntity
  8
0
 62
     0
100
AcDbCircle
 10
0.0
 20
0.0
 30
0.0
 40
0.5
  0
ENDBLK
  5
B7
330
B4
100
AcDbEntity
  8
0
100
AcDbBlockEnd
  0
BLOCK
  5
BA
330
B8
100
AcDbEntity
  8
0
100
AcDbBlockBegin
  2
MARK_DOT
 70
     0
 10
0.0
 20
0.0
 30
0.0
  3
MARK_DOT
  1

  0
LWPOLYLINE
  5
B9
330
B8
100
AcDbEntity
  8
0
 62
     0
100
AcDbPolyline
 90
        2
 70
     1
 43
0.5
 10
-0.25
 20
0.0
 42
1.0
 10
0.25
 20
0.0
 42
1.0
  0
ENDBLK
  5
BB
330
B8
100
AcDbEntity
  8
0
100
AcDbBlockEnd
  0
ENDSEC
  0
SECTION
  2
ENTITIES
  0
LINE
  5
DA
330
1F
100
AcDbEntity
  8
100
  6
Continuous
 62
     7
370
     9
100
AcDbLine
 10
48.29170141327247
 20
134.3504487798455
 30
0.0
 11
49.37568578827247
 21
134.7606050298455
 31
0.0
  0
LINE
  5
DB
330
1F
100
AcDbEntity
  8
100
  6
Continuous
 62
     7
370
     9
100
AcDbLine
 10
49.37568578827247
 20
134.7606050298455
 30
0.0
 11
50.34248266327247
 21
134.9070894048455
 31
0.0
  0
LINE
  5
DC
330
1F
100
AcDbEntity
  8
100
  6
Continuous
 62
     7
370
     9
100
AcDbLine
 10
50.34248266327247
 20
134.9070894048455
 30
0.0
 11
51.36787328827247
 21
134.9363862798455
 31
0.0
  0
LINE
  5
DD
330
1F
100
AcDbEntity
  8
100
  6
Continuous
 62
     7
370
     9
100
AcDbLine
 10
51.36787328827247
 20
134.9363862798455
 30
0.0
 11
52.74482641327247
 21
134.6434175298455
 31
0.0
  0
LINE
  5
DE
330
1F
100
AcDbEntity
  8
100
  6
Continuous
 62
     7
370
     9
100
AcDbLine
 10
52.74482641327247
 20
134.6434175298455
 30
0.0
 11
54.20967016327247
 21
133.9109956548455
 31
0.0
  0
LINE
  5
DF
330
1F
100
AcDbEntity
  8
100
  6
Continuous
 62
     7
370
     9
100
AcDbLine
 10
-23.59550561797753
 20
0.6321870610955216
 30
0.0
 11
-23.41972436797753
 21
-1.242812938904478
 31
0.0
  0
LINE
  5
E0
330
1F
100
AcDbEntity
  8
100
  6
Continuous
 62
     7
370
    30
100
AcDbLine
 10
145.8502951632725
 20
-53.78675825140448
 30
0.0
 11
146.2992567402298
 21
-53.17148217266782
 31
0.0
  0
LINE
  5
E1
330
1F
100
AcDbEntity
  8
100
  6
Continuous
 62
     7
370
    30
100
AcDbLine
 10
145.8502951632725
 20
-54.90003950140448
 30
0.0
 11
145.8502951632725
 21
-53.78675825140448
 31
0.0
  0
LINE
  5
E2
330
1F
100
AcDbEntity
  8
100
  6
Continuous
 62
     7
370
    30
100
AcDbLine
 10
146.2311545382725
 20
-55.63246137640448
 30
0.0
 11
145.8502951632725
 21
-54.90003950140448
 31
0.0
  0
LINE
  5
E3
330
1F
100
AcDbEntity
  8
100
  6
Continuous
 62
     7
370
    30
100
AcDbLine
 10
147.1048658784787
 20
-55.8522181418684
 30
0.0
 11
146.2311545382725
 21
-55.63246137640448
 31
0.0
  0
LINE
  5
E4
330
1F
100
AcDbEntity
  8
100
  6
Continuous
 62
     7
370
    30
100
AcDbLine
 10
137.5299826632725
 20
-55.22230512640448
 30
0.0
 11
137.9694357882725
 21
-55.22230512640448
 31
0.0
  0
LINE
  5
E5
330
1F
100
AcDbEntity
  8
100
  6
Continuous
 62
     7
370
    30
100
AcDbLine
 10
137.2663107882725
 20
-56.04261762640448
 30
0.0
 11
137.5299826632725
 21
-55.22230512640448
 31
0.0
  0
LINE
  5
E6
330
1F
100
AcDbEntity
  8
100
  6
Continuous
 62
     7
370
    30
100
AcDbLine
 10
137.2370139132725
 20
-56.92152387640448
 30
0.0
 11
137.2663107882725
 21
-56.04261762640448
 31
0.0
  0
LINE
  5
E7
330
1F
100
AcDbEntity
  8
100
  6
Continuous
 62
     7
370
    30
100
AcDbLine
 10
137.4713889132725
 20
-57.33168012640448
 30
0.0
 11
137.2370139132725
 21
-56.92152387640448
 31
0.0
  0
LINE
  5
E8
330
1F
100
AcDbEntity
  8
100
  6
Continuous
 62
     7
370
    30
100
AcDbLine
 10
138.4034982882725
 20
-57.40527387640448
 30
0.0
 11
137.4713889132725
 21
-57.33168012640448
 31
0.0
  0
LINE
  5
E9
330
1F
100
AcDbEntity
  8
100
  6
Continuous
 62
     7
370
    30
100
AcDbLine
 10
137.7057639132725
 20
-58.35707075140448
 30
0.0
 11
136.6217795382725
 21
-58.06410200140448
 31
0.0
  0
LINE
  5
EA
330
1F
100
AcDbEntity
  8
100
  6
Continuous
 62
     7
370
    30
100
AcDbLine
 10
138.2624045382725
 20
-58.18128950140448
 30
0.0
 11
137.7057639132725
 21
-58.35707075140448
 31
0.0
  0
LINE
  5
EB
330
1F
100
AcDbEntity
  8
100
  6
Continuous
 62
     7
370
    30
100
AcDbLine
 10
138.4967795382725
 20
-56.89222700140448
 30
0.0
 11
138.2624045382725
 21
-58.18128950140448
 31
0.0
  0
LINE
  5
EC
330
1F
100
AcDbEntity
  8
100
  6
Continuous
 62
     7
370
    30
100
AcDbLine
 10
138.4088889132725
 20
-55.74964887640448
 30
0.0
 11
138.4967795382725
 21
-56.89222700140448
 31
0.0
  0
LINE
  5
ED
330
1F
100
AcDbEntity
  8
100
  6
Continuous
 62
     7
370
    30
100
AcDbLine
 10
137.9694357882725
 20
-55.22230512640448
 30
0.0
 11
138.4088889132725
 21
-55.74964887640448
 31
0.0
  0
LINE
  5
EE
330
1F
100
AcDbEntity
  8
100
  6
Continuous
 62
     7
370
    30
100
AcDbLine
 10
137.0319357882725
 20
-55.22230512640448
 30
0.0
 11
137.9694357882725
 21
-55.22230512640448
 31
0.0
  0
LINE
  5
EF
330
1F
100
AcDbEntity
  8
100
  6
Continuous
 62
     7
370
    30
100
AcDbLine
 10
136.3874045382725
 20
-55.83753950140448
 30
0.0
 11
137.0319357882725
 21
-55.22230512640448
 31
0.0
  0
LINE
  5
F0
330
1F
100
AcDbEntity
  8
100
  6
Continuous
 62
     7
370
    30
100
AcDbLine
 10
136.2702170382725
 20
-57.15589887640448
 30
0.0
 11
136.3874045382725
 21
-55.83753950140448
 31
0.0
  0
LINE
  5
F1
330
1F
100
AcDbEntity
  8
100
  6
Continuous
 62
     7
370
    30
100
AcDbLine
 10
136.6217795382725
 20
-58.06410200140448
 30
0.0
 11
136.2702170382725
 21
-57.15589887640448
 31
0.0
  0
LINE
  5
F2
330
1F
100
AcDbEntity
  8
100
  6
Continuous
 62
     7
370
    30
100
AcDbLine
 10
146.8756857882725
 20
-56.13050825140448
 30
0.0
 11
145.6452170382725
 21
-56.04261762640448
 31
0.0
  0
LINE
  5
F3
330
1F
100
AcDbEntity
  8
100
  6
Continuous
 62
     7
370
    30
100
AcDbLine
 10
147.2858420382725
 20
-55.63246137640448
 30
0.0
 11
146.8756857882725
 21
-56.13050825140448
 31
0.0
  0
LINE
  5
F4
330
1F
100
AcDbEntity
  8
100
  6
Continuous
 62
     7
370
    30
100
AcDbLine
 10
147.3444357882725
 20
-54.43128950140448
 30
0.0
 11
147.2858420382725
 21
-55.63246137640448
 31
0.0
  0
LINE
  5
F5
330
1F
100
AcDbEntity
  8
100
  6
Continuous
 62
     7
370
    30
100
AcDbLine
 10
147.0221701632725
 20
-53.28871137640448
 30
0.0
 11
147.3444357882725
 21
-54.43128950140448
 31
0.0
  0
LINE
  5
F6
330
1F
100
AcDbEntity
  8
100
  6
Continuous
 62
     7
370
    30
100
AcDbLine
 10
145.9381857882725
 20
-53.11293012640448
 30
0.0
 11
147.0221701632725
 21
-53.28871137640448
 31
0.0
  0
LINE
  5
F7
330
1F
100
AcDbEntity
  8
100
  6
Continuous
 62
     7
370
    30
100
AcDbLine
 10
145.0885764132725
 20
-53.43519575140448
 30
0.0
 11
145.9381857882725
 21
-53.11293012640448
 31
0.0
  0
LINE
  5
F8
330
1F
100
AcDbEntity
  8
100
  6
Continuous
 62
     7
370
    30
100
AcDbLine
 10
145.0006857882725
 20
-54.34339887640448
 30
0.0
 11
145.0885764132725
 21
-53.43519575140448
 31
0.0
  0
LINE
  5
F9
330
1F
100
AcDbEntity
  8
100
  6
Continuous
 62
     7
370
    30
100
AcDbLine
 10
145.1178732882725
 20
-55.31019575140448
 30
0.0
 11
145.0006857882725
 21
-54.34339887640448
 31
0.0
  0
LINE
  5
FA
330
1F
100
AcDbEntity
  8
100
  6
Continuous
 62
     7
370
    30
100
AcDbLine
 10
145.6452170382725
 20
-56.04261762640448
 30
0.0
 11
145.1178732882725
 21
-55.31019575140448
 31
0.0
  0
LINE
  5
FB
330
1F
100
AcDbEntity
  8
100
  6
Continuous
 62
     7
370
    30
100
AcDbLine
 10
149.2780295382725
 20
-57.62464887640448
 30
0.0
 11
148.7506857882725
 21
-58.75257856390448
 31
0.0
  0
LINE
  5
FC
330
1F
100
AcDbEntity
  8
100
  6
Continuous
 62
     7
370
    30
100
AcDbLine
 10
149.6588889132725
 20
-56.92152387640448
 30
0.0
 11
149.2780295382725
 21
-57.62464887640448
 31
0.0
  0
LINE
  5
FD
330
1F
100
AcDbEntity
  8
100
  6
Continuous
 62
     7
370
    30
100
AcDbLine
 10
149.8053732882725
 20
-55.95472700140448
 30
0.0
 11
149.6588889132725
 21
-56.92152387640448
 31
0.0
  0
LINE
  5
FE
330
1F
100
AcDbEntity
  8
100
  6
Continuous
 62
     7
370
    30
100
AcDbLine
 10
149.6295920382725
 20
-54.81214887640448
 30
0.0
 11
149.8053732882725
 21
-55.95472700140448
 31
0.0
  0
LINE
  5
FF
330
1F
100
AcDbEntity
  8
100
  6
Continuous
 62
     7
370
    30
100
AcDbLine
 10
149.3366232882725
 20
-53.49378950140448
 30
0.0
 11
149.6295920382725
 21
-54.81214887640448
 31
0.0
  0
LINE
  5
100
330
1F
100
AcDbEntity
  8
100
  6
Continuous
 62
     7
370
    30
100
AcDbLine
 10
139.0534201632725
 20
-47.89808637640448
 30
0.0
 11
149.3366232882725
 21
-53.49378950140448
 31
0.0
  0
LINE
  5
101
330
1F
100
AcDbEntity
  8
100
  6
Continuous
 62
     7
370
    30
100
AcDbLine
 10
138.9069357882725
 20
-52.90785200140448
 30
0.0
 11
141.8952170382725
 21
-54.76820356390448
 31
0.0
  0
LINE
  5
102
330
1F
100
AcDbEntity
  8
100
  6
Continuous
 62
     7
370
    30
100
AcDbLine
 10
139.0534201632725
 20
-47.89808637640448
 30
0.0
 11
138.9069357882725
 21
-52.90785200140448
 31
0.0
  0
LINE
  5
103
330
1F
100
AcDbEntity
  8
100
  6
Continuous
 62
     7
370
    30
100
AcDbLine
 10
140.4596701632725
 20
-55.51527387640448
 30
0.0
 11
141.0749045382725
 21
-54.82679731390448
 31
0.0
  0
LINE
  5
104
330
1F
100
AcDbEntity
  8
100
  6
Continuous
 62
     7
370
    30
100
AcDbLine
 10
140.4596701632725
 20
-55.51527387640448
 30
0.0
 11
140.0788107882725
 21
-60.80335981390448
 31
0.0
  0
LINE
  5
105
330
1F
100
AcDbEntity
  8
100
  6
Continuous
 62
     7
370
    30
100
AcDbLine
 10
130.9674826632725
 20
-49.83168012640448
 30
0.0
 11
140.4596701632725
 21
-55.51527387640448
 31
0.0
  0
LINE
  5
106
330
1F
100
AcDbEntity
  8
100
  6
Continuous
 62
     7
370
    30
100
AcDbLine
 10
132.0221701632725
 20
-49.42152387640448
 30
0.0
 11
130.9674826632725
 21
-49.83168012640448
 31
0.0
  0
LINE
  5
107
330
1F
100
AcDbEntity
  8
100
  6
Continuous
 62
     7
370
    30
100
AcDbLine
 10
141.0749045382725
 20
-54.82679731390448
 30
0.0
 11
132.0221701632725
 21
-49.42152387640448
 31
0.0
  0
LINE
  5
108
330
1F
100
AcDbEntity
  8
100
  6
Continuous
 62
     7
370
    30
100
AcDbLine
 10
130.7917014132725
 20
-55.39808637640448
 30
0.0
 11
134.6881857882725
 21
-57.99085981390448
 31
0.0
  0
LINE
  5
109
330
1F
100
AcDbEntity
  8
100
  6
Continuous
 62
     7
370
    30
100
AcDbLine
 10
130.9674826632725
 20
-49.83168012640448
 30
0.0
 11
130.7917014132725
 21
-55.39808637640448
 31
0.0
  0
LINE
  5
10A
330
1F
100
AcDbEntity
  8
100
  6
Continuous
 62
     7
370
    30
100
AcDbLine
 10
127.6276389132725
 20
-54.75355512640448
 30
0.0
 11
127.5603687810609
 21
-57.87017922496217
 31
0.0
  0
LINE
  5
10B
330
1F
100
AcDbEntity
  8
100
  6
Continuous
 62
     7
370
    30
100
AcDbLine
 10
127.6862326632725
 20
-51.76527387640448
 30
0.0
 11
127.6276389132725
 21
-54.75355512640448
 31
0.0
  0
LINE
  5
10C
330
1F
100
AcDbEntity
  8
100
  6
Continuous
 62
     7
370
    30
100
AcDbLine
 10
128.6237326632725
 20
-48.54261762640448
 30
0.0
 11
127.6862326632725
 21
-51.76527387640448
 31
0.0
  0
LINE
  5
10D
330
1F
100
AcDbEntity
  8
100
  6
Continuous
 62
     7
370
    30
100
AcDbLine
 10
130.8502951632725
 20
-46.25746137640448
 30
0.0
 11
128.6237326632725
 21
-48.54261762640448
 31
0.0
  0
LINE
  5
10E
330
1F
100
AcDbEntity
  8
100
  6
Continuous
 62
     7
370
    30
100
AcDbLine
 10
132.0221701632725
 20
-45.55433637640448
 30
0.0
 11
130.8502951632725
 21
-46.25746137640448
 31
0.0
  0
LINE
  5
10F
330
1F
100
AcDbEntity
  8
100
  6
Continuous
 62
     7
370
    30
100
AcDbLine
 10
135.1276389132725
 20
-45.08558637640448
 30
0.0
 11
132.0221701632725
 21
-45.55433637640448
 31
0.0
  0
LINE
  5
110
330
1F
100
AcDbEntity
  8
100
  6
Continuous
 62
     7
370
    30
100
AcDbLine
 10
138.9362326632725
 20
-45.08558637640448
 30
0.0
 11
135.1276389132725
 21
-45.08558637640448
 31
0.0
  0
LINE
  5
111
330
1F
100
AcDbEntity
  8
100
  6
Continuous
 62
     7
370
    30
100
AcDbLine
 10
141.7780295382725
 20
-45.45179731390448
 30
0.0
 11
138.9362326632725
 21
-45.08558637640448
 31
0.0
  0
LINE
  5
112
330
1F
100
AcDbEntity
  8
100
  6
Continuous
 62
     7
370
    30
100
AcDbLine
 10
121.5924826632725
 20
-38.64027387640448
 30
0.0
 11
126.4557639132725
 21
-38.14222700140448
 31
0.0
  0
LINE
  5
113
330
1F
100
AcDbEntity
  8
100
  6
Continuous
 62
     7
370
    30
100
AcDbLine
 10
119.4831076632725
 20
-39.34339887640448
 30
0.0
 11
121.5924826632725
 21
-38.64027387640448
 31
0.0
  0
LINE
  5
114
330
1F
100
AcDbEntity
  8
100
  6
Continuous
 62
     7
370
    30
100
AcDbLine
 10
118.0768576632725
 20
-41.56996137640448
 30
0.0
 11
118.8385764132725
 21
-40.39808637640448
 31
0.0
  0
LINE
  5
115
330
1F
100
AcDbEntity
  8
100
  6
Continuous
 62
     7
370
    30
100
AcDbLine
 10
117.3151389132725
 20
-44.44105512640448
 30
0.0
 11
118.0768576632725
 21
-41.56996137640448
 31
0.0
  0
LINE
  5
116
330
1F
100
AcDbEntity
  8
100
  6
Continuous
 62
     7
370
    30
100
AcDbLine
 10
116.0626975070225
 20
-49.26771528265448
 30
0.0
 11
117.3151389132725
 21
-44.44105512640448
 31
0.0
  0
LINE
  5
117
330
1F
100
AcDbEntity
  8
100
  6
Continuous
 62
     7
370
    30
100
AcDbLine
 10
122.5299826632725
 20
-45.67152387640448
 30
0.0
 11
121.4459982882725
 21
-51.54554731390448
 31
0.0
  0
LINE
  5
118
330
1F
100
AcDbEntity
  8
100
  6
Continuous
 62
     7
370
    30
100
AcDbLine
 10
122.7643576632725
 20
-43.91371137640448
 30
0.0
 11
122.5299826632725
 21
-45.67152387640448
 31
0.0
  0
LINE
  5
119
330
1F
100
AcDbEntity
  8
100
  6
Continuous
 62
     7
370
    30
100
AcDbLine
 10
123.9321917149966
 20
-42.57615749709413
 30
0.0
 11
122.7643576632725
 21
-43.91371137640448
 31
0.0
  0
LINE
  5
11A
330
1F
100
AcDbEntity
  8
100
  6
Continuous
 62
     7
370
    30
100
AcDbLine
 10
130.2057639132725
 20
-45.78871137640448
 30
0.0
 11
130.8502951632725
 21
-46.25746137640448
 31
0.0
  0
LINE
  5
11B
330
1F
100
AcDbEntity
  8
100
  6
Continuous
 62
     7
370
    30
100
AcDbLine
 10
124.3463889132725
 20
-42.74183637640448
 30
0.0
 11
130.2057639132725
 21
-45.78871137640448
 31
0.0
  0
LINE
  5
11C
330
1F
100
AcDbEntity
  8
100
  6
Continuous
 62
     7
370
    30
100
AcDbLine
 10
121.1237326632725
 20
-41.45277387640448
 30
0.0
 11
124.3463889132725
 21
-42.74183637640448
 31
0.0
  0
LINE
  5
11D
330
1F
100
AcDbEntity
  8
100
  6
Continuous
 62
     7
370
    30
100
AcDbLine
 10
118.8385764132725
 20
-40.39808637640448
 30
0.0
 11
121.1237326632725
 21
-41.45277387640448
 31
0.0
  0
LINE
  5
11E
330
1F
100
AcDbEntity
  8
100
  6
Continuous
 62
     7
370
    30
100
AcDbLine
 10
116.7877951632725
 20
-38.87464887640448
 30
0.0
 11
118.8385764132725
 21
-40.39808637640448
 31
0.0
  0
LINE
  5
11F
330
1F
100
AcDbEntity
  8
100
  6
Continuous
 62
     7
370
    30
100
AcDbLine
 10
140.0202170382725
 20
-44.44105512640448
 30
0.0
 11
140.7233420382725
 21
-44.74867231390448
 31
0.0
  0
LINE
  5
120
330
1F
100
AcDbEntity
  8
100
  6
Continuous
 62
     7
370
    30
100
AcDbLine
 10
134.2194357882725
 20
-42.39027387640448
 30
0.0
 11
140.0202170382725
 21
-44.44105512640448
 31
0.0
  0
LINE
  5
121
330
1F
100
AcDbEntity
  8
100
  6
Continuous
 62
     7
370
    30
100
AcDbLine
 10
130.7624045382725
 20
-42.80043012640448
 30
0.0
 11
134.2194357882725
 21
-42.39027387640448
 31
0.0
  0
LINE
  5
122
330
1F
100
AcDbEntity
  8
100
  6
Continuous
 62
     7
370
    30
100
AcDbLine
 10
127.8327170382725
 20
-40.42738325140448
 30
0.0
 11
130.7624045382725
 21
-42.80043012640448
 31
0.0
  0
LINE
  5
123
330
1F
100
AcDbEntity
  8
100
  6
Continuous
 62
     7
370
    30
100
AcDbLine
 10
126.4557639132725
 20
-38.14222700140448
 30
0.0
 11
127.8327170382725
 21
-40.42738325140448
 31
0.0
  0
LINE
  5
124
330
1F
100
AcDbEntity
  8
100
  6
Continuous
 62
     7
370
    30
100
AcDbLine
 10
125.5475607882725
 20
-36.17933637640448
 30
0.0
 11
126.4557639132725
 21
-38.14222700140448
 31
0.0
  0
LINE
  5
125
330
1F
100
AcDbEntity
  8
100
  6
Continuous
 62
     7
370
    30
100
AcDbLine
 10
124.5807639132725
 20
-35.44691450140448
 30
0.0
 11
125.5475607882725
 21
-36.17933637640448
 31
0.0
  0
LINE
  5
126
330
1F
100
AcDbEntity
  8
100
  6
Continuous
 62
     7
370
    30
100
AcDbLine
 10
122.0026389132725
 20
-34.86097700140448
 30
0.0
 11
124.5807639132725
 21
-35.44691450140448
 31
0.0
  0
LINE
  5
127
330
1F
100
AcDbEntity
  8
100
  6
Continuous
 62
     7
370
    30
100
AcDbLine
 10
118.0159823196438
 20
-33.49318057110047
 30
0.0
 11
122.0026389132725
 21
-34.86097700140448
 31
0.0
  0
LINE
  5
128
330
1F
100
AcDbEntity
  8
100
  6
Continuous
 62
     7
370
    30
100
AcDbLine
 10
119.2194357882725
 20
-36.00355512640448
 30
0.0
 11
124.1413107882725
 21
-35.59339887640448
 31
0.0
  0
LINE
  5
129
330
1F
100
AcDbEntity
  8
100
  6
Continuous
 62
     7
370
    30
100
AcDbLine
 10
116.8170920382725
 20
-36.94105512640448
 30
0.0
 11
119.2194357882725
 21
-36.00355512640448
 31
0.0
  0
LINE
  5
12A
330
1F
100
AcDbEntity
  8
100
  6
Continuous
 62
     7
370
    30
100
AcDbLine
 10
114.9420920382725
 20
-39.81214887640448
 30
0.0
 11
116.8170920382725
 21
-36.94105512640448
 31
0.0
  0
LINE
  5
12B
330
1F
100
AcDbEntity
  8
100
  6
Continuous
 62
     7
370
    30
100
AcDbLine
 10
113.5358420382725
 20
-44.45570356390448
 30
0.0
 11
114.9420920382725
 21
-39.81214887640448
 31
0.0
  0
LINE
  5
12C
330
1F
100
AcDbEntity
  8
100
  6
Continuous
 62
     7
370
    30
100
AcDbLine
 10
107.8522482882725
 20
-32.01918012640448
 30
0.0
 11
110.1037928620452
 21
-31.02699471084951
 31
0.0
  0
LINE
  5
12D
330
1F
100
AcDbEntity
  8
100
  6
Continuous
 62
     7
370
    30
100
AcDbLine
 10
106.2116232882725
 20
-33.83558637640448
 30
0.0
 11
107.8522482882725
 21
-32.01918012640448
 31
0.0
  0
LINE
  5
12E
330
1F
100
AcDbEntity
  8
100
  6
Continuous
 62
     7
370
    30
100
AcDbLine
 10
105.7428732882725
 20
-36.17933637640448
 30
0.0
 11
106.2116232882725
 21
-33.83558637640448
 31
0.0
  0
LINE
  5
12F
330
1F
100
AcDbEntity
  8
100
  6
Continuous
 62
     7
370
    30
100
AcDbLine
 10
105.7883020901571
 20
-37.88188497308086
 30
0.0
 11
105.7428732882725
 21
-36.17933637640448
 31
0.0
  0
LINE
  5
130
330
1F
100
AcDbEntity
  8
100
  6
Continuous
 62
     7
370
    30
100
AcDbLine
 10
170.5475607882725
 20
-42.03871137640448
 30
0.0
 11
184.5958638404811
 21
-40.48828629114612
 31
0.0
  0
LINE
  5
131
330
1F
100
AcDbEntity
  8
100
  6
Continuous
 62
     7
370
    30
100
AcDbLine
 10
157.9499045382725
 20
-42.56605512640448
 30
0.0
 11
170.5475607882725
 21
-42.03871137640448
 31
0.0
  0
LINE
  5
132
330
1F
100
AcDbEntity
  8
100
  6
Continuous
 62
     7
370
    30
100
AcDbLine
 10
146.6413107882725
 20
-42.68324262640448
 30
0.0
 11
157.9499045382725
 21
-42.56605512640448
 31
0.0
  0
LINE
  5
133
330
1F
100
AcDbEntity
  8
100
  6
Continuous
 62
     7
370
    30
100
AcDbLine
 10
134.0436545382725
 20
-41.86293012640448
 30
0.0
 11
146.6413107882725
 21
-42.68324262640448
 31
0.0
  0
LINE
  5
134
330
1F
100
AcDbEntity
  8
100
  6
Continuous
 62
     7
370
    30
100
AcDbLine
 10
128.1256857882725
 20
-40.33949262640448
 30
0.0
 11
134.0436545382725
 21
-41.86293012640448
 31
0.0
  0
LINE
  5
135
330
1F
100
AcDbEntity
  8
100
  6
Continuous
 62
     7
370
    30
100
AcDbLine
 10
135.2741232882725
 20
-29.03089887640448
 30
0.0
 11
144.8834982882725
 21
-30.20277387640448
 31
0.0
  0
LINE
  5
136
330
1F
100
AcDbEntity
  8
100
  6
Continuous
 62
     7
370
    30
100
AcDbLine
 10
125.0788107882725
 20
-27.85902387640448
 30
0.0
 11
135.2741232882725
 21
-29.03089887640448
 31
0.0
  0
LINE
  5
137
330
1F
100
AcDbEntity
  8
100
  6
Continuous
 62
     7
370
    30
100
AcDbLine
 10
113.0084982882725
 20
-25.51527387640448
 30
0.0
 11
125.0788107882725
 21
-27.85902387640448
 31
0.0
  0
LINE
  5
138
330
1F
100
AcDbEntity
  8
100
  6
Continuous
 62
     7
370
    30
100
AcDbLine
 10
103.9850607882725
 20
-22.58558637640448
 30
0.0
 11
113.0084982882725
 21
-25.51527387640448
 31
0.0
  0
LINE
  5
139
330
1F
100
AcDbEntity
  8
100
  6
Continuous
 62
     7
370
    30
100
AcDbLine
 10
94.61006078827248
 20
-19.18714887640448
 30
0.0
 11
103.9850607882725
 21
-22.58558637640448
 31
0.0
  0
LINE
  5
13A
330
1F
100
AcDbEntity
  8
100
  6
Continuous
 62
     7
370
    30
100
AcDbLine
 10
89.33662328827248
 20
-15.78871137640448
 30
0.0
 11
94.61006078827248
 21
-19.18714887640448
 31
0.0
  0
LINE
  5
13B
330
1F
100
AcDbEntity
  8
100
  6
Continuous
 62
     7
370
    30
100
AcDbLine
 10
86.41426000702248
 20
-13.02015668890448
 30
0.0
 11
89.33662328827248
 21
-15.78871137640448
 31
0.0
  0
LINE
  5
13C
330
1F
100
AcDbEntity
  8
100
  6
Continuous
 62
     7
370
    30
100
AcDbLine
 10
97.30537328827248
 20
-26.45277387640448
 30
0.0
 11
92.21846112569952
 21
-23.47569269632179
 31
0.0
  0
LINE
  5
13D
330
1F
100
AcDbEntity
  8
100
  6
Continuous
 62
     7
370
    30
100
AcDbLine
 10
104.9225607882725
 20
-29.14808637640448
 30
0.0
 11
97.30537328827248
 21
-26.45277387640448
 31
0.0
  0
LINE
  5
13E
330
1F
100
AcDbEntity
  8
100
  6
Continuous
 62
     7
370
    30
100
AcDbLine
 10
115.5866232882725
 20
-33.01527387640448
 30
0.0
 11
104.9225607882725
 21
-29.14808637640448
 31
0.0
  0
LINE
  5
13F
330
1F
100
AcDbEntity
  8
100
  6
Continuous
 62
     7
370
    30
100
AcDbLine
 10
129.8834982882725
 20
-35.82777387640448
 30
0.0
 11
115.5866232882725
 21
-33.01527387640448
 31
0.0
  0
LINE
  5
140
330
1F
100
AcDbEntity
  8
100
  6
Continuous
 62
     7
370
    30
100
AcDbLine
 10
144.0631857882725
 20
-36.88246137640448
 30
0.0
 11
129.8834982882725
 21
-35.82777387640448
 31
0.0
  0
LINE
  5
141
330
1F
100
AcDbEntity
  8
100
  6
Continuous
 62
     7
370
    30
100
AcDbLine
 10
160.2350607882725
 20
-36.64808637640448
 30
0.0
 11
144.0631857882725
 21
-36.88246137640448
 31
0.0
  0
LINE
  5
142
330
1F
100
AcDbEntity
  8
100
  6
Continuous
 62
     7
370
    30
100
AcDbLine
 10
178.7506857882725
 20
-35.35902387640448
 30
0.0
 11
160.2350607882725
 21
-36.64808637640448
 31
0.0
  0
LINE
  5
143
330
1F
100
AcDbEntity
  8
100
  6
Continuous
 62
     7
370
    30
100
AcDbLine
 10
187.0709982882725
 20
-32.78089887640448
 30
0.0
 11
178.7506857882725
 21
-35.35902387640448
 31
0.0
  0
LINE
  5
144
330
1F
100
AcDbEntity
  8
100
  6
Continuous
 62
     7
370
    30
100
AcDbLine
 10
190.5866232882725
 20
-32.78089887640448
 30
0.0
 11
200.5622092257725
 21
-29.47035200140448
 31
0.0
  0
LINE
  5
145
330
1F
100
AcDbEntity
  8
100
  6
Continuous
 62
     7
370
    30
100
AcDbLine
 10
175.5866232882725
 20
-32.78089887640448
 30
0.0
 11
190.5866232882725
 21
-32.78089887640448
 31
0.0
  0
LINE
  5
146
330
1F
100
AcDbEntity
  8
100
  6
Continuous
 62
     7
370
    30
100
AcDbLine
 10
156.0163107882725
 20
-31.60902387640448
 30
0.0
 11
175.5866232882725
 21
-32.78089887640448
 31
0.0
  0
LINE
  5
147
330
1F
100
AcDbEntity
  8
100
  6
Continuous
 62
     7
370
    30
100
AcDbLine
 10
144.8834982882725
 20
-30.20277387640448
 30
0.0
 11
156.0163107882725
 21
-31.60902387640448
 31
0.0
  0
LINE
  5
148
330
1F
100
AcDbEntity
  8
100
  6
Continuous
 62
     7
370
    30
100
AcDbLine
 10
130.5866232882725
 20
-26.56996137640448
 30
0.0
 11
144.8834982882725
 21
-30.20277387640448
 31
0.0
  0
LINE
  5
149
330
1F
100
AcDbEntity
  8
100
  6
Continuous
 62
     7
370
    30
100
AcDbLine
 10
116.0553732882725
 20
-22.58558637640448
 30
0.0
 11
130.5866232882725
 21
-26.56996137640448
 31
0.0
  0
LINE
  5
14A
330
1F
100
AcDbEntity
  8
100
  6
Continuous
 62
     7
370
    30
100
AcDbLine
 10
106.5631857882725
 20
-19.18714887640448
 30
0.0
 11
116.0553732882725
 21
-22.58558637640448
 31
0.0
  0
LINE
  5
14B
330
1F
100
AcDbEntity
  8
100
  6
Continuous
 62
     7
370
    30
100
AcDbLine
 10
97.65693578827248
 20
-15.20277387640448
 30
0.0
 11
106.5631857882725
 21
-19.18714887640448
 31
0.0
  0
LINE
  5
14C
330
1F
100
AcDbEntity
  8
100
  6
Continuous
 62
     7
370
    30
100
AcDbLine
 10
90.86006078827248
 20
-12.03871137640448
 30
0.0
 11
97.65693578827248
 21
-15.20277387640448
 31
0.0
  0
LINE
  5
14D
330
1F
100
AcDbEntity
  8
100
  6
Continuous
 62
     7
370
    30
100
AcDbLine
 10
87.11006078827248
 20
-8.640273876404478
 30
0.0
 11
90.86006078827248
 21
-12.03871137640448
 31
0.0
  0
LINE
  5
14E
330
1F
100
AcDbEntity
  8
100
  6
Continuous
 62
     7
370
    30
100
AcDbLine
 10
85.82099828827248
 20
-4.846328563904478
 30
0.0
 11
87.11006078827248
 21
-8.640273876404478
 31
0.0
  0
LINE
  5
14F
330
1F
100
AcDbEntity
  8
100
  6
Continuous
 62
     7
370
    30
100
AcDbLine
 10
99.01045141327248
 20
-2.739883251404478
 30
0.0
 11
98.25149292886607
 21
-4.666986242080299
 31
0.0
  0
LINE
  5
150
330
1F
100
AcDbEntity
  8
100
  6
Continuous
 62
     7
370
    30
100
AcDbLine
 10
96.66084203827248
 20
-3.161758251404478
 30
0.0
 11
96.78532431561695
 21
-3.76092698670162
 31
0.0
  0
LINE
  5
151
330
1F
100
AcDbEntity
  8
100
  6
Continuous
 62
     7
370
    30
100
AcDbLine
 10
96.71357641327248
 20
-1.591445751404478
 30
0.0
 11
96.66084203827248
 21
-3.161758251404478
 31
0.0
  0
LINE
  5
152
330
1F
100
AcDbEntity
  8
100
  6
Continuous
 62
     7
370
    30
100
AcDbLine
 10
102.2272482882725
 20
-5.476211376404478
 30
0.0
 11
101.7119815594357
 21
-6.569791994553078
 31
0.0
  0
LINE
  5
153
330
1F
100
AcDbEntity
  8
100
  6
Continuous
 62
     7
370
    30
100
AcDbLine
 10
102.8904945140809
 20
-4.328844697999287
 30
0.0
 11
102.2272482882725
 21
-5.476211376404478
 31
0.0
  0
LINE
  5
154
330
1F
100
AcDbEntity
  8
100
  6
Continuous
 62
     7
370
    30
100
AcDbLine
 10
138.3356467257725
 20
-18.38148481390448
 30
0.0
 11
138.4052537453899
 21
-17.92343252001213
 31
0.0
  0
LINE
  5
155
330
1F
100
AcDbEntity
  8
100
  6
Continuous
 62
     7
370
    30
100
AcDbLine
 10
136.5192404757725
 20
-18.16175825140448
 30
0.0
 11
138.3356467257725
 21
-18.38148481390448
 31
0.0
  0
LINE
  5
156
330
1F
100
AcDbEntity
  8
100
  6
Continuous
 62
     7
370
    30
100
AcDbLine
 10
126.5583029757725
 20
-15.93519575140448
 30
0.0
 11
136.5192404757725
 21
-18.16175825140448
 31
0.0
  0
LINE
  5
157
330
1F
100
AcDbEntity
  8
100
  6
Continuous
 62
     7
370
    30
100
AcDbLine
 10
117.1247092257725
 20
-13.00550825140448
 30
0.0
 11
126.5583029757725
 21
-15.93519575140448
 31
0.0
  0
LINE
  5
158
330
1F
100
AcDbEntity
  8
100
  6
Continuous
 62
     7
370
    30
100
AcDbLine
 10
108.0426779757725
 20
-9.372695751404478
 30
0.0
 11
117.1247092257725
 21
-13.00550825140448
 31
0.0
  0
LINE
  5
159
330
1F
100
AcDbEntity
  8
100
  6
Continuous
 62
     7
370
    30
100
AcDbLine
 10
100.3668967257725
 20
-5.974258251404478
 30
0.0
 11
108.0426779757725
 21
-9.372695751404478
 31
0.0
  0
LINE
  5
15A
330
1F
100
AcDbEntity
  8
100
  6
Continuous
 62
     7
370
    30
100
AcDbLine
 10
95.15205297577248
 20
-2.751602001404478
 30
0.0
 11
100.3668967257725
 21
-5.974258251404478
 31
0.0
  0
LINE
  5
15B
330
1F
100
AcDbEntity
  8
100
  6
Continuous
 62
     7
370
    30
100
AcDbLine
 10
92.28095922577248
 20
-0.2320707514044784
 30
0.0
 11
95.15205297577248
 21
-2.751602001404478
 31
0.0
  0
LINE
  5
15C
330
1F
100
AcDbEntity
  8
100
  6
Continuous
 62
     7
370
    30
100
AcDbLine
 10
92.02607641327248
 20
0.9808198735955216
 30
0.0
 11
92.28095922577248
 21
-0.2320707514044784
 31
0.0
  0
LINE
  5
15D
330
1F
100
AcDbEntity
  8
100
  6
Continuous
 62
     7
370
    30
100
AcDbLine
 10
88.00361547577248
 20
-3.396133251404478
 30
0.0
 11
86.46552953827248
 21
-0.1002348139044784
 31
0.0
  0
LINE
  5
15E
330
1F
100
AcDbEntity
  8
100
  6
Continuous
 62
     7
370
    30
100
AcDbLine
 10
92.16377172577248
 20
-6.794570751404478
 30
0.0
 11
88.00361547577248
 21
-3.396133251404478
 31
0.0
  0
LINE
  5
15F
330
1F
100
AcDbEntity
  8
100
  6
Continuous
 62
     7
370
    30
100
AcDbLine
 10
98.02314672577248
 20
-9.900039501404478
 30
0.0
 11
92.16377172577248
 21
-6.794570751404478
 31
0.0
  0
LINE
  5
160
330
1F
100
AcDbEntity
  8
100
  6
Continuous
 62
     7
370
    30
100
AcDbLine
 10
106.6364279757725
 20
-13.35707075140448
 30
0.0
 11
98.02314672577248
 21
-9.900039501404478
 31
0.0
  0
LINE
  5
161
330
1F
100
AcDbEntity
  8
100
  6
Continuous
 62
     7
370
    30
100
AcDbLine
 10
117.0661154757725
 20
-17.10707075140448
 30
0.0
 11
106.6364279757725
 21
-13.35707075140448
 31
0.0
  0
LINE
  5
162
330
1F
100
AcDbEntity
  8
100
  6
Continuous
 62
     7
370
    30
100
AcDbLine
 10
129.6637717257725
 20
-20.79847700140448
 30
0.0
 11
117.0661154757725
 21
-17.10707075140448
 31
0.0
  0
LINE
  5
163
330
1F
100
AcDbEntity
  8
100
  6
Continuous
 62
     7
370
    30
100
AcDbLine
 10
144.3122092257725
 20
-24.13832075140448
 30
0.0
 11
129.6637717257725
 21
-20.79847700140448
 31
0.0
  0
LINE
  5
164
330
1F
100
AcDbEntity
  8
100
  6
Continuous
 62
     7
370
    30
100
AcDbLine
 10
157.4958029757725
 20
-26.01332075140448
 30
0.0
 11
144.3122092257725
 21
-24.13832075140448
 31
0.0
  0
LINE
  5
165
330
1F
100
AcDbEntity
  8
100
  6
Continuous
 62
     7
370
    30
100
AcDbLine
 10
168.7897482882725
 20
-26.70179731390448
 30
0.0
 11
157.4958029757725
 21
-26.01332075140448
 31
0.0
  0
LINE
  5
166
330
1F
100
AcDbEntity
  8
100
  6
Continuous
 62
     7
370
    30
100
AcDbLine
 10
170.7379904757725
 20
-26.89222700140448
 30
0.0
 11
168.7897482882725
 21
-26.70179731390448
 31
0.0
  0
LINE
  5
167
330
1F
100
AcDbEntity
  8
100
  6
Continuous
 62
     7
370
    30
100
AcDbLine
 10
178.1208029757725
 20
-27.30238325140448
 30
0.0
 11
170.7379904757725
 21
-26.89222700140448
 31
0.0
  0
LINE
  5
168
330
1F
100
AcDbEntity
  8
100
  6
Continuous
 62
     7
370
    30
100
AcDbLine
 10
185.7965842257725
 20
-27.36097700140448
 30
0.0
 11
178.1208029757725
 21
-27.30238325140448
 31
0.0
  0
LINE
  5
169
330
1F
100
AcDbEntity
  8
100
  6
Continuous
 62
     7
370
    30
100
AcDbLine
 10
194.9958029757725
 20
-26.18910200140448
 30
0.0
 11
185.7965842257725
 21
-27.36097700140448
 31
0.0
  0
LINE
  5
16A
330
1F
100
AcDbEntity
  8
100
  6
Continuous
 62
     7
370
    30
100
AcDbLine
 10
199.9176779757725
 20
-23.66957075140448
 30
0.0
 11
194.9958029757725
 21
-26.18910200140448
 31
0.0
  0
LINE
  5
16B
330
1F
100
AcDbEntity
  8
100
  6
Continuous
 62
     7
370
    30
100
AcDbLine
 10
202.4372092257725
 20
-21.73597700140448
 30
0.0
 11
199.9176779757725
 21
-23.66957075140448
 31
0.0
  0
LINE
  5
16C
330
1F
100
AcDbEntity
  8
100
  6
Continuous
 62
     7
370
    30
100
AcDbLine
 10
204.2536154757725
 20
-19.04066450140448
 30
0.0
 11
202.4372092257725
 21
-21.73597700140448
 31
0.0
  0
LINE
  5
16D
330
1F
100
AcDbEntity
  8
100
  6
Continuous
 62
     7
370
    30
100
AcDbLine
 10
204.6051779757725
 20
-15.75941450140448
 30
0.0
 11
204.2536154757725
 21
-19.04066450140448
 31
0.0
  0
LINE
  5
16E
330
1F
100
AcDbEntity
  8
100
  6
Continuous
 62
     7
370
    30
100
AcDbLine
 10
201.9684592257725
 20
-8.728164501404478
 30
0.0
 11
201.1223856805138
 21
-7.718937669507923
 31
0.0
  0
LINE
  5
16F
330
1F
100
AcDbEntity
  8
100
  6
Continuous
 62
     7
370
    30
100
AcDbLine
 10
203.1989279757725
 20
-10.60316450140448
 30
0.0
 11
201.9684592257725
 21
-8.728164501404478
 31
0.0
  0
LINE
  5
170
330
1F
100
AcDbEntity
  8
100
  6
Continuous
 62
     7
370
    30
100
AcDbLine
 10
204.0778342257725
 20
-12.59535200140448
 30
0.0
 11
203.1989279757725
 21
-10.60316450140448
 31
0.0
  0
LINE
  5
171
330
1F
100
AcDbEntity
  8
100
  6
Continuous
 62
     7
370
    30
100
AcDbLine
 10
204.3708029757725
 20
-15.23207075140448
 30
0.0
 11
204.0778342257725
 21
-12.59535200140448
 31
0.0
  0
LINE
  5
172
330
1F
100
AcDbEntity
  8
100
  6
Continuous
 62
     7
370
    30
100
AcDbLine
 10
204.6051779757725
 20
-15.75941450140448
 30
0.0
 11
204.3708029757725
 21
-15.23207075140448
 31
0.0
  0
LINE
  5
173
330
1F
100
AcDbEntity
  8
100
  6
Continuous
 62
     7
370
    30
100
AcDbLine
 10
205.7184592257725
 20
-17.92738325140448
 30
0.0
 11
204.6051779757725
 21
-15.75941450140448
 31
0.0
  0
LINE
  5
174
330
1F
100
AcDbEntity
  8
100
  6
Continuous
 62
     7
370
    30
100
AcDbLine
 10
205.8356467257725
 20
-20.32972700140448
 30
0.0
 11
205.7184592257725
 21
-17.92738325140448
 31
0.0
  0
LINE
  5
175
330
1F
100
AcDbEntity
  8
100
  6
Continuous
 62
     7
370
    30
100
AcDbLine
 10
205.5426779757725
 20
-22.84925825140448
 30
0.0
 11
205.8356467257725
 21
-20.32972700140448
 31
0.0
  0
LINE
  5
176
330
1F
100
AcDbEntity
  8
100
  6
Continuous
 62
     7
370
    30
100
AcDbLine
 10
203.8434592257725
 20
-25.77894575140448
 30
0.0
 11
205.5426779757725
 21
-22.84925825140448
 31
0.0
  0
LINE
  5
177
330
1F
100
AcDbEntity
  8
100
  6
Continuous
 62
     7
370
    30
100
AcDbLine
 10
200.5622092257725
 20
-29.47035200140448
 30
0.0
 11
203.8434592257725
 21
-25.77894575140448
 31
0.0
  0
LINE
  5
178
330
1F
100
AcDbEntity
  8
100
  6
Continuous
 62
     7
370
    30
100
AcDbLine
 10
197.0465842257725
 20
-33.51332075140448
 30
0.0
 11
200.5622092257725
 21
-29.47035200140448
 31
0.0
  0
LINE
  5
179
330
1F
100
AcDbEntity
  8
100
  6
Continuous
 62
     7
370
    30
100
AcDbLine
 10
193.0036154757725
 20
-36.79457075140448
 30
0.0
 11
197.0465842257725
 21
-33.51332075140448
 31
0.0
  0
LINE
  5
17A
330
1F
100
AcDbEntity
  8
100
  6
Continuous
 62
     7
370
    30
100
AcDbLine
 10
186.9684592257725
 20
-39.90003950140448
 30
0.0
 11
193.0036154757725
 21
-36.79457075140448
 31
0.0
  0
LINE
  5
17B
330
1F
100
AcDbEntity
  8
100
  6
Continuous
 62
     7
370
    30
100
AcDbLine
 10
179.8786154757725
 20
-41.65785200140448
 30
0.0
 11
186.9684592257725
 21
-39.90003950140448
 31
0.0
  0
LINE
  5
17C
330
1F
100
AcDbEntity
  8
100
  6
Continuous
 62
     7
370
    30
100
AcDbLine
 10
172.0270529757725
 20
-43.23988325140448
 30
0.0
 11
179.8786154757725
 21
-41.65785200140448
 31
0.0
  0
LINE
  5
17D
330
1F
100
AcDbEntity
  8
100
  6
Continuous
 62
     7
370
    30
100
AcDbLine
 10
161.3629904757725
 20
-44.29457075140448
 30
0.0
 11
172.0270529757725
 21
-43.23988325140448
 31
0.0
  0
LINE
  5
17E
330
1F
100
AcDbEntity
  8
100
  6
Continuous
 62
     7
370
    30
100
AcDbLine
 10
152.8668967257725
 20
-44.35316450140448
 30
0.0
 11
161.3629904757725
 21
-44.29457075140448
 31
0.0
  0
LINE
  5
17F
330
1F
100
AcDbEntity
  8
100
  6
Continuous
 62
     7
370
    30
100
AcDbLine
 10
146.2165061007725
 20
-44.29457075140448
 30
0.0
 11
152.8668967257725
 21
-44.35316450140448
 31
0.0
  0
LINE
  5
180
330
1F
100
AcDbEntity
  8
100
  6
Continuous
 62
     7
370
    30
100
AcDbLine
 10
140.9430686007725
 20
-44.08949262640448
 30
0.0
 11
146.2165061007725
 21
-44.29457075140448
 31
0.0
  0
LINE
  5
181
330
1F
100
AcDbEntity
  8
100
  6
Continuous
 62
     7
370
    30
100
AcDbLine
 10
140.5915061007725
 20
-44.20668012640448
 30
0.0
 11
140.9430686007725
 21
-44.08949262640448
 31
0.0
  0
LINE
  5
182
330
1F
100
AcDbEntity
  8
100
  6
Continuous
 62
     7
370
    30
100
AcDbLine
 10
140.7233420382725
 20
-44.74867231390448
 30
0.0
 11
140.5915061007725
 21
-44.20668012640448
 31
0.0
  0
LINE
  5
183
330
1F
100
AcDbEntity
  8
100
  6
Continuous
 62
     7
370
    30
100
AcDbLine
 10
141.7780295382725
 20
-45.45179731390448
 30
0.0
 11
140.7233420382725
 21
-44.74867231390448
 31
0.0
  0
LINE
  5
184
330
1F
100
AcDbEntity
  8
100
  6
Continuous
 62
     7
370
    30
100
AcDbLine
 10
142.3639670382725
 20
-46.85804731390448
 30
0.0
 11
141.7780295382725
 21
-45.45179731390448
 31
0.0
  0
LINE
  5
185
330
1F
100
AcDbEntity
  8
100
  6
Continuous
 62
     7
370
    30
100
AcDbLine
 10
142.2467795382725
 20
-49.08460981390448
 30
0.0
 11
142.3639670382725
 21
-46.85804731390448
 31
0.0
  0
LINE
  5
186
330
1F
100
AcDbEntity
  8
100
  6
Continuous
 62
     7
370
    30
100
AcDbLine
 10
149.6295920382725
 20
-53.12757856390448
 30
0.0
 11
142.2467795382725
 21
-49.08460981390448
 31
0.0
  0
LINE
  5
187
330
1F
100
AcDbEntity
  8
100
  6
Continuous
 62
     7
370
    30
100
AcDbLine
 10
149.9811545382725
 20
-53.83070356390448
 30
0.0
 11
149.6295920382725
 21
-53.12757856390448
 31
0.0
  0
LINE
  5
188
330
1F
100
AcDbEntity
  8
100
  6
Continuous
 62
     7
370
    30
100
AcDbLine
 10
150.2741232882725
 20
-56.29164106390448
 30
0.0
 11
149.9811545382725
 21
-53.83070356390448
 31
0.0
  0
LINE
  5
189
330
1F
100
AcDbEntity
  8
100
  6
Continuous
 62
     7
370
    30
100
AcDbLine
 10
149.6295920382725
 20
-58.10804731390448
 30
0.0
 11
150.2741232882725
 21
-56.29164106390448
 31
0.0
  0
LINE
  5
18A
330
1F
100
AcDbEntity
  8
100
  6
Continuous
 62
     7
370
    30
100
AcDbLine
 10
148.7506857882725
 20
-58.75257856390448
 30
0.0
 11
149.6295920382725
 21
-58.10804731390448
 31
0.0
  0
LINE
  5
18B
330
1F
100
AcDbEntity
  8
100
  6
Continuous
 62
     7
370
    30
100
AcDbLine
 10
141.8952170382725
 20
-54.76820356390448
 30
0.0
 11
148.7506857882725
 21
-58.75257856390448
 31
0.0
  0
LINE
  5
18C
330
1F
100
AcDbEntity
  8
100
  6
Continuous
 62
     7
370
    30
100
AcDbLine
 10
141.0749045382725
 20
-54.82679731390448
 30
0.0
 11
141.8952170382725
 21
-54.76820356390448
 31
0.0
  0
LINE
  5
18D
330
1F
100
AcDbEntity
  8
100
  6
Continuous
 62
     7
370
    30
100
AcDbLine
 10
141.0749045382725
 20
-59.57289106390448
 30
0.0
 11
141.0749045382725
 21
-54.82679731390448
 31
0.0
  0
LINE
  5
18E
330
1F
100
AcDbEntity
  8
100
  6
Continuous
 62
     7
370
    30
100
AcDbLine
 10
140.0788107882725
 20
-60.80335981390448
 30
0.0
 11
141.0749045382725
 21
-59.57289106390448
 31
0.0
  0
LINE
  5
18F
330
1F
100
AcDbEntity
  8
100
  6
Continuous
 62
     7
370
    30
100
AcDbLine
 10
134.6881857882725
 20
-57.99085981390448
 30
0.0
 11
140.0788107882725
 21
-60.80335981390448
 31
0.0
  0
LINE
  5
190
330
1F
100
AcDbEntity
  8
100
  6
Continuous
 62
     7
370
    30
100
AcDbLine
 10
132.5202170382725
 20
-58.86976606390448
 30
0.0
 11
134.6881857882725
 21
-57.99085981390448
 31
0.0
  0
LINE
  5
191
330
1F
100
AcDbEntity
  8
100
  6
Continuous
 62
     7
370
    30
100
AcDbLine
 10
129.2975607882725
 20
-59.22132856390448
 30
0.0
 11
132.5202170382725
 21
-58.86976606390448
 31
0.0
  0
LINE
  5
192
330
1F
100
AcDbEntity
  8
100
  6
Continuous
 62
     7
370
    30
100
AcDbLine
 10
126.1334982882725
 20
-56.76039106390448
 30
0.0
 11
129.2975607882725
 21
-59.22132856390448
 31
0.0
  0
LINE
  5
193
330
1F
100
AcDbEntity
  8
100
  6
Continuous
 62
     7
370
    30
100
AcDbLine
 10
121.4459982882725
 20
-51.54554731390448
 30
0.0
 11
126.1334982882725
 21
-56.76039106390448
 31
0.0
  0
LINE
  5
194
330
1F
100
AcDbEntity
  8
100
  6
Continuous
 62
     7
370
    30
100
AcDbLine
 10
116.7584982882725
 20
-49.96351606390448
 30
0.0
 11
121.4459982882725
 21
-51.54554731390448
 31
0.0
  0
LINE
  5
195
330
1F
100
AcDbEntity
  8
100
  6
Continuous
 62
     7
370
    30
100
AcDbLine
 10
113.8288107882725
 20
-47.03382856390448
 30
0.0
 11
116.7584982882725
 21
-49.96351606390448
 31
0.0
  0
LINE
  5
196
330
1F
100
AcDbEntity
  8
100
  6
Continuous
 62
     7
370
    30
100
AcDbLine
 10
113.5358420382725
 20
-44.45570356390448
 30
0.0
 11
113.8288107882725
 21
-47.03382856390448
 31
0.0
  0
LINE
  5
197
330
1F
100
AcDbEntity
  8
100
  6
Continuous
 62
     7
370
    30
100
AcDbLine
 10
110.0788107882725
 20
-41.40882856390448
 30
0.0
 11
113.5358420382725
 21
-44.45570356390448
 31
0.0
  0
LINE
  5
198
330
1F
100
AcDbEntity
  8
100
  6
Continuous
 62
     7
370
    30
100
AcDbLine
 10
103.1647482882725
 20
-35.72523481390448
 30
0.0
 11
110.0788107882725
 21
-41.40882856390448
 31
0.0
  0
LINE
  5
199
330
1F
100
AcDbEntity
  8
100
  6
Continuous
 62
     7
370
    30
100
AcDbLine
 10
98.18427953827248
 20
-31.91664106390448
 30
0.0
 11
103.1647482882725
 21
-35.72523481390448
 31
0.0
  0
LINE
  5
19A
330
1F
100
AcDbEntity
  8
100
  6
Continuous
 62
     7
370
    30
100
AcDbLine
 10
95.54756078827248
 20
-28.57679731390448
 30
0.0
 11
98.18427953827248
 21
-31.91664106390448
 31
0.0
  0
LINE
  5
19B
330
1F
100
AcDbEntity
  8
100
  6
Continuous
 62
     7
370
    30
100
AcDbLine
 10
93.20381078827248
 20
-24.59242231390448
 30
0.0
 11
95.54756078827248
 21
-28.57679731390448
 31
0.0
  0
LINE
  5
19C
330
1F
100
AcDbEntity
  8
100
  6
Continuous
 62
     7
370
    30
100
AcDbLine
 10
91.44599828827248
 20
-22.60023481390448
 30
0.0
 11
93.20381078827248
 21
-24.59242231390448
 31
0.0
  0
LINE
  5
19D
330
1F
100
AcDbEntity
  8
100
  6
Continuous
 62
     7
370
    30
100
AcDbLine
 10
87.98896703827248
 20
-19.02601606390448
 30
0.0
 11
91.44599828827248
 21
-22.60023481390448
 31
0.0
  0
LINE
  5
19E
330
1F
100
AcDbEntity
  8
100
  6
Continuous
 62
     7
370
    30
100
AcDbLine
 10
86.87568578827248
 20
-17.38539106390448
 30
0.0
 11
87.98896703827248
 21
-19.02601606390448
 31
0.0
  0
LINE
  5
19F
330
1F
100
AcDbEntity
  8
100
  6
Continuous
 62
     7
370
    30
100
AcDbLine
 10
86.28974828827248
 20
-14.57289106390448
 30
0.0
 11
86.87568578827248
 21
-17.38539106390448
 31
0.0
  0
LINE
  5
1A0
330
1F
100
AcDbEntity
  8
100
  6
Continuous
 62
     7
370
    30
100
AcDbLine
 10
86.41426000702248
 20
-13.02015668890448
 30
0.0
 11
86.28974828827248
 21
-14.57289106390448
 31
0.0
  0
LINE
  5
1A1
330
1F
100
AcDbEntity
  8
100
  6
Continuous
 62
     7
370
    30
100
AcDbLine
 10
86.17988500702248
 20
-11.77503950140448
 30
0.0
 11
86.41426000702248
 21
-13.02015668890448
 31
0.0
  0
LINE
  5
1A2
330
1F
100
AcDbEntity
  8
100
  6
Continuous
 62
     7
370
    30
100
AcDbLine
 10
85.54267797577248
 20
-9.343398876404478
 30
0.0
 11
86.17988500702248
 21
-11.77503950140448
 31
0.0
  0
LINE
  5
1A3
330
1F
100
AcDbEntity
  8
100
  6
Continuous
 62
     7
370
    30
100
AcDbLine
 10
85.35224828827248
 20
-7.014297313904478
 30
0.0
 11
85.54267797577248
 21
-9.343398876404478
 31
0.0
  0
LINE
  5
1A4
330
1F
100
AcDbEntity
  8
100
  6
Continuous
 62
     7
370
    30
100
AcDbLine
 10
85.82099828827248
 20
-4.846328563904478
 30
0.0
 11
85.35224828827248
 21
-7.014297313904478
 31
0.0
  0
LINE
  5
1A5
330
1F
100
AcDbEntity
  8
100
  6
Continuous
 62
     7
370
    30
100
AcDbLine
 10
85.82099828827248
 20
-2.502578563904478
 30
0.0
 11
85.82099828827248
 21
-4.846328563904478
 31
0.0
  0
LINE
  5
1A6
330
1F
100
AcDbEntity
  8
100
  6
Continuous
 62
     7
370
    30
100
AcDbLine
 10
86.11396703827248
 20
-0.8619535639044784
 30
0.0
 11
85.82099828827248
 21
-2.502578563904478
 31
0.0
  0
LINE
  5
1A7
330
1F
100
AcDbEntity
  8
100
  6
Continuous
 62
     7
370
    30
100
AcDbLine
 10
86.46552953827248
 20
-0.1002348139044784
 30
0.0
 11
86.11396703827248
 21
-0.8619535639044784
 31
0.0
  0
LINE
  5
1A8
330
1F
100
AcDbEntity
  8
100
  6
Continuous
 62
     7
370
    30
100
AcDbLine
 10
86.51679906952248
 20
1.921249561095522
 30
0.0
 11
86.46552953827248
 21
-0.1002348139044784
 31
0.0
  0
LINE
  5
1A9
330
1F
100
AcDbEntity
  8
100
  6
Continuous
 62
     7
370
    30
100
AcDbLine
 10
86.95686959493733
 20
3.983107654390182
 30
0.0
 11
86.51679906952248
 21
1.921249561095522
 31
0.0
  0
LINE
  5
1AA
330
1F
100
AcDbEntity
  8
100
  6
Continuous
 62
     7
370
    30
100
AcDbLine
 10
113.8874045382725
 20
-1.682266063904478
 30
0.0
 11
111.2450949907982
 21
-2.692501242809996
 31
0.0
  0
LINE
  5
1AB
330
1F
100
AcDbEntity
  8
100
  6
Continuous
 62
     7
370
    30
100
AcDbLine
 10
118.3405295382725
 20
-0.1588285639044784
 30
0.0
 11
113.8874045382725
 21
-1.682266063904478
 31
0.0
  0
LINE
  5
1AC
330
1F
100
AcDbEntity
  8
100
  6
Continuous
 62
     7
370
    30
100
AcDbLine
 10
122.1491232882725
 20
0.7786714360955216
 30
0.0
 11
118.3405295382725
 21
-0.1588285639044784
 31
0.0
  0
LINE
  5
1AD
330
1F
100
AcDbEntity
  8
100
  6
Continuous
 62
     7
370
    30
100
AcDbLine
 10
125.7819357882725
 20
1.247421436095522
 30
0.0
 11
122.1491232882725
 21
0.7786714360955216
 31
0.0
  0
LINE
  5
1AE
330
1F
100
AcDbEntity
  8
100
  6
Continuous
 62
     7
370
    30
100
AcDbLine
 10
130.5280295382725
 20
1.540390186095522
 30
0.0
 11
125.7819357882725
 21
1.247421436095522
 31
0.0
  0
LINE
  5
1AF
330
1F
100
AcDbEntity
  8
100
  6
Continuous
 62
     7
370
    30
100
AcDbLine
 10
134.8053732882725
 20
1.481796436095522
 30
0.0
 11
130.5280295382725
 21
1.540390186095522
 31
0.0
  0
LINE
  5
1B0
330
1F
100
AcDbEntity
  8
100
  6
Continuous
 62
     7
370
    30
100
AcDbLine
 10
140.1959982882725
 20
1.481796436095522
 30
0.0
 11
134.8053732882725
 21
1.481796436095522
 31
0.0
  0
LINE
  5
1B1
330
1F
100
AcDbEntity
  8
100
  6
Continuous
 62
     7
370
    30
100
AcDbLine
 10
144.2389670382725
 20
1.423202686095522
 30
0.0
 11
140.1959982882725
 21
1.481796436095522
 31
0.0
  0
LINE
  5
1B2
330
1F
100
AcDbEntity
  8
100
  6
Continuous
 62
     7
370
    30
100
AcDbLine
 10
147.6959982882725
 20
1.364608936095522
 30
0.0
 11
144.2389670382725
 21
1.423202686095522
 31
0.0
  0
LINE
  5
1B3
330
1F
100
AcDbEntity
  8
100
  6
Continuous
 62
     7
370
    30
100
AcDbLine
 10
153.6725607882725
 20
0.6028901860955216
 30
0.0
 11
147.6959982882725
 21
1.364608936095522
 31
0.0
  0
LINE
  5
1B4
330
1F
100
AcDbEntity
  8
100
  6
Continuous
 62
     7
370
    30
100
AcDbLine
 10
161.6999045382725
 20
-0.3932035639044784
 30
0.0
 11
153.6725607882725
 21
0.6028901860955216
 31
0.0
  0
LINE
  5
1B5
330
1F
100
AcDbEntity
  8
100
  6
Continuous
 62
     7
370
    30
100
AcDbLine
 10
164.3952170382725
 20
-1.213516063904478
 30
0.0
 11
161.6999045382725
 21
-0.3932035639044784
 31
0.0
  0
LINE
  5
1B6
330
1F
100
AcDbEntity
  8
100
  6
Continuous
 62
     7
370
    30
100
AcDbLine
 10
168.9655295382725
 20
-2.151016063904478
 30
0.0
 11
164.3952170382725
 21
-1.213516063904478
 31
0.0
  0
LINE
  5
1B7
330
1F
100
AcDbEntity
  8
100
  6
Continuous
 62
     7
370
    30
100
AcDbLine
 10
172.7741232882725
 20
-3.908828563904478
 30
0.0
 11
168.9655295382725
 21
-2.151016063904478
 31
0.0
  0
LINE
  5
1B8
330
1F
100
AcDbEntity
  8
100
  6
Continuous
 62
     7
370
    30
100
AcDbLine
 10
177.9889670382725
 20
-6.604141063904478
 30
0.0
 11
172.7741232882725
 21
-3.908828563904478
 31
0.0
  0
LINE
  5
1B9
330
1F
100
AcDbEntity
  8
100
  6
Continuous
 62
     7
370
    30
100
AcDbLine
 10
182.5006857882725
 20
-9.065078563904478
 30
0.0
 11
177.9889670382725
 21
-6.604141063904478
 31
0.0
  0
LINE
  5
1BA
330
1F
100
AcDbEntity
  8
100
  6
Continuous
 62
     7
370
    30
100
AcDbLine
 10
186.1920920382725
 20
-12.17054731390448
 30
0.0
 11
182.5006857882725
 21
-9.065078563904478
 31
0.0
  0
LINE
  5
1BB
330
1F
100
AcDbEntity
  8
100
  6
Continuous
 62
     7
370
    30
100
AcDbLine
 10
188.8288107882725
 20
-14.27992231390448
 30
0.0
 11
186.1920920382725
 21
-12.17054731390448
 31
0.0
  0
LINE
  5
1BC
330
1F
100
AcDbEntity
  8
100
  6
Continuous
 62
     7
370
    30
100
AcDbLine
 10
177.6959982882725
 20
3.766952686095522
 30
0.0
 11
168.0280295382725
 21
7.341171436095522
 31
0.0
  0
LINE
  5
1BD
330
1F
100
AcDbEntity
  8
100
  6
Continuous
 62
     7
370
    30
100
AcDbLine
 10
182.2077170382725
 20
1.540390186095522
 30
0.0
 11
177.6959982882725
 21
3.766952686095522
 31
0.0
  0
LINE
  5
1BE
330
1F
100
AcDbEntity
  8
100
  6
Continuous
 62
     7
370
    30
100
AcDbLine
 10
186.6608420382725
 20
-1.740859813904478
 30
0.0
 11
182.2077170382725
 21
1.540390186095522
 31
0.0
  0
LINE
  5
1BF
330
1F
100
AcDbEntity
  8
100
  6
Continuous
 62
     7
370
    30
100
AcDbLine
 10
189.8834982882725
 20
-4.904922313904478
 30
0.0
 11
186.6608420382725
 21
-1.740859813904478
 31
0.0
  0
LINE
  5
1C0
330
1F
100
AcDbEntity
  8
100
  6
Continuous
 62
     7
370
    30
100
AcDbLine
 10
191.4375745868251
 20
-9.226903808957609
 30
0.0
 11
189.8834982882725
 21
-4.904922313904478
 31
0.0
  0
LINE
  5
1C1
330
1F
100
AcDbEntity
  8
100
  6
Continuous
 62
     7
370
    30
100
AcDbLine
 10
188.4186545382725
 20
-10.99867231390448
 30
0.0
 11
188.8288107882725
 21
-14.27992231390448
 31
0.0
  0
LINE
  5
1C2
330
1F
100
AcDbEntity
  8
100
  6
Continuous
 62
     7
370
    30
100
AcDbLine
 10
186.5436545382725
 20
-8.244766063904478
 30
0.0
 11
188.4186545382725
 21
-10.99867231390448
 31
0.0
  0
LINE
  5
1C3
330
1F
100
AcDbEntity
  8
100
  6
Continuous
 62
     7
370
    30
100
AcDbLine
 10
183.3209982882725
 20
-4.553359813904478
 30
0.0
 11
186.5436545382725
 21
-8.244766063904478
 31
0.0
  0
LINE
  5
1C4
330
1F
100
AcDbEntity
  8
100
  6
Continuous
 62
     7
370
    30
100
AcDbLine
 10
178.8092795382725
 20
-1.740859813904478
 30
0.0
 11
183.3209982882725
 21
-4.553359813904478
 31
0.0
  0
LINE
  5
1C5
330
1F
100
AcDbEntity
  8
100
  6
Continuous
 62
     7
370
    30
100
AcDbLine
 10
172.6569357882725
 20
0.9544526860955216
 30
0.0
 11
178.8092795382725
 21
-1.740859813904478
 31
0.0
  0
LINE
  5
1C6
330
1F
100
AcDbEntity
  8
100
  6
Continuous
 62
     7
370
    30
100
AcDbLine
 10
163.2819357882725
 20
4.411483936095522
 30
0.0
 11
172.6569357882725
 21
0.9544526860955216
 31
0.0
  0
LINE
  5
1C7
330
1F
100
AcDbEntity
  8
100
  6
Continuous
 62
     7
370
    30
100
AcDbLine
 10
154.1999045382725
 20
6.813827686095522
 30
0.0
 11
163.2819357882725
 21
4.411483936095522
 31
0.0
  0
LINE
  5
1C8
330
1F
100
AcDbEntity
  8
100
  6
Continuous
 62
     7
370
    30
100
AcDbLine
 10
143.2428732882725
 20
9.040390186095522
 30
0.0
 11
154.1999045382725
 21
6.813827686095522
 31
0.0
  0
LINE
  5
1C9
330
1F
100
AcDbEntity
  8
100
  6
Continuous
 62
     7
370
    30
100
AcDbLine
 10
133.2845698192358
 20
10.65075070788451
 30
0.0
 11
143.2428732882725
 21
9.040390186095522
 31
0.0
  0
LINE
  5
1CA
330
1F
100
AcDbEntity
  8
100
  6
Continuous
 62
     7
370
    30
100
AcDbLine
 10
158.8874045382725
 20
0.9544526860955216
 30
0.0
 11
161.6999045382725
 21
-0.3932035639044784
 31
0.0
  0
LINE
  5
1CB
330
1F
100
AcDbEntity
  8
100
  6
Continuous
 62
     7
370
    30
100
AcDbLine
 10
153.3209982882725
 20
2.770858936095522
 30
0.0
 11
158.8874045382725
 21
0.9544526860955216
 31
0.0
  0
LINE
  5
1CC
330
1F
100
AcDbEntity
  8
100
  6
Continuous
 62
     7
370
    30
100
AcDbLine
 10
145.0006857882725
 20
4.587265186095522
 30
0.0
 11
153.3209982882725
 21
2.770858936095522
 31
0.0
  0
LINE
  5
1CD
330
1F
100
AcDbEntity
  8
100
  6
Continuous
 62
     7
370
    30
100
AcDbLine
 10
136.9147482882725
 20
5.583358936095522
 30
0.0
 11
145.0006857882725
 21
4.587265186095522
 31
0.0
  0
LINE
  5
1CE
330
1F
100
AcDbEntity
  8
100
  6
Continuous
 62
     7
370
    30
100
AcDbLine
 10
131.0553732882725
 20
5.759140186095522
 30
0.0
 11
136.9147482882725
 21
5.583358936095522
 31
0.0
  0
LINE
  5
1CF
330
1F
100
AcDbEntity
  8
100
  6
Continuous
 62
     7
370
    30
100
AcDbLine
 10
123.7897482882725
 20
5.583358936095522
 30
0.0
 11
131.0553732882725
 21
5.759140186095522
 31
0.0
  0
LINE
  5
1D0
330
1F
100
AcDbEntity
  8
100
  6
Continuous
 62
     7
370
    30
100
AcDbLine
 10
121.0944357882725
 20
5.466171436095522
 30
0.0
 11
123.7897482882725
 21
5.583358936095522
 31
0.0
  0
LINE
  5
1D1
330
1F
100
AcDbEntity
  8
100
  6
Continuous
 62
     7
370
    30
100
AcDbLine
 10
118.0475607882725
 20
4.880233936095522
 30
0.0
 11
121.0944357882725
 21
5.466171436095522
 31
0.0
  0
LINE
  5
1D2
330
1F
100
AcDbEntity
  8
100
  6
Continuous
 62
     7
370
    30
100
AcDbLine
 10
115.4108420382725
 20
4.177108936095522
 30
0.0
 11
118.0475607882725
 21
4.880233936095522
 31
0.0
  0
LINE
  5
1D3
330
1F
100
AcDbEntity
  8
100
  6
Continuous
 62
     7
370
    30
100
AcDbLine
 10
112.1295920382725
 20
3.005233936095522
 30
0.0
 11
115.4108420382725
 21
4.177108936095522
 31
0.0
  0
LINE
  5
1D4
330
1F
100
AcDbEntity
  8
100
  6
Continuous
 62
     7
370
    30
100
AcDbLine
 10
108.7311545382725
 20
1.188827686095522
 30
0.0
 11
112.1295920382725
 21
3.005233936095522
 31
0.0
  0
LINE
  5
1D5
330
1F
100
AcDbEntity
  8
100
  6
Continuous
 62
     7
370
    30
100
AcDbLine
 10
106.0090679568889
 20
-0.3826021615164024
 30
0.0
 11
108.7311545382725
 21
1.188827686095522
 31
0.0
  0
LINE
  5
1D6
330
1F
100
AcDbEntity
  8
100
  6
Continuous
 62
     7
370
    30
100
AcDbLine
 10
119.6295920382725
 20
9.450546436095522
 30
0.0
 11
125.711795070745
 21
10.62185830812251
 31
0.0
  0
LINE
  5
1D7
330
1F
100
AcDbEntity
  8
100
  6
Continuous
 62
     7
370
    30
100
AcDbLine
 10
115.0592795382725
 20
8.454452686095522
 30
0.0
 11
119.6295920382725
 21
9.450546436095522
 31
0.0
  0
LINE
  5
1D8
330
1F
100
AcDbEntity
  8
100
  6
Continuous
 62
     7
370
    30
100
AcDbLine
 10
111.3092795382725
 20
7.223983936095522
 30
0.0
 11
115.0592795382725
 21
8.454452686095522
 31
0.0
  0
LINE
  5
1D9
330
1F
100
AcDbEntity
  8
100
  6
Continuous
 62
     7
370
    30
100
AcDbLine
 10
106.8561545382725
 20
5.583358936095522
 30
0.0
 11
111.3092795382725
 21
7.223983936095522
 31
0.0
  0
LINE
  5
1DA
330
1F
100
AcDbEntity
  8
100
  6
Continuous
 62
     7
370
    30
100
AcDbLine
 10
103.4577170382725
 20
3.649765186095522
 30
0.0
 11
106.8561545382725
 21
5.583358936095522
 31
0.0
  0
LINE
  5
1DB
330
1F
100
AcDbEntity
  8
100
  6
Continuous
 62
     7
370
    30
100
AcDbLine
 10
101.6999045382725
 20
1.598983936095522
 30
0.0
 11
103.4577170382725
 21
3.649765186095522
 31
0.0
  0
LINE
  5
1DC
330
1F
100
AcDbEntity
  8
100
  6
Continuous
 62
     7
370
    30
100
AcDbLine
 10
99.23896703827248
 20
3.649765186095522
 30
0.0
 11
98.99520391867242
 21
2.875145496047651
 31
0.0
  0
LINE
  5
1DD
330
1F
100
AcDbEntity
  8
100
  6
Continuous
 62
     7
370
    30
100
AcDbLine
 10
101.2897482882725
 20
5.290390186095522
 30
0.0
 11
99.23896703827248
 21
3.649765186095522
 31
0.0
  0
LINE
  5
1DE
330
1F
100
AcDbEntity
  8
100
  6
Continuous
 62
     7
370
    30
100
AcDbLine
 10
104.3366232882725
 20
6.755233936095522
 30
0.0
 11
101.2897482882725
 21
5.290390186095522
 31
0.0
  0
LINE
  5
1DF
330
1F
100
AcDbEntity
  8
100
  6
Continuous
 62
     7
370
    30
100
AcDbLine
 10
112.0124045382725
 20
8.630233936095522
 30
0.0
 11
104.3366232882725
 21
6.755233936095522
 31
0.0
  0
LINE
  5
1E0
330
1F
100
AcDbEntity
  8
100
  6
Continuous
 62
     7
370
    30
100
AcDbLine
 10
120.3913107882725
 20
10.09507768609552
 30
0.0
 11
112.0124045382725
 21
8.630233936095522
 31
0.0
  0
LINE
  5
1E1
330
1F
100
AcDbEntity
  8
100
  6
Continuous
 62
     7
370
    30
100
AcDbLine
 10
126.3092795382725
 20
10.68101518609552
 30
0.0
 11
120.3913107882725
 21
10.09507768609552
 31
0.0
  0
LINE
  5
1E2
330
1F
100
AcDbEntity
  8
100
  6
Continuous
 62
     7
370
    30
100
AcDbLine
 10
132.2858420382725
 20
10.68101518609552
 30
0.0
 11
126.3092795382725
 21
10.68101518609552
 31
0.0
  0
LINE
  5
1E3
330
1F
100
AcDbEntity
  8
100
  6
Continuous
 62
     7
370
    30
100
AcDbLine
 10
140.0202170382725
 20
10.44664018609552
 30
0.0
 11
132.2858420382725
 21
10.68101518609552
 31
0.0
  0
LINE
  5
1E4
330
1F
100
AcDbEntity
  8
100
  6
Continuous
 62
     7
370
    30
100
AcDbLine
 10
150.6842795382725
 20
9.567733936095522
 30
0.0
 11
140.0202170382725
 21
10.44664018609552
 31
0.0
  0
LINE
  5
1E5
330
1F
100
AcDbEntity
  8
100
  6
Continuous
 62
     7
370
    30
100
AcDbLine
 10
160.4108420382725
 20
8.688827686095522
 30
0.0
 11
150.6842795382725
 21
9.567733936095522
 31
0.0
  0
LINE
  5
1E6
330
1F
100
AcDbEntity
  8
100
  6
Continuous
 62
     7
370
    30
100
AcDbLine
 10
168.0280295382725
 20
7.341171436095522
 30
0.0
 11
160.4108420382725
 21
8.688827686095522
 31
0.0
  0
LINE
  5
1E7
330
1F
100
AcDbEntity
  8
100
  6
Continuous
 62
     7
370
    30
100
AcDbLine
 10
174.2975607882725
 20
5.524765186095522
 30
0.0
 11
168.0280295382725
 21
7.341171436095522
 31
0.0
  0
LINE
  5
1E8
330
1F
100
AcDbEntity
  8
100
  6
Continuous
 62
     7
370
    30
100
AcDbLine
 10
180.9186545382725
 20
3.298202686095522
 30
0.0
 11
174.2975607882725
 21
5.524765186095522
 31
0.0
  0
LINE
  5
1E9
330
1F
100
AcDbEntity
  8
100
  6
Continuous
 62
     7
370
    30
100
AcDbLine
 10
186.3678732882725
 20
0.3099214360955216
 30
0.0
 11
180.9186545382725
 21
3.298202686095522
 31
0.0
  0
LINE
  5
1EA
330
1F
100
AcDbEntity
  8
100
  6
Continuous
 62
     7
370
    30
100
AcDbLine
 10
190.3522482882725
 20
-3.967422313904478
 30
0.0
 11
186.3678732882725
 21
0.3099214360955216
 31
0.0
  0
LINE
  5
1EB
330
1F
100
AcDbEntity
  8
100
  6
Continuous
 62
     7
370
    30
100
AcDbLine
 10
191.5827170382725
 20
-7.717422313904478
 30
0.0
 11
190.3522482882725
 21
-3.967422313904478
 31
0.0
  0
LINE
  5
1EC
330
1F
100
AcDbEntity
  8
100
  6
Continuous
 62
     7
370
    30
100
AcDbLine
 10
191.2897482882725
 20
-10.76429731390448
 30
0.0
 11
191.5827170382725
 21
-7.717422313904478
 31
0.0
  0
LINE
  5
1ED
330
1F
100
AcDbEntity
  8
100
  6
Continuous
 62
     7
370
    30
100
AcDbLine
 10
188.8288107882725
 20
-14.27992231390448
 30
0.0
 11
191.2897482882725
 21
-10.76429731390448
 31
0.0
  0
LINE
  5
1EE
330
1F
100
AcDbEntity
  8
100
  6
Continuous
 62
     7
370
    30
100
AcDbLine
 10
185.1374045382725
 20
-16.62367231390448
 30
0.0
 11
188.8288107882725
 21
-14.27992231390448
 31
0.0
  0
LINE
  5
1EF
330
1F
100
AcDbEntity
  8
100
  6
Continuous
 62
     7
370
    30
100
AcDbLine
 10
179.6295920382725
 20
-18.49867231390448
 30
0.0
 11
185.1374045382725
 21
-16.62367231390448
 31
0.0
  0
LINE
  5
1F0
330
1F
100
AcDbEntity
  8
100
  6
Continuous
 62
     7
370
    30
100
AcDbLine
 10
171.8952170382725
 20
-19.96351606390448
 30
0.0
 11
179.6295920382725
 21
-18.49867231390448
 31
0.0
  0
LINE
  5
1F1
330
1F
100
AcDbEntity
  8
100
  6
Continuous
 62
     7
370
    30
100
AcDbLine
 10
166.4459982882725
 20
-20.78382856390448
 30
0.0
 11
171.8952170382725
 21
-19.96351606390448
 31
0.0
  0
LINE
  5
1F2
330
1F
100
AcDbEntity
  8
100
  6
Continuous
 62
     7
370
    30
100
AcDbLine
 10
190.0006857882725
 20
-19.61195356390448
 30
0.0
 11
184.3170920382725
 21
-22.01429731390448
 31
0.0
  0
LINE
  5
1F3
330
1F
100
AcDbEntity
  8
100
  6
Continuous
 62
     7
370
    30
100
AcDbLine
 10
193.9850607882725
 20
-15.97914106390448
 30
0.0
 11
190.0006857882725
 21
-19.61195356390448
 31
0.0
  0
LINE
  5
1F4
330
1F
100
AcDbEntity
  8
100
  6
Continuous
 62
     7
370
    30
100
AcDbLine
 10
196.5631857882725
 20
-11.93617231390448
 30
0.0
 11
193.9850607882725
 21
-15.97914106390448
 31
0.0
  0
LINE
  5
1F5
330
1F
100
AcDbEntity
  8
100
  6
Continuous
 62
     7
370
    30
100
AcDbLine
 10
196.9147482882725
 20
-8.244766063904478
 30
0.0
 11
196.5631857882725
 21
-11.93617231390448
 31
0.0
  0
LINE
  5
1F6
330
1F
100
AcDbEntity
  8
100
  6
Continuous
 62
     7
370
    30
100
AcDbLine
 10
196.4459982882725
 20
-4.026016063904478
 30
0.0
 11
196.9147482882725
 21
-8.244766063904478
 31
0.0
  0
LINE
  5
1F7
330
1F
100
AcDbEntity
  8
100
  6
Continuous
 62
     7
370
    30
100
AcDbLine
 10
193.2819357882725
 20
0.1341401860955216
 30
0.0
 11
196.4459982882725
 21
-4.026016063904478
 31
0.0
  0
LINE
  5
1F8
330
1F
100
AcDbEntity
  8
100
  6
Continuous
 62
     7
370
    30
100
AcDbLine
 10
189.7663107882725
 20
3.942733936095522
 30
0.0
 11
193.2819357882725
 21
0.1341401860955216
 31
0.0
  0
LINE
  5
1F9
330
1F
100
AcDbEntity
  8
100
  6
Continuous
 62
     7
370
    30
100
AcDbLine
 10
184.2584982882725
 20
7.458358936095522
 30
0.0
 11
189.7663107882725
 21
3.942733936095522
 31
0.0
  0
LINE
  5
1FA
330
1F
100
AcDbEntity
  8
100
  6
Continuous
 62
     7
370
    30
100
AcDbLine
 10
176.1139670382725
 20
10.85679643609552
 30
0.0
 11
184.2584982882725
 21
7.458358936095522
 31
0.0
  0
LINE
  5
1FB
330
1F
100
AcDbEntity
  8
100
  6
Continuous
 62
     7
370
    30
100
AcDbLine
 10
166.3874045382725
 20
13.02476518609552
 30
0.0
 11
176.1139670382725
 21
10.85679643609552
 31
0.0
  0
LINE
  5
1FC
330
1F
100
AcDbEntity
  8
100
  6
Continuous
 62
     7
370
    30
100
AcDbLine
 10
155.6647482882725
 20
14.13804643609552
 30
0.0
 11
166.3874045382725
 21
13.02476518609552
 31
0.0
  0
LINE
  5
1FD
330
1F
100
AcDbEntity
  8
100
  6
Continuous
 62
     7
370
    30
100
AcDbLine
 10
142.5397482882725
 20
15.01695268609552
 30
0.0
 11
155.6647482882725
 21
14.13804643609552
 31
0.0
  0
LINE
  5
1FE
330
1F
100
AcDbEntity
  8
100
  6
Continuous
 62
     7
370
    30
100
AcDbLine
 10
132.3444357882725
 20
14.78257768609552
 30
0.0
 11
142.5397482882725
 21
15.01695268609552
 31
0.0
  0
LINE
  5
1FF
330
1F
100
AcDbEntity
  8
100
  6
Continuous
 62
     7
370
    30
100
AcDbLine
 10
124.1413107882725
 20
14.43101518609552
 30
0.0
 11
132.3444357882725
 21
14.78257768609552
 31
0.0
  0
LINE
  5
200
330
1F
100
AcDbEntity
  8
100
  6
Continuous
 62
     7
370
    30
100
AcDbLine
 10
117.5788107882725
 20
13.72789018609552
 30
0.0
 11
124.1413107882725
 21
14.43101518609552
 31
0.0
  0
LINE
  5
201
330
1F
100
AcDbEntity
  8
100
  6
Continuous
 62
     7
370
    30
100
AcDbLine
 10
112.6569357882725
 20
13.08335893609552
 30
0.0
 11
117.5788107882725
 21
13.72789018609552
 31
0.0
  0
LINE
  5
202
330
1F
100
AcDbEntity
  8
100
  6
Continuous
 62
     7
370
    30
100
AcDbLine
 10
107.2077170382725
 20
11.97007768609552
 30
0.0
 11
112.6569357882725
 21
13.08335893609552
 31
0.0
  0
LINE
  5
203
330
1F
100
AcDbEntity
  8
100
  6
Continuous
 62
     7
370
    30
100
AcDbLine
 10
102.5788107882725
 20
10.27085893609552
 30
0.0
 11
107.2077170382725
 21
11.97007768609552
 31
0.0
  0
LINE
  5
204
330
1F
100
AcDbEntity
  8
100
  6
Continuous
 62
     7
370
    30
100
AcDbLine
 10
98.53584203827248
 20
8.454452686095522
 30
0.0
 11
102.5788107882725
 21
10.27085893609552
 31
0.0
  0
LINE
  5
205
330
1F
100
AcDbEntity
  8
100
  6
Continuous
 62
     7
370
    30
100
AcDbLine
 10
95.48896703827248
 20
6.520858936095522
 30
0.0
 11
98.53584203827248
 21
8.454452686095522
 31
0.0
  0
LINE
  5
206
330
1F
100
AcDbEntity
  8
100
  6
Continuous
 62
     7
370
    30
100
AcDbLine
 10
94.40052033553852
 20
5.043059581047459
 30
0.0
 11
95.48896703827248
 21
6.520858936095522
 31
0.0
  0
LINE
  5
207
330
1F
100
AcDbEntity
  8
100
  6
Continuous
 62
     7
370
    30
100
AcDbLine
 10
161.8170920382725
 20
-24.76820356390448
 30
0.0
 11
168.7897482882725
 21
-26.70179731390448
 31
0.0
  0
LINE
  5
208
330
1F
100
AcDbEntity
  8
100
  6
Continuous
 62
     7
370
    30
100
AcDbLine
 10
151.2116232882725
 20
-21.66273481390448
 30
0.0
 11
161.8170920382725
 21
-24.76820356390448
 31
0.0
  0
LINE
  5
209
330
1F
100
AcDbEntity
  8
100
  6
Continuous
 62
     7
370
    30
100
AcDbLine
 10
139.4342795382725
 20
-18.26429731390448
 30
0.0
 11
151.2116232882725
 21
-21.66273481390448
 31
0.0
  0
LINE
  5
20A
330
1F
100
AcDbEntity
  8
100
  6
Continuous
 62
     7
370
    30
100
AcDbLine
 10
130.0592795382725
 20
-15.15882856390448
 30
0.0
 11
139.4342795382725
 21
-18.26429731390448
 31
0.0
  0
LINE
  5
20B
330
1F
100
AcDbEntity
  8
100
  6
Continuous
 62
     7
370
    30
100
AcDbLine
 10
117.9303732882725
 20
-10.64710981390448
 30
0.0
 11
130.0592795382725
 21
-15.15882856390448
 31
0.0
  0
LINE
  5
20C
330
1F
100
AcDbEntity
  8
100
  6
Continuous
 62
     7
370
    30
100
AcDbLine
 10
105.0983420382725
 20
-5.197891063904478
 30
0.0
 11
117.9303732882725
 21
-10.64710981390448
 31
0.0
  0
LINE
  5
20D
330
1F
100
AcDbEntity
  8
100
  6
Continuous
 62
     7
370
    30
100
AcDbLine
 10
99.59052953827248
 20
-3.029922313904478
 30
0.0
 11
105.0983420382725
 21
-5.197891063904478
 31
0.0
  0
LINE
  5
20E
330
1F
100
AcDbEntity
  8
100
  6
Continuous
 62
     7
370
    30
100
AcDbLine
 10
94.08271703827248
 20
-0.2760160639044784
 30
0.0
 11
99.59052953827248
 21
-3.029922313904478
 31
0.0
  0
LINE
  5
20F
330
1F
100
AcDbEntity
  8
100
  6
Continuous
 62
     7
370
    30
100
AcDbLine
 10
88.80927953827248
 20
2.946640186095522
 30
0.0
 11
94.08271703827248
 21
-0.2760160639044784
 31
0.0
  0
LINE
  5
210
330
1F
100
AcDbEntity
  8
100
  6
Continuous
 62
     7
370
    30
100
AcDbLine
 10
83.88740453827248
 20
5.700546436095522
 30
0.0
 11
88.80927953827248
 21
2.946640186095522
 31
0.0
  0
LINE
  5
211
330
1F
100
AcDbEntity
  8
100
  6
Continuous
 62
     7
370
    30
100
AcDbLine
 10
80.60615453827248
 20
8.220077686095522
 30
0.0
 11
83.88740453827248
 21
5.700546436095522
 31
0.0
  0
LINE
  5
212
330
1F
100
AcDbEntity
  8
100
  6
Continuous
 62
     7
370
    30
100
AcDbLine
 10
76.06926188011096
 20
10.50639939480671
 30
0.0
 11
80.60615453827248
 21
8.220077686095522
 31
0.0
  0
LINE
  5
213
330
1F
100
AcDbEntity
  8
100
  6
Continuous
 62
     7
370
    30
100
AcDbLine
 10
91.62177953827248
 20
8.337265186095522
 30
0.0
 11
90.29417931674897
 21
7.150861079871419
 31
0.0
  0
LINE
  5
214
330
1F
100
AcDbEntity
  8
100
  6
Continuous
 62
     7
370
    30
100
AcDbLine
 10
94.31709203827248
 20
10.15367143609552
 30
0.0
 11
91.62177953827248
 21
8.337265186095522
 31
0.0
  0
LINE
  5
215
330
1F
100
AcDbEntity
  8
100
  6
Continuous
 62
     7
370
    30
100
AcDbLine
 10
97.30537328827248
 20
11.50132768609552
 30
0.0
 11
94.31709203827248
 21
10.15367143609552
 31
0.0
  0
LINE
  5
216
330
1F
100
AcDbEntity
  8
100
  6
Continuous
 62
     7
370
    30
100
AcDbLine
 10
103.3991232882725
 20
13.49351518609552
 30
0.0
 11
97.30537328827248
 21
11.50132768609552
 31
0.0
  0
LINE
  5
217
330
1F
100
AcDbEntity
  8
100
  6
Continuous
 62
     7
370
    30
100
AcDbLine
 10
111.4264670382725
 20
15.30992143609552
 30
0.0
 11
103.3991232882725
 21
13.49351518609552
 31
0.0
  0
LINE
  5
218
330
1F
100
AcDbEntity
  8
100
  6
Continuous
 62
     7
370
    30
100
AcDbLine
 10
117.5202170382725
 20
16.36460893609552
 30
0.0
 11
111.4264670382725
 21
15.30992143609552
 31
0.0
  0
LINE
  5
219
330
1F
100
AcDbEntity
  8
100
  6
Continuous
 62
     7
370
    30
100
AcDbLine
 10
123.4967795382725
 20
17.00914018609552
 30
0.0
 11
117.5202170382725
 21
16.36460893609552
 31
0.0
  0
LINE
  5
21A
330
1F
100
AcDbEntity
  8
100
  6
Continuous
 62
     7
370
    30
100
AcDbLine
 10
129.8834982882725
 20
17.30210893609552
 30
0.0
 11
123.4967795382725
 21
17.00914018609552
 31
0.0
  0
LINE
  5
21B
330
1F
100
AcDbEntity
  8
100
  6
Continuous
 62
     7
370
    30
100
AcDbLine
 10
136.8561545382725
 20
17.41929643609552
 30
0.0
 11
129.8834982882725
 21
17.30210893609552
 31
0.0
  0
LINE
  5
21C
330
1F
100
AcDbEntity
  8
100
  6
Continuous
 62
     7
370
    30
100
AcDbLine
 10
144.7663107882725
 20
17.30210893609552
 30
0.0
 11
136.8561545382725
 21
17.41929643609552
 31
0.0
  0
LINE
  5
21D
330
1F
100
AcDbEntity
  8
100
  6
Continuous
 62
     7
370
    30
100
AcDbLine
 10
151.8561545382725
 20
17.00914018609552
 30
0.0
 11
144.7663107882725
 21
17.30210893609552
 31
0.0
  0
LINE
  5
21E
330
1F
100
AcDbEntity
  8
100
  6
Continuous
 62
     7
370
    30
100
AcDbLine
 10
161.1139670382725
 20
15.95445268609552
 30
0.0
 11
151.8561545382725
 21
17.00914018609552
 31
0.0
  0
LINE
  5
21F
330
1F
100
AcDbEntity
  8
100
  6
Continuous
 62
     7
370
    30
100
AcDbLine
 10
171.3092795382725
 20
14.37242143609552
 30
0.0
 11
161.1139670382725
 21
15.95445268609552
 31
0.0
  0
LINE
  5
220
330
1F
100
AcDbEntity
  8
100
  6
Continuous
 62
     7
370
    30
100
AcDbLine
 10
177.8131857882725
 20
12.61460893609552
 30
0.0
 11
171.3092795382725
 21
14.37242143609552
 31
0.0
  0
LINE
  5
221
330
1F
100
AcDbEntity
  8
100
  6
Continuous
 62
     7
370
    30
100
AcDbLine
 10
183.9069357882725
 20
10.15367143609552
 30
0.0
 11
177.8131857882725
 21
12.61460893609552
 31
0.0
  0
LINE
  5
222
330
1F
100
AcDbEntity
  8
100
  6
Continuous
 62
     7
370
    30
100
AcDbLine
 10
188.7702170382725
 20
7.634140186095522
 30
0.0
 11
183.9069357882725
 21
10.15367143609552
 31
0.0
  0
LINE
  5
223
330
1F
100
AcDbEntity
  8
100
  6
Continuous
 62
     7
370
    30
100
AcDbLine
 10
193.9264670382725
 20
3.942733936095522
 30
0.0
 11
188.7702170382725
 21
7.634140186095522
 31
0.0
  0
LINE
  5
224
330
1F
100
AcDbEntity
  8
100
  6
Continuous
 62
     7
370
    30
100
AcDbLine
 10
198.0866232882725
 20
-0.6275785639044784
 30
0.0
 11
193.9264670382725
 21
3.942733936095522
 31
0.0
  0
LINE
  5
225
330
1F
100
AcDbEntity
  8
100
  6
Continuous
 62
     7
370
    30
100
AcDbLine
 10
199.9030295382725
 20
-4.670547313904478
 30
0.0
 11
198.0866232882725
 21
-0.6275785639044784
 31
0.0
  0
LINE
  5
226
330
1F
100
AcDbEntity
  8
100
  6
Continuous
 62
     7
370
    30
100
AcDbLine
 10
201.3092795382725
 20
-8.186172313904478
 30
0.0
 11
199.9030295382725
 21
-4.670547313904478
 31
0.0
  0
LINE
  5
227
330
1F
100
AcDbEntity
  8
100
  6
Continuous
 62
     7
370
    30
100
AcDbLine
 10
201.4264670382725
 20
-11.46742231390448
 30
0.0
 11
201.3092795382725
 21
-8.186172313904478
 31
0.0
  0
LINE
  5
228
330
1F
100
AcDbEntity
  8
100
  6
Continuous
 62
     7
370
    30
100
AcDbLine
 10
200.3131857882725
 20
-15.15882856390448
 30
0.0
 11
201.4264670382725
 21
-11.46742231390448
 31
0.0
  0
LINE
  5
229
330
1F
100
AcDbEntity
  8
100
  6
Continuous
 62
     7
370
    30
100
AcDbLine
 10
197.6764670382725
 20
-18.85023481390448
 30
0.0
 11
200.3131857882725
 21
-15.15882856390448
 31
0.0
  0
LINE
  5
22A
330
1F
100
AcDbEntity
  8
100
  6
Continuous
 62
     7
370
    30
100
AcDbLine
 10
193.5749045382725
 20
-20.90101606390448
 30
0.0
 11
197.6764670382725
 21
-18.85023481390448
 31
0.0
  0
LINE
  5
22B
330
1F
100
AcDbEntity
  8
100
  6
Continuous
 62
     7
370
    30
100
AcDbLine
 10
185.7819357882725
 20
-22.01429731390448
 30
0.0
 11
193.5749045382725
 21
-20.90101606390448
 31
0.0
  0
LINE
  5
22C
330
1F
100
AcDbEntity
  8
100
  6
Continuous
 62
     7
370
    30
100
AcDbLine
 10
177.5202170382725
 20
-22.01429731390448
 30
0.0
 11
185.7819357882725
 21
-22.01429731390448
 31
0.0
  0
LINE
  5
22D
330
1F
100
AcDbEntity
  8
100
  6
Continuous
 62
     7
370
    30
100
AcDbLine
 10
170.6647482882725
 20
-21.54554731390448
 30
0.0
 11
177.5202170382725
 21
-22.01429731390448
 31
0.0
  0
LINE
  5
22E
330
1F
100
AcDbEntity
  8
100
  6
Continuous
 62
     7
370
    30
100
AcDbLine
 10
166.4459982882725
 20
-20.78382856390448
 30
0.0
 11
170.6647482882725
 21
-21.54554731390448
 31
0.0
  0
LINE
  5
22F
330
1F
100
AcDbEntity
  8
100
  6
Continuous
 62
     7
370
    30
100
AcDbLine
 10
162.2858420382725
 20
-19.55335981390448
 30
0.0
 11
166.4459982882725
 21
-20.78382856390448
 31
0.0
  0
LINE
  5
230
330
1F
100
AcDbEntity
  8
100
  6
Continuous
 62
     7
370
    30
100
AcDbLine
 10
152.3249045382725
 20
-16.91664106390448
 30
0.0
 11
162.2858420382725
 21
-19.55335981390448
 31
0.0
  0
LINE
  5
231
330
1F
100
AcDbEntity
  8
100
  6
Continuous
 62
     7
370
    30
100
AcDbLine
 10
140.1374045382725
 20
-13.28382856390448
 30
0.0
 11
152.3249045382725
 21
-16.91664106390448
 31
0.0
  0
LINE
  5
232
330
1F
100
AcDbEntity
  8
100
  6
Continuous
 62
     7
370
    30
100
AcDbLine
 10
128.5944357882725
 20
-9.416641063904478
 30
0.0
 11
140.1374045382725
 21
-13.28382856390448
 31
0.0
  0
LINE
  5
233
330
1F
100
AcDbEntity
  8
100
  6
Continuous
 62
     7
370
    30
100
AcDbLine
 10
119.8053732882725
 20
-6.076797313904478
 30
0.0
 11
128.5944357882725
 21
-9.416641063904478
 31
0.0
  0
LINE
  5
234
330
1F
100
AcDbEntity
  8
100
  6
Continuous
 62
     7
370
    30
100
AcDbLine
 10
109.7272482882725
 20
-2.092422313904478
 30
0.0
 11
119.8053732882725
 21
-6.076797313904478
 31
0.0
  0
LINE
  5
235
330
1F
100
AcDbEntity
  8
100
  6
Continuous
 62
     7
370
    30
100
AcDbLine
 10
101.6999045382725
 20
1.598983936095522
 30
0.0
 11
109.7272482882725
 21
-2.092422313904478
 31
0.0
  0
LINE
  5
236
330
1F
100
AcDbEntity
  8
100
  6
Continuous
 62
     7
370
    30
100
AcDbLine
 10
93.37959203827248
 20
5.524765186095522
 30
0.0
 11
101.6999045382725
 21
1.598983936095522
 31
0.0
  0
LINE
  5
237
330
1F
100
AcDbEntity
  8
100
  6
Continuous
 62
     7
370
    30
100
AcDbLine
 10
89.04365453827248
 20
7.809921436095522
 30
0.0
 11
93.37959203827248
 21
5.524765186095522
 31
0.0
  0
LINE
  5
238
330
1F
100
AcDbEntity
  8
100
  6
Continuous
 62
     7
370
    30
100
AcDbLine
 10
84.88349828827248
 20
10.21226518609552
 30
0.0
 11
89.04365453827248
 21
7.809921436095522
 31
0.0
  0
LINE
  5
239
330
1F
100
AcDbEntity
  8
100
  6
Continuous
 62
     7
370
    30
100
AcDbLine
 10
81.66084203827248
 20
12.32164018609552
 30
0.0
 11
84.88349828827248
 21
10.21226518609552
 31
0.0
  0
LINE
  5
23A
330
1F
100
AcDbEntity
  8
100
  6
Continuous
 62
     7
370
    30
100
AcDbLine
 10
78.08662328827248
 20
14.07945268609552
 30
0.0
 11
81.66084203827248
 21
12.32164018609552
 31
0.0
  0
LINE
  5
23B
330
1F
100
AcDbEntity
  8
100
  6
Continuous
 62
     7
370
    30
100
AcDbLine
 10
76.24881212137947
 20
14.89985129876172
 30
0.0
 11
78.08662328827248
 21
14.07945268609552
 31
0.0
  0
LINE
  5
23C
330
1F
100
AcDbEntity
  8
100
  6
Continuous
 62
     7
370
    30
100
AcDbLine
 10
69.18037328827248
 20
-15.99378950140448
 30
0.0
 11
68.63838110077248
 21
-15.97914106390448
 31
0.0
  0
LINE
  5
23D
330
1F
100
AcDbEntity
  8
100
  6
Continuous
 62
     7
370
    30
100
AcDbLine
 10
69.60517797577248
 20
-15.80335981390448
 30
0.0
 11
69.18037328827248
 21
-15.99378950140448
 31
0.0
  0
LINE
  5
23E
330
1F
100
AcDbEntity
  8
100
  6
Continuous
 62
     7
370
    30
100
AcDbLine
 10
70.08857641327248
 20
-15.55433637640448
 30
0.0
 11
69.60517797577248
 21
-15.80335981390448
 31
0.0
  0
LINE
  5
23F
330
1F
100
AcDbEntity
  8
100
  6
Continuous
 62
     7
370
    30
100
AcDbLine
 10
70.36689672577248
 20
-15.33460981390448
 30
0.0
 11
70.08857641327248
 21
-15.55433637640448
 31
0.0
  0
LINE
  5
240
330
1F
100
AcDbEntity
  8
100
  6
Continuous
 62
     7
370
    30
100
AcDbLine
 10
70.36689672577248
 20
-14.90980512640448
 30
0.0
 11
70.36689672577248
 21
-15.33460981390448
 31
0.0
  0
LINE
  5
241
330
1F
100
AcDbEntity
  8
100
  6
Continuous
 62
     7
370
    30
100
AcDbLine
 10
70.22041235077248
 20
-14.58753950140448
 30
0.0
 11
70.36689672577248
 21
-14.90980512640448
 31
0.0
  0
LINE
  5
242
330
1F
100
AcDbEntity
  8
100
  6
Continuous
 62
     7
370
    30
100
AcDbLine
 10
69.83955297577248
 20
-14.38246137640448
 30
0.0
 11
70.22041235077248
 21
-14.58753950140448
 31
0.0
  0
LINE
  5
243
330
1F
100
AcDbEntity
  8
100
  6
Continuous
 62
     7
370
    30
100
AcDbLine
 10
69.04853735077248
 20
-14.29457075140448
 30
0.0
 11
69.83955297577248
 21
-14.38246137640448
 31
0.0
  0
LINE
  5
244
330
1F
100
AcDbEntity
  8
100
  6
Continuous
 62
     7
370
    30
100
AcDbLine
 10
68.44795141327248
 20
-14.29457075140448
 30
0.0
 11
69.04853735077248
 21
-14.29457075140448
 31
0.0
  0
LINE
  5
245
330
1F
100
AcDbEntity
  8
100
  6
Continuous
 62
     7
370
    30
100
AcDbLine
 10
67.70088110077248
 20
-14.30921918890448
 30
0.0
 11
68.44795141327248
 21
-14.29457075140448
 31
0.0
  0
LINE
  5
246
330
1F
100
AcDbEntity
  8
100
  6
Continuous
 62
     7
370
    30
100
AcDbLine
 10
67.23213110077248
 20
-14.45570356390448
 30
0.0
 11
67.70088110077248
 21
-14.30921918890448
 31
0.0
  0
LINE
  5
247
330
1F
100
AcDbEntity
  8
100
  6
Continuous
 62
     7
370
    30
100
AcDbLine
 10
67.04170141327248
 20
-14.77796918890448
 30
0.0
 11
67.23213110077248
 21
-14.45570356390448
 31
0.0
  0
LINE
  5
248
330
1F
100
AcDbEntity
  8
100
  6
Continuous
 62
     7
370
    30
100
AcDbLine
 10
67.04170141327248
 20
-15.18812543890448
 30
0.0
 11
67.04170141327248
 21
-14.77796918890448
 31
0.0
  0
LINE
  5
249
330
1F
100
AcDbEntity
  8
100
  6
Continuous
 62
     7
370
    30
100
AcDbLine
 10
67.11494360077248
 20
-15.58363325140448
 30
0.0
 11
67.04170141327248
 21
-15.18812543890448
 31
0.0
  0
LINE
  5
24A
330
1F
100
AcDbEntity
  8
100
  6
Continuous
 62
     7
370
    30
100
AcDbLine
 10
67.48115453827248
 20
-15.78871137640448
 30
0.0
 11
67.11494360077248
 21
-15.58363325140448
 31
0.0
  0
LINE
  5
24B
330
1F
100
AcDbEntity
  8
100
  6
Continuous
 62
     7
370
    30
100
AcDbLine
 10
68.03779516327248
 20
-15.92054731390448
 30
0.0
 11
67.48115453827248
 21
-15.78871137640448
 31
0.0
  0
LINE
  5
24C
330
1F
100
AcDbEntity
  8
100
  6
Continuous
 62
     7
370
    30
100
AcDbLine
 10
68.63838110077248
 20
-15.97914106390448
 30
0.0
 11
68.03779516327248
 21
-15.92054731390448
 31
0.0
  0
LINE
  5
24D
330
1F
100
AcDbEntity
  8
100
  6
Continuous
 62
     7
370
    30
100
AcDbLine
 10
11.49482641327247
 20
-9.519180126404478
 30
0.0
 11
10.87959203827247
 21
-9.563125438904478
 31
0.0
  0
LINE
  5
24E
330
1F
100
AcDbEntity
  8
100
  6
Continuous
 62
     7
370
    30
100
AcDbLine
 10
11.99287328827247
 20
-9.460586376404478
 30
0.0
 11
11.49482641327247
 21
-9.519180126404478
 31
0.0
  0
LINE
  5
24F
330
1F
100
AcDbEntity
  8
100
  6
Continuous
 62
     7
370
    30
100
AcDbLine
 10
12.56416235077247
 20
-9.167617626404478
 30
0.0
 11
11.99287328827247
 21
-9.460586376404478
 31
0.0
  0
LINE
  5
250
330
1F
100
AcDbEntity
  8
100
  6
Continuous
 62
     7
370
    30
100
AcDbLine
 10
12.59345922577247
 20
-8.669570751404478
 30
0.0
 11
12.56416235077247
 21
-9.167617626404478
 31
0.0
  0
LINE
  5
251
330
1F
100
AcDbEntity
  8
100
  6
Continuous
 62
     7
370
    30
100
AcDbLine
 10
12.34443578827247
 20
-8.376602001404478
 30
0.0
 11
12.59345922577247
 21
-8.669570751404478
 31
0.0
  0
LINE
  5
252
330
1F
100
AcDbEntity
  8
100
  6
Continuous
 62
     7
370
    30
100
AcDbLine
 10
11.83174047577247
 20
-8.259414501404478
 30
0.0
 11
12.34443578827247
 21
-8.376602001404478
 31
0.0
  0
LINE
  5
253
330
1F
100
AcDbEntity
  8
100
  6
Continuous
 62
     7
370
    30
100
AcDbLine
 10
11.09931860077247
 20
-8.244766063904478
 30
0.0
 11
11.83174047577247
 21
-8.259414501404478
 31
0.0
  0
LINE
  5
254
330
1F
100
AcDbEntity
  8
100
  6
Continuous
 62
     7
370
    30
100
AcDbLine
 10
10.52802953827247
 20
-8.244766063904478
 30
0.0
 11
11.09931860077247
 21
-8.244766063904478
 31
0.0
  0
LINE
  5
255
330
1F
100
AcDbEntity
  8
100
  6
Continuous
 62
     7
370
    30
100
AcDbLine
 10
9.83955297577247
 20
-8.435195751404478
 30
0.0
 11
10.52802953827247
 21
-8.244766063904478
 31
0.0
  0
LINE
  5
256
330
1F
100
AcDbEntity
  8
100
  6
Continuous
 62
     7
370
    30
100
AcDbLine
 10
9.63447485077247
 20
-8.757461376404478
 30
0.0
 11
9.83955297577247
 21
-8.435195751404478
 31
0.0
  0
LINE
  5
257
330
1F
100
AcDbEntity
  8
100
  6
Continuous
 62
     7
370
    30
100
AcDbLine
 10
9.63447485077247
 20
-9.094375438904478
 30
0.0
 11
9.63447485077247
 21
-8.757461376404478
 31
0.0
  0
LINE
  5
258
330
1F
100
AcDbEntity
  8
100
  6
Continuous
 62
     7
370
    30
100
AcDbLine
 10
10.00068578827247
 20
-9.445937938904478
 30
0.0
 11
9.63447485077247
 21
-9.094375438904478
 31
0.0
  0
LINE
  5
259
330
1F
100
AcDbEntity
  8
100
  6
Continuous
 62
     7
370
    30
100
AcDbLine
 10
10.87959203827247
 20
-9.563125438904478
 30
0.0
 11
10.00068578827247
 21
-9.445937938904478
 31
0.0
  0
LINE
  5
25A
330
1F
100
AcDbEntity
  8
100
  6
Continuous
 62
     7
370
    30
100
AcDbLine
 10
4.40498266327247
 20
-1.374648876404478
 30
0.0
 11
4.472052185490679
 21
-1.018530966361126
 31
0.0
  0
LINE
  5
25B
330
1F
100
AcDbEntity
  8
100
  6
Continuous
 62
     7
370
    30
100
AcDbLine
 10
4.19990453827247
 20
-2.268203563904478
 30
0.0
 11
4.40498266327247
 21
-1.374648876404478
 31
0.0
  0
LINE
  5
25C
330
1F
100
AcDbEntity
  8
100
  6
Continuous
 62
     7
370
    30
100
AcDbLine
 10
4.06806860077247
 20
-3.527969188904478
 30
0.0
 11
4.19990453827247
 21
-2.268203563904478
 31
0.0
  0
LINE
  5
25D
330
1F
100
AcDbEntity
  8
100
  6
Continuous
 62
     7
370
    30
100
AcDbLine
 10
4.27314672577247
 20
-5.315078563904478
 30
0.0
 11
4.06806860077247
 21
-3.527969188904478
 31
0.0
  0
LINE
  5
25E
330
1F
100
AcDbEntity
  8
100
  6
Continuous
 62
     7
370
    30
100
AcDbLine
 10
4.91767797577247
 20
-7.160781688904478
 30
0.0
 11
4.27314672577247
 21
-5.315078563904478
 31
0.0
  0
LINE
  5
25F
330
1F
100
AcDbEntity
  8
100
  6
Continuous
 62
     7
370
    30
100
AcDbLine
 10
7.08564672577247
 20
-9.738906688904478
 30
0.0
 11
4.91767797577247
 21
-7.160781688904478
 31
0.0
  0
LINE
  5
260
330
1F
100
AcDbEntity
  8
100
  6
Continuous
 62
     7
370
    30
100
AcDbLine
 10
9.95674047577247
 20
-12.08265668890448
 30
0.0
 11
7.08564672577247
 21
-9.738906688904478
 31
0.0
  0
LINE
  5
261
330
1F
100
AcDbEntity
  8
100
  6
Continuous
 62
     7
370
    30
100
AcDbLine
 10
16.28486547577247
 20
-15.42250043890448
 30
0.0
 11
9.95674047577247
 21
-12.08265668890448
 31
0.0
  0
LINE
  5
262
330
1F
100
AcDbEntity
  8
100
  6
Continuous
 62
     7
370
    30
100
AcDbLine
 10
24.48799047577247
 20
-17.82484418890448
 30
0.0
 11
16.28486547577247
 21
-15.42250043890448
 31
0.0
  0
LINE
  5
263
330
1F
100
AcDbEntity
  8
100
  6
Continuous
 62
     7
370
    30
100
AcDbLine
 10
33.51142797577247
 20
-19.46546918890448
 30
0.0
 11
24.48799047577247
 21
-17.82484418890448
 31
0.0
  0
LINE
  5
264
330
1F
100
AcDbEntity
  8
100
  6
Continuous
 62
     7
370
    30
100
AcDbLine
 10
42.76924047577247
 20
-20.11000043890448
 30
0.0
 11
33.51142797577247
 21
-19.46546918890448
 31
0.0
  0
LINE
  5
265
330
1F
100
AcDbEntity
  8
100
  6
Continuous
 62
     7
370
    30
100
AcDbLine
 10
52.96455297577247
 20
-19.99281293890448
 30
0.0
 11
42.76924047577247
 21
-20.11000043890448
 31
0.0
  0
LINE
  5
266
330
1F
100
AcDbEntity
  8
100
  6
Continuous
 62
     7
370
    30
100
AcDbLine
 10
60.99189672577247
 20
-19.28968793890448
 30
0.0
 11
52.96455297577247
 21
-19.99281293890448
 31
0.0
  0
LINE
  5
267
330
1F
100
AcDbEntity
  8
100
  6
Continuous
 62
     7
370
    30
100
AcDbLine
 10
66.67549047577248
 20
-18.17640668890448
 30
0.0
 11
60.99189672577247
 21
-19.28968793890448
 31
0.0
  0
LINE
  5
268
330
1F
100
AcDbEntity
  8
100
  6
Continuous
 62
     7
370
    30
100
AcDbLine
 10
73.06220922577248
 20
-16.36000043890448
 30
0.0
 11
66.67549047577248
 21
-18.17640668890448
 31
0.0
  0
LINE
  5
269
330
1F
100
AcDbEntity
  8
100
  6
Continuous
 62
     7
370
    30
100
AcDbLine
 10
76.46064672577248
 20
-15.18812543890448
 30
0.0
 11
73.06220922577248
 21
-16.36000043890448
 31
0.0
  0
LINE
  5
26A
330
1F
100
AcDbEntity
  8
100
  6
Continuous
 62
     7
370
    30
100
AcDbLine
 10
80.18134985077248
 20
-13.09339887640448
 30
0.0
 11
76.46064672577248
 21
-15.18812543890448
 31
0.0
  0
LINE
  5
26B
330
1F
100
AcDbEntity
  8
100
  6
Continuous
 62
     7
370
    30
100
AcDbLine
 10
82.58369360077248
 20
-11.55531293890448
 30
0.0
 11
80.18134985077248
 21
-13.09339887640448
 31
0.0
  0
LINE
  5
26C
330
1F
100
AcDbEntity
  8
100
  6
Continuous
 62
     7
370
    30
100
AcDbLine
 10
84.66377172577248
 20
-10.23695356390448
 30
0.0
 11
82.58369360077248
 21
-11.55531293890448
 31
0.0
  0
LINE
  5
26D
330
1F
100
AcDbEntity
  8
100
  6
Continuous
 62
     7
370
    30
100
AcDbLine
 10
85.54267797577248
 20
-9.343398876404478
 30
0.0
 11
84.66377172577248
 21
-10.23695356390448
 31
0.0
  0
LINE
  5
26E
330
1F
100
AcDbEntity
  8
100
  6
Continuous
 62
     7
370
    30
100
AcDbLine
 10
78.16718969452248
 20
5.246444873595522
 30
0.0
 11
77.58125219452248
 21
5.429550342345522
 31
0.0
  0
LINE
  5
26F
330
1F
100
AcDbEntity
  8
100
  6
Continuous
 62
     7
370
    30
100
AcDbLine
 10
78.73847875702248
 20
5.246444873595522
 30
0.0
 11
78.16718969452248
 21
5.246444873595522
 31
0.0
  0
LINE
  5
270
330
1F
100
AcDbEntity
  8
100
  6
Continuous
 62
     7
370
    30
100
AcDbLine
 10
79.31709203827248
 20
5.253769092345522
 30
0.0
 11
78.73847875702248
 21
5.246444873595522
 31
0.0
  0
LINE
  5
271
330
1F
100
AcDbEntity
  8
100
  6
Continuous
 62
     7
370
    30
100
AcDbLine
 10
79.72724828827248
 20
5.370956592345522
 30
0.0
 11
79.31709203827248
 21
5.253769092345522
 31
0.0
  0
LINE
  5
272
330
1F
100
AcDbEntity
  8
100
  6
Continuous
 62
     7
370
    30
100
AcDbLine
 10
79.92500219452248
 20
5.517440967345522
 30
0.0
 11
79.72724828827248
 21
5.370956592345522
 31
0.0
  0
LINE
  5
273
330
1F
100
AcDbEntity
  8
100
  6
Continuous
 62
     7
370
    30
100
AcDbLine
 10
79.96894750702248
 20
5.737167529845522
 30
0.0
 11
79.92500219452248
 21
5.517440967345522
 31
0.0
  0
LINE
  5
274
330
1F
100
AcDbEntity
  8
100
  6
Continuous
 62
     7
370
    30
100
AcDbLine
 10
79.82978735077248
 20
5.971542529845522
 30
0.0
 11
79.96894750702248
 21
5.737167529845522
 31
0.0
  0
LINE
  5
275
330
1F
100
AcDbEntity
  8
100
  6
Continuous
 62
     7
370
    30
100
AcDbLine
 10
79.50019750702248
 20
6.118026904845522
 30
0.0
 11
79.82978735077248
 21
5.971542529845522
 31
0.0
  0
LINE
  5
276
330
1F
100
AcDbEntity
  8
100
  6
Continuous
 62
     7
370
    30
100
AcDbLine
 10
79.06806860077248
 20
6.139999561095522
 30
0.0
 11
79.50019750702248
 21
6.118026904845522
 31
0.0
  0
LINE
  5
277
330
1F
100
AcDbEntity
  8
100
  6
Continuous
 62
     7
370
    30
100
AcDbLine
 10
78.56269750702248
 20
6.139999561095522
 30
0.0
 11
79.06806860077248
 21
6.139999561095522
 31
0.0
  0
LINE
  5
278
330
1F
100
AcDbEntity
  8
100
  6
Continuous
 62
     7
370
    30
100
AcDbLine
 10
77.84492406952248
 20
6.081405811095522
 30
0.0
 11
78.56269750702248
 21
6.139999561095522
 31
0.0
  0
LINE
  5
279
330
1F
100
AcDbEntity
  8
100
  6
Continuous
 62
     7
370
    30
100
AcDbLine
 10
77.59590063202248
 20
5.986190967345522
 30
0.0
 11
77.84492406952248
 21
6.081405811095522
 31
0.0
  0
LINE
  5
27A
330
1F
100
AcDbEntity
  8
100
  6
Continuous
 62
     7
370
    30
100
AcDbLine
 10
77.33222875702248
 20
5.825058154845522
 30
0.0
 11
77.59590063202248
 21
5.986190967345522
 31
0.0
  0
LINE
  5
27B
330
1F
100
AcDbEntity
  8
100
  6
Continuous
 62
     7
370
    30
100
AcDbLine
 10
77.32490453827248
 20
5.605331592345522
 30
0.0
 11
77.33222875702248
 21
5.825058154845522
 31
0.0
  0
LINE
  5
27C
330
1F
100
AcDbEntity
  8
100
  6
Continuous
 62
     7
370
    30
100
AcDbLine
 10
77.58125219452248
 20
5.429550342345522
 30
0.0
 11
77.32490453827248
 21
5.605331592345522
 31
0.0
  0
LINE
  5
27D
330
1F
100
AcDbEntity
  8
100
  6
Continuous
 62
     7
370
    30
100
AcDbLine
 10
84.37812719452248
 20
3.766952686095522
 30
0.0
 11
86.51679906952248
 21
1.921249561095522
 31
0.0
  0
LINE
  5
27E
330
1F
100
AcDbEntity
  8
100
  6
Continuous
 62
     7
370
    30
100
AcDbLine
 10
81.59492406952248
 20
5.612655811095522
 30
0.0
 11
84.37812719452248
 21
3.766952686095522
 31
0.0
  0
LINE
  5
27F
330
1F
100
AcDbEntity
  8
100
  6
Continuous
 62
     7
370
    30
100
AcDbLine
 10
78.13789281952248
 20
7.487655811095522
 30
0.0
 11
81.59492406952248
 21
5.612655811095522
 31
0.0
  0
LINE
  5
280
330
1F
100
AcDbEntity
  8
100
  6
Continuous
 62
     7
370
    30
100
AcDbLine
 10
75.96884132078435
 20
8.337315313351922
 30
0.0
 11
78.13789281952248
 21
7.487655811095522
 31
0.0
  0
LINE
  5
281
330
1F
100
AcDbEntity
  8
100
  6
Continuous
 62
     7
370
    30
100
AcDbLine
 10
85.34492406952248
 20
-12.55140668890448
 30
0.0
 11
86.17988500702248
 21
-11.77503950140448
 31
0.0
  0
LINE
  5
282
330
1F
100
AcDbEntity
  8
100
  6
Continuous
 62
     7
370
    30
100
AcDbLine
 10
84.07051000702248
 20
-13.57679731390448
 30
0.0
 11
85.34492406952248
 21
-12.55140668890448
 31
0.0
  0
LINE
  5
283
330
1F
100
AcDbEntity
  8
100
  6
Continuous
 62
     7
370
    30
100
AcDbLine
 10
82.31269750702248
 20
-14.71937543890448
 30
0.0
 11
84.07051000702248
 21
-13.57679731390448
 31
0.0
  0
LINE
  5
284
330
1F
100
AcDbEntity
  8
100
  6
Continuous
 62
     7
370
    30
100
AcDbLine
 10
80.13008031952248
 20
-16.02308637640448
 30
0.0
 11
82.31269750702248
 21
-14.71937543890448
 31
0.0
  0
LINE
  5
285
330
1F
100
AcDbEntity
  8
100
  6
Continuous
 62
     7
370
    30
100
AcDbLine
 10
76.55586156952248
 20
-17.50257856390448
 30
0.0
 11
80.13008031952248
 21
-16.02308637640448
 31
0.0
  0
LINE
  5
286
330
1F
100
AcDbEntity
  8
100
  6
Continuous
 62
     7
370
    30
100
AcDbLine
 10
73.39179906952248
 20
-18.61585981390448
 30
0.0
 11
76.55586156952248
 21
-17.50257856390448
 31
0.0
  0
LINE
  5
287
330
1F
100
AcDbEntity
  8
100
  6
Continuous
 62
     7
370
    30
100
AcDbLine
 10
71.01875219452248
 20
-19.30433637640448
 30
0.0
 11
73.39179906952248
 21
-18.61585981390448
 31
0.0
  0
LINE
  5
288
330
1F
100
AcDbEntity
  8
100
  6
Continuous
 62
     7
370
    30
100
AcDbLine
 10
66.25801000702248
 20
-20.49085981390448
 30
0.0
 11
71.01875219452248
 21
-19.30433637640448
 31
0.0
  0
LINE
  5
289
330
1F
100
AcDbEntity
  8
100
  6
Continuous
 62
     7
370
    30
100
AcDbLine
 10
61.38008031952247
 20
-21.31117231390448
 30
0.0
 11
66.25801000702248
 21
-20.49085981390448
 31
0.0
  0
LINE
  5
28A
330
1F
100
AcDbEntity
  8
100
  6
Continuous
 62
     7
370
    30
100
AcDbLine
 10
56.42890844452247
 20
-21.92640668890448
 30
0.0
 11
61.38008031952247
 21
-21.31117231390448
 31
0.0
  0
LINE
  5
28B
330
1F
100
AcDbEntity
  8
100
  6
Continuous
 62
     7
370
    30
100
AcDbLine
 10
51.37519750702247
 20
-22.19007856390448
 30
0.0
 11
56.42890844452247
 21
-21.92640668890448
 31
0.0
  0
LINE
  5
28C
330
1F
100
AcDbEntity
  8
100
  6
Continuous
 62
     7
370
    30
100
AcDbLine
 10
46.58515844452247
 20
-22.21937543890448
 30
0.0
 11
51.37519750702247
 21
-22.19007856390448
 31
0.0
  0
LINE
  5
28D
330
1F
100
AcDbEntity
  8
100
  6
Continuous
 62
     7
370
    30
100
AcDbLine
 10
41.39961156952247
 20
-22.13148481390448
 30
0.0
 11
46.58515844452247
 21
-22.21937543890448
 31
0.0
  0
LINE
  5
28E
330
1F
100
AcDbEntity
  8
100
  6
Continuous
 62
     7
370
    30
100
AcDbLine
 10
37.28340063202247
 20
-21.92640668890448
 30
0.0
 11
41.39961156952247
 21
-22.13148481390448
 31
0.0
  0
LINE
  5
28F
330
1F
100
AcDbEntity
  8
100
  6
Continuous
 62
     7
370
    30
100
AcDbLine
 10
32.06855688202247
 20
-21.38441450140448
 30
0.0
 11
37.28340063202247
 21
-21.92640668890448
 31
0.0
  0
LINE
  5
290
330
1F
100
AcDbEntity
  8
100
  6
Continuous
 62
     7
370
    30
100
AcDbLine
 10
28.94843969452247
 20
-20.97425825140448
 30
0.0
 11
32.06855688202247
 21
-21.38441450140448
 31
0.0
  0
LINE
  5
291
330
1F
100
AcDbEntity
  8
100
  6
Continuous
 62
     7
370
    30
100
AcDbLine
 10
23.82148656952247
 20
-19.90492231390448
 30
0.0
 11
28.94843969452247
 21
-20.97425825140448
 31
0.0
  0
LINE
  5
292
330
1F
100
AcDbEntity
  8
100
  6
Continuous
 62
     7
370
    30
100
AcDbLine
 10
19.76386938202247
 20
-18.83558637640448
 30
0.0
 11
23.82148656952247
 21
-19.90492231390448
 31
0.0
  0
LINE
  5
293
330
1F
100
AcDbEntity
  8
100
  6
Continuous
 62
     7
370
    30
100
AcDbLine
 10
16.35078344452247
 20
-17.57582075140448
 30
0.0
 11
19.76386938202247
 21
-18.83558637640448
 31
0.0
  0
LINE
  5
294
330
1F
100
AcDbEntity
  8
100
  6
Continuous
 62
     7
370
    30
100
AcDbLine
 10
13.67011938202247
 20
-16.56507856390448
 30
0.0
 11
16.35078344452247
 21
-17.57582075140448
 31
0.0
  0
LINE
  5
295
330
1F
100
AcDbEntity
  8
100
  6
Continuous
 62
     7
370
    30
100
AcDbLine
 10
10.81367406952247
 20
-15.01234418890448
 30
0.0
 11
13.67011938202247
 21
-16.56507856390448
 31
0.0
  0
LINE
  5
296
330
1F
100
AcDbEntity
  8
100
  6
Continuous
 62
     7
370
    30
100
AcDbLine
 10
7.66426000702247
 20
-12.71253950140448
 30
0.0
 11
10.81367406952247
 21
-15.01234418890448
 31
0.0
  0
LINE
  5
297
330
1F
100
AcDbEntity
  8
100
  6
Continuous
 62
     7
370
    30
100
AcDbLine
 10
6.02363500702247
 20
-11.15980512640448
 30
0.0
 11
7.66426000702247
 21
-12.71253950140448
 31
0.0
  0
LINE
  5
298
330
1F
100
AcDbEntity
  8
100
  6
Continuous
 62
     7
370
    30
100
AcDbLine
 10
4.79316625702247
 20
-9.621719188904478
 30
0.0
 11
6.02363500702247
 21
-11.15980512640448
 31
0.0
  0
LINE
  5
299
330
1F
100
AcDbEntity
  8
100
  6
Continuous
 62
     7
370
    30
100
AcDbLine
 10
4.06074438202247
 20
-8.200820751404478
 30
0.0
 11
4.79316625702247
 21
-9.621719188904478
 31
0.0
  0
LINE
  5
29A
330
1F
100
AcDbEntity
  8
100
  6
Continuous
 62
     7
370
    30
100
AcDbLine
 10
3.65058813202247
 20
-6.457656688904478
 30
0.0
 11
4.06074438202247
 21
-8.200820751404478
 31
0.0
  0
LINE
  5
29B
330
1F
100
AcDbEntity
  8
100
  6
Continuous
 62
     7
370
    30
100
AcDbLine
 10
3.33028355545046
 20
-4.978431917099208
 30
0.0
 11
3.65058813202247
 21
-6.457656688904478
 31
0.0
  0
LINE
  5
29C
330
1F
100
AcDbEntity
  8
100
  6
Continuous
 62
     7
370
    30
100
AcDbLine
 10
84.42207250702248
 20
-14.71937543890448
 30
0.0
 11
86.41426000702248
 21
-13.02015668890448
 31
0.0
  0
LINE
  5
29D
330
1F
100
AcDbEntity
  8
100
  6
Continuous
 62
     7
370
    30
100
AcDbLine
 10
81.08222875702248
 20
-16.77015668890448
 30
0.0
 11
84.42207250702248
 21
-14.71937543890448
 31
0.0
  0
LINE
  5
29E
330
1F
100
AcDbEntity
  8
100
  6
Continuous
 62
     7
370
    30
100
AcDbLine
 10
77.80097875702248
 20
-18.44007856390448
 30
0.0
 11
81.08222875702248
 21
-16.77015668890448
 31
0.0
  0
LINE
  5
29F
330
1F
100
AcDbEntity
  8
100
  6
Continuous
 62
     7
370
    30
100
AcDbLine
 10
73.67011938202248
 20
-20.02210981390448
 30
0.0
 11
77.80097875702248
 21
-18.44007856390448
 31
0.0
  0
LINE
  5
2A0
330
1F
100
AcDbEntity
  8
100
  6
Continuous
 62
     7
370
    30
100
AcDbLine
 10
67.57636938202248
 20
-21.57484418890448
 30
0.0
 11
73.67011938202248
 21
-20.02210981390448
 31
0.0
  0
LINE
  5
2A1
330
1F
100
AcDbEntity
  8
100
  6
Continuous
 62
     7
370
    30
100
AcDbLine
 10
60.19355688202247
 20
-22.89320356390448
 30
0.0
 11
67.57636938202248
 21
-21.57484418890448
 31
0.0
  0
LINE
  5
2A2
330
1F
100
AcDbEntity
  8
100
  6
Continuous
 62
     7
370
    30
100
AcDbLine
 10
54.71504125702247
 20
-23.47914106390448
 30
0.0
 11
60.19355688202247
 21
-22.89320356390448
 31
0.0
  0
LINE
  5
2A3
330
1F
100
AcDbEntity
  8
100
  6
Continuous
 62
     7
370
    30
100
AcDbLine
 10
45.75019750702247
 20
-23.91859418890448
 30
0.0
 11
54.71504125702247
 21
-23.47914106390448
 31
0.0
  0
LINE
  5
2A4
330
1F
100
AcDbEntity
  8
100
  6
Continuous
 62
     7
370
    30
100
AcDbLine
 10
39.39277563202247
 20
-23.65492231390448
 30
0.0
 11
45.75019750702247
 21
-23.91859418890448
 31
0.0
  0
LINE
  5
2A5
330
1F
100
AcDbEntity
  8
100
  6
Continuous
 62
     7
370
    30
100
AcDbLine
 10
32.06855688202247
 20
-23.01039106390448
 30
0.0
 11
39.39277563202247
 21
-23.65492231390448
 31
0.0
  0
LINE
  5
2A6
330
1F
100
AcDbEntity
  8
100
  6
Continuous
 62
     7
370
    30
100
AcDbLine
 10
26.35566625702247
 20
-22.04359418890448
 30
0.0
 11
32.06855688202247
 21
-23.01039106390448
 31
0.0
  0
LINE
  5
2A7
330
1F
100
AcDbEntity
  8
100
  6
Continuous
 62
     7
370
    30
100
AcDbLine
 10
20.02754125702247
 20
-20.34437543890448
 30
0.0
 11
26.35566625702247
 21
-22.04359418890448
 31
0.0
  0
LINE
  5
2A8
330
1F
100
AcDbEntity
  8
100
  6
Continuous
 62
     7
370
    30
100
AcDbLine
 10
14.60761938202247
 20
-18.26429731390448
 30
0.0
 11
20.02754125702247
 21
-20.34437543890448
 31
0.0
  0
LINE
  5
2A9
330
1F
100
AcDbEntity
  8
100
  6
Continuous
 62
     7
370
    30
100
AcDbLine
 10
11.59004125702247
 20
-16.88734418890448
 30
0.0
 11
14.60761938202247
 21
-18.26429731390448
 31
0.0
  0
LINE
  5
2AA
330
1F
100
AcDbEntity
  8
100
  6
Continuous
 62
     7
370
    30
100
AcDbLine
 10
8.30879125702247
 20
-14.69007856390448
 30
0.0
 11
11.59004125702247
 21
-16.88734418890448
 31
0.0
  0
LINE
  5
2AB
330
1F
100
AcDbEntity
  8
100
  6
Continuous
 62
     7
370
    30
100
AcDbLine
 10
6.78535375702247
 20
-13.43031293890448
 30
0.0
 11
8.30879125702247
 21
-14.69007856390448
 31
0.0
  0
LINE
  5
2AC
330
1F
100
AcDbEntity
  8
100
  6
Continuous
 62
     7
370
    30
100
AcDbLine
 10
4.91035375702247
 20
-11.40882856390448
 30
0.0
 11
6.78535375702247
 21
-13.43031293890448
 31
0.0
  0
LINE
  5
2AD
330
1F
100
AcDbEntity
  8
100
  6
Continuous
 62
     7
370
    30
100
AcDbLine
 10
3.94355688202247
 20
-9.358047313904478
 30
0.0
 11
4.91035375702247
 21
-11.40882856390448
 31
0.0
  0
LINE
  5
2AE
330
1F
100
AcDbEntity
  8
100
  6
Continuous
 62
     7
370
    30
100
AcDbLine
 10
3.47480688202247
 20
-7.131484813904478
 30
0.0
 11
3.94355688202247
 21
-9.358047313904478
 31
0.0
  0
LINE
  5
2AF
330
1F
100
AcDbEntity
  8
100
  6
Continuous
 62
     7
370
    30
100
AcDbLine
 10
3.24043188202247
 20
-5.637344188904478
 30
0.0
 11
3.47480688202247
 21
-7.131484813904478
 31
0.0
  0
LINE
  5
2B0
330
1F
100
AcDbEntity
  8
100
  6
Continuous
 62
     7
370
    30
100
AcDbLine
 10
3.41621313202247
 20
-4.348281688904478
 30
0.0
 11
3.24043188202247
 21
-5.637344188904478
 31
0.0
  0
LINE
  5
2B1
330
1F
100
AcDbEntity
  8
100
  6
Continuous
 62
     7
370
    30
100
AcDbLine
 10
3.65058813202247
 20
-3.059219188904478
 30
0.0
 11
3.41621313202247
 21
-4.348281688904478
 31
0.0
  0
LINE
  5
2B2
330
1F
100
AcDbEntity
  8
100
  6
Continuous
 62
     7
370
    30
100
AcDbLine
 10
3.85566625702247
 20
-1.975234813904478
 30
0.0
 11
3.65058813202247
 21
-3.059219188904478
 31
0.0
  0
LINE
  5
2B3
330
1F
100
AcDbEntity
  8
100
  6
Continuous
 62
     7
370
    30
100
AcDbLine
 10
4.315576390692989
 20
-1.068826757546091
 30
0.0
 11
3.85566625702247
 21
-1.975234813904478
 31
0.0
  0
LINE
  5
2B4
330
1F
100
AcDbEntity
  8
100
  6
Continuous
 62
     7
370
    30
100
AcDbLine
 10
75.98457250702248
 20
2.829452686095522
 30
0.0
 11
76.24824438202248
 21
3.473983936095522
 31
0.0
  0
LINE
  5
2B5
330
1F
100
AcDbEntity
  8
100
  6
Continuous
 62
     7
370
    30
100
AcDbLine
 10
74.87129125702248
 20
1.130233936095522
 30
0.0
 11
75.98457250702248
 21
2.829452686095522
 31
0.0
  0
LINE
  5
2B6
330
1F
100
AcDbEntity
  8
100
  6
Continuous
 62
     7
370
    30
100
AcDbLine
 10
73.05488500702248
 20
-1.389297313904478
 30
0.0
 11
74.87129125702248
 21
1.130233936095522
 31
0.0
  0
LINE
  5
2B7
330
1F
100
AcDbEntity
  8
100
  6
Continuous
 62
     7
370
    30
100
AcDbLine
 10
70.12519750702248
 20
-3.557266063904478
 30
0.0
 11
73.05488500702248
 21
-1.389297313904478
 31
0.0
  0
LINE
  5
2B8
330
1F
100
AcDbEntity
  8
100
  6
Continuous
 62
     7
370
    30
100
AcDbLine
 10
65.37910375702248
 20
-4.846328563904478
 30
0.0
 11
70.12519750702248
 21
-3.557266063904478
 31
0.0
  0
LINE
  5
2B9
330
1F
100
AcDbEntity
  8
100
  6
Continuous
 62
     7
370
    30
100
AcDbLine
 10
58.58222875702247
 20
-5.901016063904478
 30
0.0
 11
65.37910375702248
 21
-4.846328563904478
 31
0.0
  0
LINE
  5
2BA
330
1F
100
AcDbEntity
  8
100
  6
Continuous
 62
     7
370
    30
100
AcDbLine
 10
52.19551000702247
 20
-6.604141063904478
 30
0.0
 11
58.58222875702247
 21
-5.901016063904478
 31
0.0
  0
LINE
  5
2BB
330
1F
100
AcDbEntity
  8
100
  6
Continuous
 62
     7
370
    30
100
AcDbLine
 10
45.51582250702247
 20
-6.779922313904478
 30
0.0
 11
52.19551000702247
 21
-6.604141063904478
 31
0.0
  0
LINE
  5
2BC
330
1F
100
AcDbEntity
  8
100
  6
Continuous
 62
     7
370
    30
100
AcDbLine
 10
38.95332250702247
 20
-6.252578563904478
 30
0.0
 11
45.51582250702247
 21
-6.779922313904478
 31
0.0
  0
LINE
  5
2BD
330
1F
100
AcDbEntity
  8
100
  6
Continuous
 62
     7
370
    30
100
AcDbLine
 10
33.97285375702247
 20
-5.432266063904478
 30
0.0
 11
38.95332250702247
 21
-6.252578563904478
 31
0.0
  0
LINE
  5
2BE
330
1F
100
AcDbEntity
  8
100
  6
Continuous
 62
     7
370
    30
100
AcDbLine
 10
28.87519750702247
 20
-4.201797313904478
 30
0.0
 11
33.97285375702247
 21
-5.432266063904478
 31
0.0
  0
LINE
  5
2BF
330
1F
100
AcDbEntity
  8
100
  6
Continuous
 62
     7
370
    30
100
AcDbLine
 10
24.53926000702247
 20
-2.619766063904478
 30
0.0
 11
28.87519750702247
 21
-4.201797313904478
 31
0.0
  0
LINE
  5
2C0
330
1F
100
AcDbEntity
  8
100
  6
Continuous
 62
     7
370
    30
100
AcDbLine
 10
22.25410375702247
 20
-1.623672313904478
 30
0.0
 11
24.53926000702247
 21
-2.619766063904478
 31
0.0
  0
LINE
  5
2C1
330
1F
100
AcDbEntity
  8
100
  6
Continuous
 62
     7
370
    30
100
AcDbLine
 10
20.48457088032202
 20
-0.3889334752384599
 30
0.0
 11
22.25410375702247
 21
-1.623672313904478
 31
0.0
  0
LINE
  5
2C2
330
1F
100
AcDbEntity
  8
100
  6
Continuous
 62
     7
370
    30
100
AcDbLine
 10
16.77558813202247
 20
2.946640186095522
 30
0.0
 11
19.29511938202247
 21
3.825546436095522
 31
0.0
  0
LINE
  5
2C3
330
1F
100
AcDbEntity
  8
100
  6
Continuous
 62
     7
370
    30
100
AcDbLine
 10
15.31074438202247
 20
2.419296436095522
 30
0.0
 11
16.77558813202247
 21
2.946640186095522
 31
0.0
  0
LINE
  5
2C4
330
1F
100
AcDbEntity
  8
100
  6
Continuous
 62
     7
370
    30
100
AcDbLine
 10
8.51386938202247
 20
0.2806245610955216
 30
0.0
 11
15.31074438202247
 21
2.419296436095522
 31
0.0
  0
LINE
  5
2C5
330
1F
100
AcDbEntity
  8
100
  6
Continuous
 62
     7
370
    30
100
AcDbLine
 10
1.95136938202247
 20
-1.828750438904478
 30
0.0
 11
8.51386938202247
 21
0.2806245610955216
 31
0.0
  0
LINE
  5
2C6
330
1F
100
AcDbEntity
  8
100
  6
Continuous
 62
     7
370
    30
100
AcDbLine
 10
-2.67753686797753
 20
-3.293594188904478
 30
0.0
 11
1.95136938202247
 21
-1.828750438904478
 31
0.0
  0
LINE
  5
2C7
330
1F
100
AcDbEntity
  8
100
  6
Continuous
 62
     7
370
    30
100
AcDbLine
 10
-10.11894311797753
 20
-4.875625438904478
 30
0.0
 11
-2.67753686797753
 21
-3.293594188904478
 31
0.0
  0
LINE
  5
2C8
330
1F
100
AcDbEntity
  8
100
  6
Continuous
 62
     7
370
    30
100
AcDbLine
 10
-13.51738061797753
 20
-5.168594188904478
 30
0.0
 11
-10.11894311797753
 21
-4.875625438904478
 31
0.0
  0
LINE
  5
2C9
330
1F
100
AcDbEntity
  8
100
  6
Continuous
 62
     7
370
    30
100
AcDbLine
 10
-17.38456811797753
 20
-4.934219188904478
 30
0.0
 11
-13.51738061797753
 21
-5.168594188904478
 31
0.0
  0
LINE
  5
2CA
330
1F
100
AcDbEntity
  8
100
  6
Continuous
 62
     7
370
    30
100
AcDbLine
 10
-19.90409936797753
 20
-4.289687938904478
 30
0.0
 11
-17.38456811797753
 21
-4.934219188904478
 31
0.0
  0
LINE
  5
2CB
330
1F
100
AcDbEntity
  8
100
  6
Continuous
 62
     7
370
    30
100
AcDbLine
 10
-22.13066186797753
 20
-2.942031688904478
 30
0.0
 11
-19.90409936797753
 21
-4.289687938904478
 31
0.0
  0
LINE
  5
2CC
330
1F
100
AcDbEntity
  8
100
  6
Continuous
 62
     7
370
    30
100
AcDbLine
 10
-23.41972436797753
 20
-1.242812938904478
 30
0.0
 11
-22.13066186797753
 21
-2.942031688904478
 31
0.0
  0
LINE
  5
2CD
330
1F
100
AcDbEntity
  8
100
  6
Continuous
 62
     7
370
    30
100
AcDbLine
 10
-23.06816186797753
 20
2.155624561095522
 30
0.0
 11
-23.59550561797753
 21
0.6321870610955216
 31
0.0
  0
LINE
  5
2CE
330
1F
100
AcDbEntity
  8
100
  6
Continuous
 62
     7
370
    30
100
AcDbLine
 10
-22.01347436797753
 20
3.679062061095522
 30
0.0
 11
-23.06816186797753
 21
2.155624561095522
 31
0.0
  0
LINE
  5
2CF
330
1F
100
AcDbEntity
  8
100
  6
Continuous
 62
     7
370
    30
100
AcDbLine
 10
-20.43144311797753
 20
5.143905811095522
 30
0.0
 11
-22.01347436797753
 21
3.679062061095522
 31
0.0
  0
LINE
  5
2D0
330
1F
100
AcDbEntity
  8
100
  6
Continuous
 62
     7
370
    30
100
AcDbLine
 10
-16.62284936797753
 20
7.546249561095522
 30
0.0
 11
-20.43144311797753
 21
5.143905811095522
 31
0.0
  0
LINE
  5
2D1
330
1F
100
AcDbEntity
  8
100
  6
Continuous
 62
     7
370
    30
100
AcDbLine
 10
-10.17753686797753
 20
10.12437456109552
 30
0.0
 11
-16.62284936797753
 21
7.546249561095522
 31
0.0
  0
LINE
  5
2D2
330
1F
100
AcDbEntity
  8
100
  6
Continuous
 62
     7
370
    30
100
AcDbLine
 10
-3.38066186797753
 20
12.17515581109552
 30
0.0
 11
-10.17753686797753
 21
10.12437456109552
 31
0.0
  0
LINE
  5
2D3
330
1F
100
AcDbEntity
  8
100
  6
Continuous
 62
     7
370
    30
100
AcDbLine
 10
3.41621313202247
 20
13.52281206109552
 30
0.0
 11
-3.38066186797753
 21
12.17515581109552
 31
0.0
  0
LINE
  5
2D4
330
1F
100
AcDbEntity
  8
100
  6
Continuous
 62
     7
370
    30
100
AcDbLine
 10
10.50605688202247
 20
14.75328081109552
 30
0.0
 11
3.41621313202247
 21
13.52281206109552
 31
0.0
  0
LINE
  5
2D5
330
1F
100
AcDbEntity
  8
100
  6
Continuous
 62
     7
370
    30
100
AcDbLine
 10
17.79457046088226
 20
15.2809764334977
 30
0.0
 11
10.50605688202247
 21
14.75328081109552
 31
0.0
  0
LINE
  5
2D6
330
1F
100
AcDbEntity
  8
100
  6
Continuous
 62
     7
370
    30
100
AcDbLine
 10
17.76978805856508
 20
12.76625828416114
 30
0.0
 11
17.92853693895038
 21
28.87481328147402
 31
0.0
  0
LINE
  5
2D7
330
1F
100
AcDbEntity
  8
100
  6
Continuous
 62
     7
370
    30
100
AcDbLine
 10
24.40742406952247
 20
3.151718311095522
 30
0.0
 11
24.13976111416003
 21
2.742526174088411
 31
0.0
  0
LINE
  5
2D8
330
1F
100
AcDbEntity
  8
100
  6
Continuous
 62
     7
370
    30
100
AcDbLine
 10
24.71504125702247
 20
3.708358936095522
 30
0.0
 11
24.40742406952247
 21
3.151718311095522
 31
0.0
  0
LINE
  5
2D9
330
1F
100
AcDbEntity
  8
100
  6
Continuous
 62
     7
370
    30
100
AcDbLine
 10
24.80293188202247
 20
4.323593311095522
 30
0.0
 11
24.71504125702247
 21
3.708358936095522
 31
0.0
  0
LINE
  5
2DA
330
1F
100
AcDbEntity
  8
100
  6
Continuous
 62
     7
370
    30
100
AcDbLine
 10
24.81758031952247
 20
5.363632373595522
 30
0.0
 11
24.80293188202247
 21
4.323593311095522
 31
0.0
  0
LINE
  5
2DB
330
1F
100
AcDbEntity
  8
100
  6
Continuous
 62
     7
370
    30
100
AcDbLine
 10
24.78828344452247
 20
6.242538623595522
 30
0.0
 11
24.81758031952247
 21
5.363632373595522
 31
0.0
  0
LINE
  5
2DC
330
1F
100
AcDbEntity
  8
100
  6
Continuous
 62
     7
370
    30
100
AcDbLine
 10
24.77363500702247
 20
6.931015186095522
 30
0.0
 11
24.78828344452247
 21
6.242538623595522
 31
0.0
  0
LINE
  5
2DD
330
1F
100
AcDbEntity
  8
100
  6
Continuous
 62
     7
370
    30
100
AcDbLine
 10
24.59785375702247
 20
7.678085498595522
 30
0.0
 11
24.77363500702247
 21
6.931015186095522
 31
0.0
  0
LINE
  5
2DE
330
1F
100
AcDbEntity
  8
100
  6
Continuous
 62
     7
370
    30
100
AcDbLine
 10
24.21699438202247
 20
8.571640186095522
 30
0.0
 11
24.59785375702247
 21
7.678085498595522
 31
0.0
  0
LINE
  5
2DF
330
1F
100
AcDbEntity
  8
100
  6
Continuous
 62
     7
370
    30
100
AcDbLine
 10
23.80683813202247
 20
9.538437061095522
 30
0.0
 11
24.21699438202247
 21
8.571640186095522
 31
0.0
  0
LINE
  5
2E0
330
1F
100
AcDbEntity
  8
100
  6
Continuous
 62
     7
370
    30
100
AcDbLine
 10
23.19160375702247
 20
10.44664018609552
 30
0.0
 11
23.80683813202247
 21
9.538437061095522
 31
0.0
  0
LINE
  5
2E1
330
1F
100
AcDbEntity
  8
100
  6
Continuous
 62
     7
370
    30
100
AcDbLine
 10
22.25826385454168
 20
11.21707066972398
 30
0.0
 11
23.19160375702247
 21
10.44664018609552
 31
0.0
  0
LINE
  5
2E2
330
1F
100
AcDbEntity
  8
100
  6
Continuous
 62
     7
370
    30
100
AcDbLine
 10
22.45918188202247
 20
11.79429643609552
 30
0.0
 11
21.83152594525334
 21
11.9333807317437
 31
0.0
  0
LINE
  5
2E3
330
1F
100
AcDbEntity
  8
100
  6
Continuous
 62
     7
370
    30
100
AcDbLine
 10
23.19160375702247
 20
11.26695268609552
 30
0.0
 11
22.45918188202247
 21
11.79429643609552
 31
0.0
  0
LINE
  5
2E4
330
1F
100
AcDbEntity
  8
100
  6
Continuous
 62
     7
370
    30
100
AcDbLine
 10
23.86543188202247
 20
10.53453081109552
 30
0.0
 11
23.19160375702247
 21
11.26695268609552
 31
0.0
  0
LINE
  5
2E5
330
1F
100
AcDbEntity
  8
100
  6
Continuous
 62
     7
370
    30
100
AcDbLine
 10
24.53926000702247
 20
9.597030811095522
 30
0.0
 11
23.86543188202247
 21
10.53453081109552
 31
0.0
  0
LINE
  5
2E6
330
1F
100
AcDbEntity
  8
100
  6
Continuous
 62
     7
370
    30
100
AcDbLine
 10
25.00801000702247
 20
8.659530811095522
 30
0.0
 11
24.53926000702247
 21
9.597030811095522
 31
0.0
  0
LINE
  5
2E7
330
1F
100
AcDbEntity
  8
100
  6
Continuous
 62
     7
370
    30
100
AcDbLine
 10
25.35957250702247
 20
6.989608936095522
 30
0.0
 11
25.00801000702247
 21
8.659530811095522
 31
0.0
  0
LINE
  5
2E8
330
1F
100
AcDbEntity
  8
100
  6
Continuous
 62
     7
370
    30
100
AcDbLine
 10
25.47676000702247
 20
5.524765186095522
 30
0.0
 11
25.35957250702247
 21
6.989608936095522
 31
0.0
  0
LINE
  5
2E9
330
1F
100
AcDbEntity
  8
100
  6
Continuous
 62
     7
370
    30
100
AcDbLine
 10
25.41816625702247
 20
3.825546436095522
 30
0.0
 11
25.47676000702247
 21
5.524765186095522
 31
0.0
  0
LINE
  5
2EA
330
1F
100
AcDbEntity
  8
100
  6
Continuous
 62
     7
370
    30
100
AcDbLine
 10
24.92011938202247
 20
2.682968311095522
 30
0.0
 11
25.41816625702247
 21
3.825546436095522
 31
0.0
  0
LINE
  5
2EB
330
1F
100
AcDbEntity
  8
100
  6
Continuous
 62
     7
370
    30
100
AcDbLine
 10
24.10794538539484
 20
2.12742208462798
 30
0.0
 11
24.92011938202247
 21
2.682968311095522
 31
0.0
  0
LINE
  5
2EC
330
1F
100
AcDbEntity
  8
100
  6
Continuous
 62
     7
370
    30
100
AcDbLine
 10
21.81465063202247
 20
6.931015186095522
 30
0.0
 11
24.39277563202247
 21
7.634140186095522
 31
0.0
  0
LINE
  5
2ED
330
1F
100
AcDbEntity
  8
100
  6
Continuous
 62
     7
370
    30
100
AcDbLine
 10
20.04218969452247
 20
8.923202686095522
 30
0.0
 11
19.41523656952247
 21
9.679062061095522
 31
0.0
  0
LINE
  5
2EE
330
1F
100
AcDbEntity
  8
100
  6
Continuous
 62
     7
370
    30
100
AcDbLine
 10
20.78926000702247
 20
7.971054248595522
 30
0.0
 11
20.04218969452247
 21
8.923202686095522
 31
0.0
  0
LINE
  5
2EF
330
1F
100
AcDbEntity
  8
100
  6
Continuous
 62
     7
370
    30
100
AcDbLine
 10
21.81465063202247
 20
6.931015186095522
 30
0.0
 11
20.78926000702247
 21
7.971054248595522
 31
0.0
  0
LINE
  5
2F0
330
1F
100
AcDbEntity
  8
100
  6
Continuous
 62
     7
370
    30
100
AcDbLine
 10
21.78535375702247
 20
6.755233936095522
 30
0.0
 11
21.81465063202247
 21
6.931015186095522
 31
0.0
  0
LINE
  5
2F1
330
1F
100
AcDbEntity
  8
100
  6
Continuous
 62
     7
370
    30
100
AcDbLine
 10
21.14082250702247
 20
4.484726123595522
 30
0.0
 11
21.78535375702247
 21
6.755233936095522
 31
0.0
  0
LINE
  5
2F2
330
1F
100
AcDbEntity
  8
100
  6
Continuous
 62
     7
370
    30
100
AcDbLine
 10
21.09687719452247
 20
3.473983936095522
 30
0.0
 11
21.14082250702247
 21
4.484726123595522
 31
0.0
  0
LINE
  5
2F3
330
1F
100
AcDbEntity
  8
100
  6
Continuous
 62
     7
370
    30
100
AcDbLine
 10
21.03828344452247
 20
2.521835498595522
 30
0.0
 11
21.09687719452247
 21
3.473983936095522
 31
0.0
  0
LINE
  5
2F4
330
1F
100
AcDbEntity
  8
100
  6
Continuous
 62
     7
370
    30
100
AcDbLine
 10
21.15547094452247
 20
1.628280811095522
 30
0.0
 11
21.03828344452247
 21
2.521835498595522
 31
0.0
  0
LINE
  5
2F5
330
1F
100
AcDbEntity
  8
100
  6
Continuous
 62
     7
370
    30
100
AcDbLine
 10
21.31660375702247
 20
0.5003511235955216
 30
0.0
 11
21.15547094452247
 21
1.628280811095522
 31
0.0
  0
LINE
  5
2F6
330
1F
100
AcDbEntity
  8
100
  6
Continuous
 62
     7
370
    30
100
AcDbLine
 10
21.40449438202247
 20
-0.2174223139044784
 30
0.0
 11
21.31660375702247
 21
0.5003511235955216
 31
0.0
  0
LINE
  5
2F7
330
1F
100
AcDbEntity
  8
100
  6
Continuous
 62
     7
370
    30
100
AcDbLine
 10
20.20332250702247
 20
0.5442964360955216
 30
0.0
 11
19.20186064555661
 21
-0.6280828410421861
 31
0.0
  0
LINE
  5
2F8
330
1F
100
AcDbEntity
  8
100
  6
Continuous
 62
     7
370
    30
100
AcDbLine
 10
20.61347875702247
 20
1.628280811095522
 30
0.0
 11
20.20332250702247
 21
0.5442964360955216
 31
0.0
  0
LINE
  5
2F9
330
1F
100
AcDbEntity
  8
100
  6
Continuous
 62
     7
370
    30
100
AcDbLine
 10
20.67207250702247
 20
3.210312061095522
 30
0.0
 11
20.61347875702247
 21
1.628280811095522
 31
0.0
  0
LINE
  5
2FA
330
1F
100
AcDbEntity
  8
100
  6
Continuous
 62
     7
370
    30
100
AcDbLine
 10
20.67207250702247
 20
4.557968311095522
 30
0.0
 11
20.67207250702247
 21
3.210312061095522
 31
0.0
  0
LINE
  5
2FB
330
1F
100
AcDbEntity
  8
100
  6
Continuous
 62
     7
370
    30
100
AcDbLine
 10
20.52558813202247
 20
6.022812061095522
 30
0.0
 11
20.67207250702247
 21
4.557968311095522
 31
0.0
  0
LINE
  5
2FC
330
1F
100
AcDbEntity
  8
100
  6
Continuous
 62
     7
370
    30
100
AcDbLine
 10
20.11543188202247
 20
8.044296436095522
 30
0.0
 11
20.52558813202247
 21
6.022812061095522
 31
0.0
  0
LINE
  5
2FD
330
1F
100
AcDbEntity
  8
100
  6
Continuous
 62
     7
370
    30
100
AcDbLine
 10
19.58808813202247
 20
9.333358936095522
 30
0.0
 11
20.11543188202247
 21
8.044296436095522
 31
0.0
  0
LINE
  5
2FE
330
1F
100
AcDbEntity
  8
100
  6
Continuous
 62
     7
370
    30
100
AcDbLine
 10
18.91426000702247
 20
10.68101518609552
 30
0.0
 11
19.58808813202247
 21
9.333358936095522
 31
0.0
  0
LINE
  5
2FF
330
1F
100
AcDbEntity
  8
100
  6
Continuous
 62
     7
370
    30
100
AcDbLine
 10
18.40156469452247
 20
11.36949174859552
 30
0.0
 11
18.91426000702247
 21
10.68101518609552
 31
0.0
  0
LINE
  5
300
330
1F
100
AcDbEntity
  8
100
  6
Continuous
 62
     7
370
    30
100
AcDbLine
 10
18.00605688202247
 20
11.94078081109552
 30
0.0
 11
18.40156469452247
 21
11.36949174859552
 31
0.0
  0
LINE
  5
301
330
1F
100
AcDbEntity
  8
100
  6
Continuous
 62
     7
370
    30
100
AcDbLine
 10
16.83406710484324
 20
12.42316060112981
 30
0.0
 11
18.00605688202247
 21
11.94078081109552
 31
0.0
  0
LINE
  5
302
330
1F
100
AcDbEntity
  8
100
  6
Continuous
 62
     7
370
    30
100
AcDbLine
 10
18.47480688202247
 20
13.02476518609552
 30
0.0
 11
18.40156469452247
 21
11.36949174859552
 31
0.0
  0
LINE
  5
303
330
1F
100
AcDbEntity
  8
100
  6
Continuous
 62
     7
370
    30
100
AcDbLine
 10
10.98945531952247
 20
10.94468706109552
 30
0.0
 11
14.90834275253004
 21
11.44915486531998
 31
0.0
  0
LINE
  5
304
330
1F
100
AcDbEntity
  8
100
  6
Continuous
 62
     7
370
    30
100
AcDbLine
 10
8.00117406952247
 20
10.35874956109552
 30
0.0
 11
10.98945531952247
 21
10.94468706109552
 31
0.0
  0
LINE
  5
305
330
1F
100
AcDbEntity
  8
100
  6
Continuous
 62
     7
370
    30
100
AcDbLine
 10
5.10078344452247
 20
9.743515186095522
 30
0.0
 11
8.00117406952247
 21
10.35874956109552
 31
0.0
  0
LINE
  5
306
330
1F
100
AcDbEntity
  8
100
  6
Continuous
 62
     7
370
    30
100
AcDbLine
 10
1.21894750702247
 20
8.908554248595522
 30
0.0
 11
5.10078344452247
 21
9.743515186095522
 31
0.0
  0
LINE
  5
307
330
1F
100
AcDbEntity
  8
100
  6
Continuous
 62
     7
370
    30
100
AcDbLine
 10
-2.04765405547753
 20
8.132187061095522
 30
0.0
 11
1.21894750702247
 21
8.908554248595522
 31
0.0
  0
LINE
  5
308
330
1F
100
AcDbEntity
  8
100
  6
Continuous
 62
     7
370
    30
100
AcDbLine
 10
-6.58866968047753
 20
6.755233936095522
 30
0.0
 11
-2.04765405547753
 21
8.132187061095522
 31
0.0
  0
LINE
  5
309
330
1F
100
AcDbEntity
  8
100
  6
Continuous
 62
     7
370
    30
100
AcDbLine
 10
-10.74882593047753
 20
5.363632373595522
 30
0.0
 11
-6.58866968047753
 21
6.755233936095522
 31
0.0
  0
LINE
  5
30A
330
1F
100
AcDbEntity
  8
100
  6
Continuous
 62
     7
370
    30
100
AcDbLine
 10
-13.03398218047753
 20
4.514022998595522
 30
0.0
 11
-10.74882593047753
 21
5.363632373595522
 31
0.0
  0
LINE
  5
30B
330
1F
100
AcDbEntity
  8
100
  6
Continuous
 62
     7
370
    30
100
AcDbLine
 10
-14.73320093047753
 20
3.708358936095522
 30
0.0
 11
-13.03398218047753
 21
4.514022998595522
 31
0.0
  0
LINE
  5
30C
330
1F
100
AcDbEntity
  8
100
  6
Continuous
 62
     7
370
    30
100
AcDbLine
 10
-16.93046655547753
 20
2.682968311095522
 30
0.0
 11
-14.73320093047753
 21
3.708358936095522
 31
0.0
  0
LINE
  5
30D
330
1F
100
AcDbEntity
  8
100
  6
Continuous
 62
     7
370
    30
100
AcDbLine
 10
-17.95585718047753
 20
1.906601123595522
 30
0.0
 11
-16.93046655547753
 21
2.682968311095522
 31
0.0
  0
LINE
  5
30E
330
1F
100
AcDbEntity
  8
100
  6
Continuous
 62
     7
370
    30
100
AcDbLine
 10
-18.90800561797753
 20
1.013046436095522
 30
0.0
 11
-17.95585718047753
 21
1.906601123595522
 31
0.0
  0
LINE
  5
30F
330
1F
100
AcDbEntity
  8
100
  6
Continuous
 62
     7
370
    30
100
AcDbLine
 10
-19.06913843047753
 20
0.6321870610955216
 30
0.0
 11
-18.90800561797753
 21
1.013046436095522
 31
0.0
  0
LINE
  5
310
330
1F
100
AcDbEntity
  8
100
  6
Continuous
 62
     7
370
    30
100
AcDbLine
 10
-18.92265405547753
 20
0.2806245610955216
 30
0.0
 11
-19.06913843047753
 21
0.6321870610955216
 31
0.0
  0
LINE
  5
311
330
1F
100
AcDbEntity
  8
100
  6
Continuous
 62
     7
370
    30
100
AcDbLine
 10
-18.49784936797753
 20
0.0023042485955216
 30
0.0
 11
-18.92265405547753
 21
0.2806245610955216
 31
0.0
  0
LINE
  5
312
330
1F
100
AcDbEntity
  8
100
  6
Continuous
 62
     7
370
    30
100
AcDbLine
 10
-17.58964624297753
 20
-0.2760160639044784
 30
0.0
 11
-18.49784936797753
 21
0.0023042485955216
 31
0.0
  0
LINE
  5
313
330
1F
100
AcDbEntity
  8
100
  6
Continuous
 62
     7
370
    30
100
AcDbLine
 10
-15.96366968047753
 20
-0.4957426264044784
 30
0.0
 11
-17.58964624297753
 21
-0.2760160639044784
 31
0.0
  0
LINE
  5
314
330
1F
100
AcDbEntity
  8
100
  6
Continuous
 62
     7
370
    30
100
AcDbLine
 10
-13.82499780547753
 20
-0.5396879389044784
 30
0.0
 11
-15.96366968047753
 21
-0.4957426264044784
 31
0.0
  0
LINE
  5
315
330
1F
100
AcDbEntity
  8
100
  6
Continuous
 62
     7
370
    30
100
AcDbLine
 10
-11.81816186797753
 20
-0.4225004389044784
 30
0.0
 11
-13.82499780547753
 21
-0.5396879389044784
 31
0.0
  0
LINE
  5
316
330
1F
100
AcDbEntity
  8
100
  6
Continuous
 62
     7
370
    30
100
AcDbLine
 10
-9.38652124297753
 20
-0.1295316889044784
 30
0.0
 11
-11.81816186797753
 21
-0.4225004389044784
 31
0.0
  0
LINE
  5
317
330
1F
100
AcDbEntity
  8
100
  6
Continuous
 62
     7
370
    30
100
AcDbLine
 10
-7.18925561797753
 20
0.2513276860955216
 30
0.0
 11
-9.38652124297753
 21
-0.1295316889044784
 31
0.0
  0
LINE
  5
318
330
1F
100
AcDbEntity
  8
100
  6
Continuous
 62
     7
370
    30
100
AcDbLine
 10
-3.90800561797753
 20
1.130233936095522
 30
0.0
 11
-7.18925561797753
 21
0.2513276860955216
 31
0.0
  0
LINE
  5
319
330
1F
100
AcDbEntity
  8
100
  6
Continuous
 62
     7
370
    30
100
AcDbLine
 10
1.07246313202247
 20
2.829452686095522
 30
0.0
 11
-3.90800561797753
 21
1.130233936095522
 31
0.0
  0
LINE
  5
31A
330
1F
100
AcDbEntity
  8
100
  6
Continuous
 62
     7
370
    30
100
AcDbLine
 10
6.17011938202247
 20
4.323593311095522
 30
0.0
 11
1.07246313202247
 21
2.829452686095522
 31
0.0
  0
LINE
  5
31B
330
1F
100
AcDbEntity
  8
100
  6
Continuous
 62
     7
370
    30
100
AcDbLine
 10
14.31465063202247
 20
7.106796436095522
 30
0.0
 11
6.17011938202247
 21
4.323593311095522
 31
0.0
  0
LINE
  5
31C
330
1F
100
AcDbEntity
  8
100
  6
Continuous
 62
     7
370
    30
100
AcDbLine
 10
15.98457250702247
 20
7.604843311095522
 30
0.0
 11
14.31465063202247
 21
7.106796436095522
 31
0.0
  0
LINE
  5
31D
330
1F
100
AcDbEntity
  8
100
  6
Continuous
 62
     7
370
    30
100
AcDbLine
 10
17.91816625702247
 20
8.337265186095522
 30
0.0
 11
15.98457250702247
 21
7.604843311095522
 31
0.0
  0
LINE
  5
31E
330
1F
100
AcDbEntity
  8
100
  6
Continuous
 62
     7
370
    30
100
AcDbLine
 10
16.01386938202247
 20
7.927108936095522
 30
0.0
 11
15.98457250702247
 21
7.604843311095522
 31
0.0
  0
LINE
  5
31F
330
1F
100
AcDbEntity
  8
100
  6
Continuous
 62
     7
370
    30
100
AcDbLine
 10
16.30683813202247
 20
8.747421436095522
 30
0.0
 11
16.01386938202247
 21
7.927108936095522
 31
0.0
  0
LINE
  5
320
330
1F
100
AcDbEntity
  8
100
  6
Continuous
 62
     7
370
    30
100
AcDbLine
 10
17.12715063202247
 20
9.216171436095522
 30
0.0
 11
16.30683813202247
 21
8.747421436095522
 31
0.0
  0
LINE
  5
321
330
1F
100
AcDbEntity
  8
100
  6
Continuous
 62
     7
370
    30
100
AcDbLine
 10
17.94746313202247
 20
8.923202686095522
 30
0.0
 11
17.12715063202247
 21
9.216171436095522
 31
0.0
  0
LINE
  5
322
330
1F
100
AcDbEntity
  8
100
  6
Continuous
 62
     7
370
    30
100
AcDbLine
 10
18.65058813202247
 20
7.927108936095522
 30
0.0
 11
17.94746313202247
 21
8.923202686095522
 31
0.0
  0
LINE
  5
323
330
1F
100
AcDbEntity
  8
100
  6
Continuous
 62
     7
370
    30
100
AcDbLine
 10
18.94355688202247
 20
6.931015186095522
 30
0.0
 11
18.65058813202247
 21
7.927108936095522
 31
0.0
  0
LINE
  5
324
330
1F
100
AcDbEntity
  8
100
  6
Continuous
 62
     7
370
    30
100
AcDbLine
 10
19.35371313202247
 20
5.934921436095522
 30
0.0
 11
18.94355688202247
 21
6.931015186095522
 31
0.0
  0
LINE
  5
325
330
1F
100
AcDbEntity
  8
100
  6
Continuous
 62
     7
370
    30
100
AcDbLine
 10
19.47090063202247
 20
4.704452686095522
 30
0.0
 11
19.35371313202247
 21
5.934921436095522
 31
0.0
  0
LINE
  5
326
330
1F
100
AcDbEntity
  8
100
  6
Continuous
 62
     7
370
    30
100
AcDbLine
 10
19.29511938202247
 20
3.825546436095522
 30
0.0
 11
19.47090063202247
 21
4.704452686095522
 31
0.0
  0
LINE
  5
327
330
1F
100
AcDbEntity
  8
100
  6
Continuous
 62
     7
370
    30
100
AcDbLine
 10
19.00215063202247
 20
3.005233936095522
 30
0.0
 11
19.29511938202247
 21
3.825546436095522
 31
0.0
  0
LINE
  5
328
330
1F
100
AcDbEntity
  8
100
  6
Continuous
 62
     7
370
    30
100
AcDbLine
 10
18.35761938202247
 20
2.302108936095522
 30
0.0
 11
19.00215063202247
 21
3.005233936095522
 31
0.0
  0
LINE
  5
329
330
1F
100
AcDbEntity
  8
100
  6
Continuous
 62
     7
370
    30
100
AcDbLine
 10
17.53730688202247
 20
2.360702686095522
 30
0.0
 11
18.35761938202247
 21
2.302108936095522
 31
0.0
  0
LINE
  5
32A
330
1F
100
AcDbEntity
  8
100
  6
Continuous
 62
     7
370
    30
100
AcDbLine
 10
16.77558813202247
 20
2.946640186095522
 30
0.0
 11
17.53730688202247
 21
2.360702686095522
 31
0.0
  0
LINE
  5
32B
330
1F
100
AcDbEntity
  8
100
  6
Continuous
 62
     7
370
    30
100
AcDbLine
 10
14.31465063202247
 20
8.102890186095522
 30
0.0
 11
14.31465063202247
 21
7.106796436095522
 31
0.0
  0
LINE
  5
32C
330
1F
100
AcDbEntity
  8
100
  6
Continuous
 62
     7
370
    30
100
AcDbLine
 10
14.95918188202247
 20
11.73570268609552
 30
0.0
 11
14.31465063202247
 21
8.102890186095522
 31
0.0
  0
LINE
  5
32D
330
1F
100
AcDbEntity
  8
100
  6
Continuous
 62
     7
370
    30
100
AcDbLine
 10
18.47480688202247
 20
13.02476518609552
 30
0.0
 11
14.95918188202247
 21
11.73570268609552
 31
0.0
  0
LINE
  5
32E
330
1F
100
AcDbEntity
  8
100
  6
Continuous
 62
     7
370
    30
100
AcDbLine
 10
21.11152563202247
 20
13.14195268609552
 30
0.0
 11
18.47480688202247
 21
13.02476518609552
 31
0.0
  0
LINE
  5
32F
330
1F
100
AcDbEntity
  8
100
  6
Continuous
 62
     7
370
    30
100
AcDbLine
 10
24.39277563202247
 20
7.634140186095522
 30
0.0
 11
21.11152563202247
 21
13.14195268609552
 31
0.0
  0
LINE
  5
330
330
1F
100
AcDbEntity
  8
100
  6
Continuous
 62
     7
370
    30
100
AcDbLine
 10
24.04121313202247
 20
0.8372651860955216
 30
0.0
 11
24.39277563202247
 21
7.634140186095522
 31
0.0
  0
LINE
  5
331
330
1F
100
AcDbEntity
  8
100
  6
Continuous
 62
     7
370
    30
100
AcDbLine
 10
21.40449438202247
 20
-0.2174223139044784
 30
0.0
 11
24.04121313202247
 21
0.8372651860955216
 31
0.0
  0
LINE
  5
332
330
1F
100
AcDbEntity
  8
100
  6
Continuous
 62
     7
370
    30
100
AcDbLine
 10
17.94746313202247
 20
-0.8619535639044784
 30
0.0
 11
21.40449438202247
 21
-0.2174223139044784
 31
0.0
  0
LINE
  5
333
330
1F
100
AcDbEntity
  8
100
  6
Continuous
 62
     7
370
    30
100
AcDbLine
 10
17.42011938202247
 20
-0.5689848139044784
 30
0.0
 11
17.94746313202247
 21
-0.8619535639044784
 31
0.0
  0
LINE
  5
334
330
1F
100
AcDbEntity
  8
100
  6
Continuous
 62
     7
370
    30
100
AcDbLine
 10
15.89668188202247
 20
1.130233936095522
 30
0.0
 11
17.42011938202247
 21
-0.5689848139044784
 31
0.0
  0
LINE
  5
335
330
1F
100
AcDbEntity
  8
100
  6
Continuous
 62
     7
370
    30
100
AcDbLine
 10
15.31074438202247
 20
2.419296436095522
 30
0.0
 11
15.89668188202247
 21
1.130233936095522
 31
0.0
  0
LINE
  5
336
330
1F
100
AcDbEntity
  8
100
  6
Continuous
 62
     7
370
    30
100
AcDbLine
 10
14.72480688202247
 20
-0.2760160639044784
 30
0.0
 11
15.89668188202247
 21
1.130233936095522
 31
0.0
  0
LINE
  5
337
330
1F
100
AcDbEntity
  8
100
  6
Continuous
 62
     7
370
    30
100
AcDbLine
 10
14.43183813202247
 20
-1.682266063904478
 30
0.0
 11
14.72480688202247
 21
-0.2760160639044784
 31
0.0
  0
LINE
  5
338
330
1F
100
AcDbEntity
  8
100
  6
Continuous
 62
     7
370
    30
100
AcDbLine
 10
14.43183813202247
 20
-3.205703563904478
 30
0.0
 11
14.43183813202247
 21
-1.682266063904478
 31
0.0
  0
LINE
  5
339
330
1F
100
AcDbEntity
  8
100
  6
Continuous
 62
     7
370
    30
100
AcDbLine
 10
14.78340063202247
 20
-4.318984813904478
 30
0.0
 11
14.43183813202247
 21
-3.205703563904478
 31
0.0
  0
LINE
  5
33A
330
1F
100
AcDbEntity
  8
100
  6
Continuous
 62
     7
370
    30
100
AcDbLine
 10
15.54511938202247
 20
-5.315078563904478
 30
0.0
 11
14.78340063202247
 21
-4.318984813904478
 31
0.0
  0
LINE
  5
33B
330
1F
100
AcDbEntity
  8
100
  6
Continuous
 62
     7
370
    30
100
AcDbLine
 10
16.71699438202247
 20
-6.545547313904478
 30
0.0
 11
15.54511938202247
 21
-5.315078563904478
 31
0.0
  0
LINE
  5
33C
330
1F
100
AcDbEntity
  8
100
  6
Continuous
 62
     7
370
    30
100
AcDbLine
 10
18.29902563202247
 20
-7.834609813904478
 30
0.0
 11
16.71699438202247
 21
-6.545547313904478
 31
0.0
  0
LINE
  5
33D
330
1F
100
AcDbEntity
  8
100
  6
Continuous
 62
     7
370
    30
100
AcDbLine
 10
20.40840063202247
 20
-9.299453563904478
 30
0.0
 11
18.29902563202247
 21
-7.834609813904478
 31
0.0
  0
LINE
  5
33E
330
1F
100
AcDbEntity
  8
100
  6
Continuous
 62
     7
370
    30
100
AcDbLine
 10
22.63496313202247
 20
-10.47132856390448
 30
0.0
 11
20.40840063202247
 21
-9.299453563904478
 31
0.0
  0
LINE
  5
33F
330
1F
100
AcDbEntity
  8
100
  6
Continuous
 62
     7
370
    30
100
AcDbLine
 10
25.68183813202247
 20
-11.46742231390448
 30
0.0
 11
22.63496313202247
 21
-10.47132856390448
 31
0.0
  0
LINE
  5
340
330
1F
100
AcDbEntity
  8
100
  6
Continuous
 62
     7
370
    30
100
AcDbLine
 10
32.18574438202247
 20
-13.10804731390448
 30
0.0
 11
25.68183813202247
 21
-11.46742231390448
 31
0.0
  0
LINE
  5
341
330
1F
100
AcDbEntity
  8
100
  6
Continuous
 62
     7
370
    30
100
AcDbLine
 10
37.86933813202247
 20
-13.92835981390448
 30
0.0
 11
32.18574438202247
 21
-13.10804731390448
 31
0.0
  0
LINE
  5
342
330
1F
100
AcDbEntity
  8
100
  6
Continuous
 62
     7
370
    30
100
AcDbLine
 10
44.02168188202247
 20
-14.33851606390448
 30
0.0
 11
37.86933813202247
 21
-13.92835981390448
 31
0.0
  0
LINE
  5
343
330
1F
100
AcDbEntity
  8
100
  6
Continuous
 62
     7
370
    30
100
AcDbLine
 10
49.41230688202247
 20
-14.39710981390448
 30
0.0
 11
44.02168188202247
 21
-14.33851606390448
 31
0.0
  0
LINE
  5
344
330
1F
100
AcDbEntity
  8
100
  6
Continuous
 62
     7
370
    30
100
AcDbLine
 10
55.21308813202247
 20
-13.81117231390448
 30
0.0
 11
49.41230688202247
 21
-14.39710981390448
 31
0.0
  0
LINE
  5
345
330
1F
100
AcDbEntity
  8
100
  6
Continuous
 62
     7
370
    30
100
AcDbLine
 10
62.94746313202247
 20
-12.58070356390448
 30
0.0
 11
55.21308813202247
 21
-13.81117231390448
 31
0.0
  0
LINE
  5
346
330
1F
100
AcDbEntity
  8
100
  6
Continuous
 62
     7
370
    30
100
AcDbLine
 10
68.22090063202248
 20
-11.40882856390448
 30
0.0
 11
62.94746313202247
 21
-12.58070356390448
 31
0.0
  0
LINE
  5
347
330
1F
100
AcDbEntity
  8
100
  6
Continuous
 62
     7
370
    30
100
AcDbLine
 10
72.67402563202248
 20
-9.416641063904478
 30
0.0
 11
68.22090063202248
 21
-11.40882856390448
 31
0.0
  0
LINE
  5
348
330
1F
100
AcDbEntity
  8
100
  6
Continuous
 62
     7
370
    30
100
AcDbLine
 10
75.25215063202248
 20
-7.776016063904478
 30
0.0
 11
72.67402563202248
 21
-9.416641063904478
 31
0.0
  0
LINE
  5
349
330
1F
100
AcDbEntity
  8
100
  6
Continuous
 62
     7
370
    30
100
AcDbLine
 10
77.83027563202248
 20
-6.018203563904478
 30
0.0
 11
75.25215063202248
 21
-7.776016063904478
 31
0.0
  0
LINE
  5
34A
330
1F
100
AcDbEntity
  8
100
  6
Continuous
 62
     7
370
    30
100
AcDbLine
 10
78.76777563202248
 20
-4.026016063904478
 30
0.0
 11
77.83027563202248
 21
-6.018203563904478
 31
0.0
  0
LINE
  5
34B
330
1F
100
AcDbEntity
  8
100
  6
Continuous
 62
     7
370
    30
100
AcDbLine
 10
79.00215063202248
 20
-1.740859813904478
 30
0.0
 11
78.76777563202248
 21
-4.026016063904478
 31
0.0
  0
LINE
  5
34C
330
1F
100
AcDbEntity
  8
100
  6
Continuous
 62
     7
370
    30
100
AcDbLine
 10
78.41621313202248
 20
-0.5689848139044784
 30
0.0
 11
79.00215063202248
 21
-1.740859813904478
 31
0.0
  0
LINE
  5
34D
330
1F
100
AcDbEntity
  8
100
  6
Continuous
 62
     7
370
    30
100
AcDbLine
 10
76.24824438202248
 20
3.473983936095522
 30
0.0
 11
78.41621313202248
 21
-0.5689848139044784
 31
0.0
  0
LINE
  5
34E
330
1F
100
AcDbEntity
  8
100
  6
Continuous
 62
     7
370
    30
100
AcDbLine
 10
75.89668188202248
 20
4.938827686095522
 30
0.0
 11
76.24824438202248
 21
3.473983936095522
 31
0.0
  0
LINE
  5
34F
330
1F
100
AcDbEntity
  8
100
  6
Continuous
 62
     7
370
    30
100
AcDbLine
 10
75.95527563202248
 20
8.044296436095522
 30
0.0
 11
75.89668188202248
 21
4.938827686095522
 31
0.0
  0
LINE
  5
350
330
1F
100
AcDbEntity
  8
100
  6
Continuous
 62
     7
370
    30
100
AcDbLine
 10
76.24824438202248
 20
14.37242143609552
 30
0.0
 11
75.95527563202248
 21
8.044296436095522
 31
0.0
  0
LINE
  5
351
330
1F
100
AcDbEntity
  8
100
  6
Continuous
 62
     7
370
    30
100
AcDbLine
 10
76.26289281952248
 20
27.98081987359552
 30
0.0
 11
76.24824438202248
 21
14.37242143609552
 31
0.0
  0
LINE
  5
352
330
1F
100
AcDbEntity
  8
100
  6
Continuous
 62
     7
370
    30
100
AcDbLine
 10
74.84199438202248
 20
26.73570268609552
 30
0.0
 11
76.26289281952248
 21
27.98081987359552
 31
0.0
  0
LINE
  5
353
330
1F
100
AcDbEntity
  8
100
  6
Continuous
 62
     7
370
    30
100
AcDbLine
 10
71.97090063202248
 20
25.21226518609552
 30
0.0
 11
74.84199438202248
 21
26.73570268609552
 31
0.0
  0
LINE
  5
354
330
1F
100
AcDbEntity
  8
100
  6
Continuous
 62
     7
370
    30
100
AcDbLine
 10
67.63496313202248
 20
23.68882768609552
 30
0.0
 11
71.97090063202248
 21
25.21226518609552
 31
0.0
  0
LINE
  5
355
330
1F
100
AcDbEntity
  8
100
  6
Continuous
 62
     7
370
    30
100
AcDbLine
 10
63.00605688202247
 20
22.92710893609552
 30
0.0
 11
67.63496313202248
 21
23.68882768609552
 31
0.0
  0
LINE
  5
356
330
1F
100
AcDbEntity
  8
100
  6
Continuous
 62
     7
370
    30
100
AcDbLine
 10
53.39668188202247
 20
22.34117143609552
 30
0.0
 11
63.00605688202247
 21
22.92710893609552
 31
0.0
  0
LINE
  5
357
330
1F
100
AcDbEntity
  8
100
  6
Continuous
 62
     7
370
    30
100
AcDbLine
 10
43.84590063202247
 20
22.28257768609552
 30
0.0
 11
53.39668188202247
 21
22.34117143609552
 31
0.0
  0
LINE
  5
358
330
1F
100
AcDbEntity
  8
100
  6
Continuous
 62
     7
370
    30
100
AcDbLine
 10
35.52558813202247
 20
23.04429643609552
 30
0.0
 11
43.84590063202247
 21
22.28257768609552
 31
0.0
  0
LINE
  5
359
330
1F
100
AcDbEntity
  8
100
  6
Continuous
 62
     7
370
    30
100
AcDbLine
 10
26.50215063202247
 20
24.39195268609552
 30
0.0
 11
35.52558813202247
 21
23.04429643609552
 31
0.0
  0
LINE
  5
35A
330
1F
100
AcDbEntity
  8
100
  6
Continuous
 62
     7
370
    30
100
AcDbLine
 10
21.52168188202247
 20
26.03257768609552
 30
0.0
 11
26.50215063202247
 21
24.39195268609552
 31
0.0
  0
LINE
  5
35B
330
1F
100
AcDbEntity
  8
100
  6
Continuous
 62
     7
370
    30
100
AcDbLine
 10
19.01028319075102
 20
28.52276568473415
 30
0.0
 11
21.52168188202247
 21
26.03257768609552
 31
0.0
  0
LINE
  5
35C
330
1F
100
AcDbEntity
  8
100
  6
Continuous
 62
     7
370
    30
100
AcDbLine
 10
16.43867406952247
 20
40.65171831109552
 30
0.0
 11
16.52653931874919
 21
41.52991324818774
 31
0.0
  0
LINE
  5
35D
330
1F
100
AcDbEntity
  8
100
  6
Continuous
 62
     7
370
    30
100
AcDbLine
 10
16.68769750702247
 20
39.64097612359552
 30
0.0
 11
16.43867406952247
 21
40.65171831109552
 31
0.0
  0
LINE
  5
35E
330
1F
100
AcDbEntity
  8
100
  6
Continuous
 62
     7
370
    30
100
AcDbLine
 10
17.11250219452247
 20
38.77671831109552
 30
0.0
 11
16.68769750702247
 21
39.64097612359552
 31
0.0
  0
LINE
  5
35F
330
1F
100
AcDbEntity
  8
100
  6
Continuous
 62
     7
370
    30
100
AcDbLine
 10
18.89961156952247
 20
37.35581987359552
 30
0.0
 11
17.11250219452247
 21
38.77671831109552
 31
0.0
  0
LINE
  5
360
330
1F
100
AcDbEntity
  8
100
  6
Continuous
 62
     7
370
    30
100
AcDbLine
 10
21.37519750702247
 20
36.21324174859552
 30
0.0
 11
18.89961156952247
 21
37.35581987359552
 31
0.0
  0
LINE
  5
361
330
1F
100
AcDbEntity
  8
100
  6
Continuous
 62
     7
370
    30
100
AcDbLine
 10
25.13984594452247
 20
34.79234331109552
 30
0.0
 11
21.37519750702247
 21
36.21324174859552
 31
0.0
  0
LINE
  5
362
330
1F
100
AcDbEntity
  8
100
  6
Continuous
 62
     7
370
    30
100
AcDbLine
 10
28.72871313202247
 20
33.79624956109552
 30
0.0
 11
25.13984594452247
 21
34.79234331109552
 31
0.0
  0
LINE
  5
363
330
1F
100
AcDbEntity
  8
100
  6
Continuous
 62
     7
370
    30
100
AcDbLine
 10
32.38595614047156
 20
32.98971580411998
 30
0.0
 11
28.72871313202247
 21
33.79624956109552
 31
0.0
  0
LINE
  5
364
330
1F
100
AcDbEntity
  8
100
  6
Continuous
 62
     7
370
    30
100
AcDbLine
 10
29.95918188202247
 20
32.82945268609552
 30
0.0
 11
32.36571888937129
 21
32.42123302321255
 31
0.0
  0
LINE
  5
365
330
1F
100
AcDbEntity
  8
100
  6
Continuous
 62
     7
370
    30
100
AcDbLine
 10
27.10273656952247
 20
33.47398393609552
 30
0.0
 11
29.95918188202247
 21
32.82945268609552
 31
0.0
  0
LINE
  5
366
330
1F
100
AcDbEntity
  8
100
  6
Continuous
 62
     7
370
    30
100
AcDbLine
 10
23.55781469452247
 20
34.61656206109552
 30
0.0
 11
27.10273656952247
 21
33.47398393609552
 31
0.0
  0
LINE
  5
367
330
1F
100
AcDbEntity
  8
100
  6
Continuous
 62
     7
370
    30
100
AcDbLine
 10
19.66133031952247
 20
36.16929643609552
 30
0.0
 11
23.55781469452247
 21
34.61656206109552
 31
0.0
  0
LINE
  5
368
330
1F
100
AcDbEntity
  8
100
  6
Continuous
 62
     7
370
    30
100
AcDbLine
 10
17.06855688202247
 20
37.63414018609552
 30
0.0
 11
19.66133031952247
 21
36.16929643609552
 31
0.0
  0
LINE
  5
369
330
1F
100
AcDbEntity
  8
100
  6
Continuous
 62
     7
370
    30
100
AcDbLine
 10
15.94062719452247
 20
39.01109331109552
 30
0.0
 11
17.06855688202247
 21
37.63414018609552
 31
0.0
  0
LINE
  5
36A
330
1F
100
AcDbEntity
  8
100
  6
Continuous
 62
     7
370
    30
100
AcDbLine
 10
15.76484594452247
 20
40.37339799859552
 30
0.0
 11
15.94062719452247
 21
39.01109331109552
 31
0.0
  0
LINE
  5
36B
330
1F
100
AcDbEntity
  8
100
  6
Continuous
 62
     7
370
    30
100
AcDbLine
 10
16.21894750702247
 20
41.29624956109552
 30
0.0
 11
15.76484594452247
 21
40.37339799859552
 31
0.0
  0
LINE
  5
36C
330
1F
100
AcDbEntity
  8
100
  6
Continuous
 62
     7
370
    30
100
AcDbLine
 10
17.02654967048401
 20
41.90974865965322
 30
0.0
 11
16.21894750702247
 21
41.29624956109552
 31
0.0
  0
LINE
  5
36D
330
1F
100
AcDbEntity
  8
100
  6
Continuous
 62
     7
370
    30
100
AcDbLine
 10
76.10176000702248
 20
36.98960893609552
 30
0.0
 11
77.47871313202248
 21
38.04429643609552
 31
0.0
  0
LINE
  5
36E
330
1F
100
AcDbEntity
  8
100
  6
Continuous
 62
     7
370
    30
100
AcDbLine
 10
73.23066625702248
 20
35.49546831109552
 30
0.0
 11
76.10176000702248
 21
36.98960893609552
 31
0.0
  0
LINE
  5
36F
330
1F
100
AcDbEntity
  8
100
  6
Continuous
 62
     7
370
    30
100
AcDbLine
 10
69.97871313202248
 20
34.29429643609552
 30
0.0
 11
73.23066625702248
 21
35.49546831109552
 31
0.0
  0
LINE
  5
370
330
1F
100
AcDbEntity
  8
100
  6
Continuous
 62
     7
370
    30
100
AcDbLine
 10
65.05683813202248
 20
33.12242143609552
 30
0.0
 11
69.97871313202248
 21
34.29429643609552
 31
0.0
  0
LINE
  5
371
330
1F
100
AcDbEntity
  8
100
  6
Continuous
 62
     7
370
    30
100
AcDbLine
 10
60.54511938202247
 20
32.53648393609552
 30
0.0
 11
65.05683813202248
 21
33.12242143609552
 31
0.0
  0
LINE
  5
372
330
1F
100
AcDbEntity
  8
100
  6
Continuous
 62
     7
370
    30
100
AcDbLine
 10
55.68183813202247
 20
32.18492143609552
 30
0.0
 11
60.54511938202247
 21
32.53648393609552
 31
0.0
  0
LINE
  5
373
330
1F
100
AcDbEntity
  8
100
  6
Continuous
 62
     7
370
    30
100
AcDbLine
 10
48.03535375702247
 20
32.06773393609552
 30
0.0
 11
55.68183813202247
 21
32.18492143609552
 31
0.0
  0
LINE
  5
374
330
1F
100
AcDbEntity
  8
100
  6
Continuous
 62
     7
370
    30
100
AcDbLine
 10
44.66621313202247
 20
32.06773393609552
 30
0.0
 11
48.03535375702247
 21
32.06773393609552
 31
0.0
  0
LINE
  5
375
330
1F
100
AcDbEntity
  8
100
  6
Continuous
 62
     7
370
    30
100
AcDbLine
 10
38.39668188202247
 20
32.38999956109552
 30
0.0
 11
44.66621313202247
 21
32.06773393609552
 31
0.0
  0
LINE
  5
376
330
1F
100
AcDbEntity
  8
100
  6
Continuous
 62
     7
370
    30
100
AcDbLine
 10
35.35246018390927
 20
32.74399425449175
 30
0.0
 11
38.39668188202247
 21
32.38999956109552
 31
0.0
  0
LINE
  5
377
330
1F
100
AcDbEntity
  8
100
  6
Continuous
 62
     7
370
    30
100
AcDbLine
 10
40.56465063202247
 20
31.48179643609552
 30
0.0
 11
35.32051000702247
 21
32.00914018609552
 31
0.0
  0
LINE
  5
378
330
1F
100
AcDbEntity
  8
100
  6
Continuous
 62
     7
370
    30
100
AcDbLine
 10
50.17402563202247
 20
31.36460893609552
 30
0.0
 11
40.56465063202247
 21
31.48179643609552
 31
0.0
  0
LINE
  5
379
330
1F
100
AcDbEntity
  8
100
  6
Continuous
 62
     7
370
    30
100
AcDbLine
 10
57.79121313202247
 20
31.68687456109552
 30
0.0
 11
50.17402563202247
 21
31.36460893609552
 31
0.0
  0
LINE
  5
37A
330
1F
100
AcDbEntity
  8
100
  6
Continuous
 62
     7
370
    30
100
AcDbLine
 10
62.74238500702247
 20
32.06773393609552
 30
0.0
 11
57.79121313202247
 21
31.68687456109552
 31
0.0
  0
LINE
  5
37B
330
1F
100
AcDbEntity
  8
100
  6
Continuous
 62
     7
370
    30
100
AcDbLine
 10
68.99726781952248
 20
33.15171831109552
 30
0.0
 11
62.74238500702247
 21
32.06773393609552
 31
0.0
  0
LINE
  5
37C
330
1F
100
AcDbEntity
  8
100
  6
Continuous
 62
     7
370
    30
100
AcDbLine
 10
73.49433813202248
 20
34.48472612359552
 30
0.0
 11
68.99726781952248
 21
33.15171831109552
 31
0.0
  0
LINE
  5
37D
330
1F
100
AcDbEntity
  8
100
  6
Continuous
 62
     7
370
    30
100
AcDbLine
 10
76.92207250702248
 20
36.18394487359552
 30
0.0
 11
73.49433813202248
 21
34.48472612359552
 31
0.0
  0
LINE
  5
37E
330
1F
100
AcDbEntity
  8
100
  6
Continuous
 62
     7
370
    30
100
AcDbLine
 10
78.35761938202248
 20
37.10679643609552
 30
0.0
 11
76.92207250702248
 21
36.18394487359552
 31
0.0
  0
LINE
  5
37F
330
1F
100
AcDbEntity
  8
100
  6
Continuous
 62
     7
370
    30
100
AcDbLine
 10
78.81172094452248
 20
38.04429643609552
 30
0.0
 11
78.35761938202248
 21
37.10679643609552
 31
0.0
  0
LINE
  5
380
330
1F
100
AcDbEntity
  8
100
  6
Continuous
 62
     7
370
    30
100
AcDbLine
 10
78.85566625702248
 20
39.05503862359552
 30
0.0
 11
78.81172094452248
 21
38.04429643609552
 31
0.0
  0
LINE
  5
381
330
1F
100
AcDbEntity
  8
100
  6
Continuous
 62
     7
370
    30
100
AcDbLine
 10
78.69453344452248
 20
39.78746049859552
 30
0.0
 11
78.85566625702248
 21
39.05503862359552
 31
0.0
  0
LINE
  5
382
330
1F
100
AcDbEntity
  8
100
  6
Continuous
 62
     7
370
    30
100
AcDbLine
 10
78.34297094452248
 20
40.56382768609552
 30
0.0
 11
78.69453344452248
 21
39.78746049859552
 31
0.0
  0
LINE
  5
383
330
1F
100
AcDbEntity
  8
100
  6
Continuous
 62
     7
370
    30
100
AcDbLine
 10
77.7424498231176
 20
41.20738669466853
 30
0.0
 11
78.34297094452248
 21
40.56382768609552
 31
0.0
  0
LINE
  5
384
330
1F
100
AcDbEntity
  8
100
  6
Continuous
 62
     7
370
    30
100
AcDbLine
 10
86.34101781952248
 20
37.63414018609552
 30
0.0
 11
86.66328344452248
 21
38.82066362359552
 31
0.0
  0
LINE
  5
385
330
1F
100
AcDbEntity
  8
100
  6
Continuous
 62
     7
370
    30
100
AcDbLine
 10
85.78437719452248
 20
36.72593706109552
 30
0.0
 11
86.34101781952248
 21
37.63414018609552
 31
0.0
  0
LINE
  5
386
330
1F
100
AcDbEntity
  8
100
  6
Continuous
 62
     7
370
    30
100
AcDbLine
 10
84.75898656952248
 20
35.61265581109552
 30
0.0
 11
85.78437719452248
 21
36.72593706109552
 31
0.0
  0
LINE
  5
387
330
1F
100
AcDbEntity
  8
100
  6
Continuous
 62
     7
370
    30
100
AcDbLine
 10
82.59101781952248
 20
33.70835893609552
 30
0.0
 11
84.75898656952248
 21
35.61265581109552
 31
0.0
  0
LINE
  5
388
330
1F
100
AcDbEntity
  8
100
  6
Continuous
 62
     7
370
    30
100
AcDbLine
 10
76.58515844452248
 20
31.59898393609552
 30
0.0
 11
82.59101781952248
 21
33.70835893609552
 31
0.0
  0
LINE
  5
389
330
1F
100
AcDbEntity
  8
100
  6
Continuous
 62
     7
370
    30
100
AcDbLine
 10
69.81758031952248
 20
29.98765581109552
 30
0.0
 11
76.58515844452248
 21
31.59898393609552
 31
0.0
  0
LINE
  5
38A
330
1F
100
AcDbEntity
  8
100
  6
Continuous
 62
     7
370
    30
100
AcDbLine
 10
62.37617406952247
 20
29.19664018609552
 30
0.0
 11
69.81758031952248
 21
29.98765581109552
 31
0.0
  0
LINE
  5
38B
330
1F
100
AcDbEntity
  8
100
  6
Continuous
 62
     7
370
    30
100
AcDbLine
 10
54.72968969452247
 20
28.84507768609552
 30
0.0
 11
62.37617406952247
 21
29.19664018609552
 31
0.0
  0
LINE
  5
38C
330
1F
100
AcDbEntity
  8
100
  6
Continuous
 62
     7
370
    30
100
AcDbLine
 10
47.28828344452247
 20
28.99156206109552
 30
0.0
 11
54.72968969452247
 21
28.84507768609552
 31
0.0
  0
LINE
  5
38D
330
1F
100
AcDbEntity
  8
100
  6
Continuous
 62
     7
370
    30
100
AcDbLine
 10
37.91328344452247
 20
29.46031206109552
 30
0.0
 11
47.28828344452247
 21
28.99156206109552
 31
0.0
  0
LINE
  5
38E
330
1F
100
AcDbEntity
  8
100
  6
Continuous
 62
     7
370
    30
100
AcDbLine
 10
33.69453344452247
 20
29.72398393609552
 30
0.0
 11
37.91328344452247
 21
29.46031206109552
 31
0.0
  0
LINE
  5
38F
330
1F
100
AcDbEntity
  8
100
  6
Continuous
 62
     7
370
    30
100
AcDbLine
 10
27.65937719452247
 20
30.33921831109552
 30
0.0
 11
33.69453344452247
 21
29.72398393609552
 31
0.0
  0
LINE
  5
390
330
1F
100
AcDbEntity
  8
100
  6
Continuous
 62
     7
370
    30
100
AcDbLine
 10
20.54023656952247
 20
31.65757768609552
 30
0.0
 11
27.65937719452247
 21
30.33921831109552
 31
0.0
  0
LINE
  5
391
330
1F
100
AcDbEntity
  8
100
  6
Continuous
 62
     7
370
    30
100
AcDbLine
 10
15.29609594452247
 20
33.56187456109552
 30
0.0
 11
20.54023656952247
 21
31.65757768609552
 31
0.0
  0
LINE
  5
392
330
1F
100
AcDbEntity
  8
100
  6
Continuous
 62
     7
370
    30
100
AcDbLine
 10
12.07343969452247
 20
35.14390581109552
 30
0.0
 11
15.29609594452247
 21
33.56187456109552
 31
0.0
  0
LINE
  5
393
330
1F
100
AcDbEntity
  8
100
  6
Continuous
 62
     7
370
    30
100
AcDbLine
 10
9.75898656952247
 20
36.60874956109552
 30
0.0
 11
12.07343969452247
 21
35.14390581109552
 31
0.0
  0
LINE
  5
394
330
1F
100
AcDbEntity
  8
100
  6
Continuous
 62
     7
370
    30
100
AcDbLine
 10
8.79218969452247
 20
37.86851518609552
 30
0.0
 11
9.75898656952247
 21
36.60874956109552
 31
0.0
  0
LINE
  5
395
330
1F
100
AcDbEntity
  8
100
  6
Continuous
 62
     7
370
    30
100
AcDbLine
 10
8.61640844452247
 20
39.36265581109552
 30
0.0
 11
8.79218969452247
 21
37.86851518609552
 31
0.0
  0
LINE
  5
396
330
1F
100
AcDbEntity
  8
100
  6
Continuous
 62
     7
370
    30
100
AcDbLine
 10
8.56789352867527
 20
40.92222907839884
 30
0.0
 11
8.61640844452247
 21
39.36265581109552
 31
0.0
  0
LINE
  5
397
330
1F
100
AcDbEntity
  8
100
  6
Continuous
 62
     7
370
    30
100
AcDbLine
 10
36.12617406952247
 20
52.28257768609552
 30
0.0
 11
36.28852200724216
 21
53.71176832345273
 31
0.0
  0
LINE
  5
398
330
1F
100
AcDbEntity
  8
100
  6
Continuous
 62
     7
370
    30
100
AcDbLine
 10
35.92109594452247
 20
50.72984331109552
 30
0.0
 11
36.12617406952247
 21
52.28257768609552
 31
0.0
  0
LINE
  5
399
330
1F
100
AcDbEntity
  8
100
  6
Continuous
 62
     7
370
    30
100
AcDbLine
 10
35.80390844452247
 20
48.53257768609552
 30
0.0
 11
35.92109594452247
 21
50.72984331109552
 31
0.0
  0
LINE
  5
39A
330
1F
100
AcDbEntity
  8
100
  6
Continuous
 62
     7
370
    30
100
AcDbLine
 10
35.51093969452247
 20
37.32652299859552
 30
0.0
 11
35.80390844452247
 21
48.53257768609552
 31
0.0
  0
LINE
  5
39B
330
1F
100
AcDbEntity
  8
100
  6
Continuous
 62
     7
370
    30
100
AcDbLine
 10
35.46699438202247
 20
35.37828081109552
 30
0.0
 11
35.51093969452247
 21
37.32652299859552
 31
0.0
  0
LINE
  5
39C
330
1F
100
AcDbEntity
  8
100
  6
Continuous
 62
     7
370
    30
100
AcDbLine
 10
35.32051000702247
 20
32.00914018609552
 30
0.0
 11
35.46699438202247
 21
35.37828081109552
 31
0.0
  0
LINE
  5
39D
330
1F
100
AcDbEntity
  8
100
  6
Continuous
 62
     7
370
    30
100
AcDbLine
 10
35.48164281952247
 20
31.32066362359552
 30
0.0
 11
35.32051000702247
 21
32.00914018609552
 31
0.0
  0
LINE
  5
39E
330
1F
100
AcDbEntity
  8
100
  6
Continuous
 62
     7
370
    30
100
AcDbLine
 10
35.04218969452247
 20
30.91050737359552
 30
0.0
 11
35.48164281952247
 21
31.32066362359552
 31
0.0
  0
LINE
  5
39F
330
1F
100
AcDbEntity
  8
100
  6
Continuous
 62
     7
370
    30
100
AcDbLine
 10
34.17793188202247
 20
30.79331987359552
 30
0.0
 11
35.04218969452247
 21
30.91050737359552
 31
0.0
  0
LINE
  5
3A0
330
1F
100
AcDbEntity
  8
100
  6
Continuous
 62
     7
370
    30
100
AcDbLine
 10
33.05000219452247
 20
30.86656206109552
 30
0.0
 11
34.17793188202247
 21
30.79331987359552
 31
0.0
  0
LINE
  5
3A1
330
1F
100
AcDbEntity
  8
100
  6
Continuous
 62
     7
370
    30
100
AcDbLine
 10
32.39082250702247
 20
31.15953081109552
 30
0.0
 11
33.05000219452247
 21
30.86656206109552
 31
0.0
  0
LINE
  5
3A2
330
1F
100
AcDbEntity
  8
100
  6
Continuous
 62
     7
370
    30
100
AcDbLine
 10
32.34687719452247
 20
31.89195268609552
 30
0.0
 11
32.39082250702247
 21
31.15953081109552
 31
0.0
  0
LINE
  5
3A3
330
1F
100
AcDbEntity
  8
100
  6
Continuous
 62
     7
370
    30
100
AcDbLine
 10
32.42744360077247
 20
34.15513627984552
 30
0.0
 11
32.34687719452247
 21
31.89195268609552
 31
0.0
  0
LINE
  5
3A4
330
1F
100
AcDbEntity
  8
100
  6
Continuous
 62
     7
370
    30
100
AcDbLine
 10
32.39082250702247
 20
35.61265581109552
 30
0.0
 11
32.42744360077247
 21
34.15513627984552
 31
0.0
  0
LINE
  5
3A5
330
1F
100
AcDbEntity
  8
100
  6
Continuous
 62
     7
370
    30
100
AcDbLine
 10
32.77168188202247
 20
46.13023393609552
 30
0.0
 11
32.39082250702247
 21
35.61265581109552
 31
0.0
  0
LINE
  5
3A6
330
1F
100
AcDbEntity
  8
100
  6
Continuous
 62
     7
370
    30
100
AcDbLine
 10
32.83027563202247
 20
49.07456987359552
 30
0.0
 11
32.77168188202247
 21
46.13023393609552
 31
0.0
  0
LINE
  5
3A7
330
1F
100
AcDbEntity
  8
100
  6
Continuous
 62
     7
370
    30
100
AcDbLine
 10
32.87422094452247
 20
50.64195268609552
 30
0.0
 11
32.83027563202247
 21
49.07456987359552
 31
0.0
  0
LINE
  5
3A8
330
1F
100
AcDbEntity
  8
100
  6
Continuous
 62
     7
370
    30
100
AcDbLine
 10
33.03535375702247
 20
52.28257768609552
 30
0.0
 11
32.87422094452247
 21
50.64195268609552
 31
0.0
  0
LINE
  5
3A9
330
1F
100
AcDbEntity
  8
100
  6
Continuous
 62
     7
370
    30
100
AcDbLine
 10
33.30116020506902
 20
54.03400439512845
 30
0.0
 11
33.03535375702247
 21
52.28257768609552
 31
0.0
  0
LINE
  5
3AA
330
1F
100
AcDbEntity
  8
100
  6
Continuous
 62
     7
370
    30
100
AcDbLine
 10
39.31953344452247
 20
33.25425737359552
 30
0.0
 11
35.27656469452247
 21
33.72300737359552
 31
0.0
  0
LINE
  5
3AB
330
1F
100
AcDbEntity
  8
100
  6
Continuous
 62
     7
370
    30
100
AcDbLine
 10
45.06172094452247
 20
32.90269487359552
 30
0.0
 11
39.31953344452247
 21
33.25425737359552
 31
0.0
  0
LINE
  5
3AC
330
1F
100
AcDbEntity
  8
100
  6
Continuous
 62
     7
370
    30
100
AcDbLine
 10
51.27265844452247
 20
32.96128862359552
 30
0.0
 11
45.06172094452247
 21
32.90269487359552
 31
0.0
  0
LINE
  5
3AD
330
1F
100
AcDbEntity
  8
100
  6
Continuous
 62
     7
370
    30
100
AcDbLine
 10
57.27851781952247
 20
33.19566362359552
 30
0.0
 11
51.27265844452247
 21
32.96128862359552
 31
0.0
  0
LINE
  5
3AE
330
1F
100
AcDbEntity
  8
100
  6
Continuous
 62
     7
370
    30
100
AcDbLine
 10
61.93672094452247
 20
33.60581987359552
 30
0.0
 11
57.27851781952247
 21
33.19566362359552
 31
0.0
  0
LINE
  5
3AF
330
1F
100
AcDbEntity
  8
100
  6
Continuous
 62
     7
370
    30
100
AcDbLine
 10
65.80390844452248
 20
34.19175737359552
 30
0.0
 11
61.93672094452247
 21
33.60581987359552
 31
0.0
  0
LINE
  5
3B0
330
1F
100
AcDbEntity
  8
100
  6
Continuous
 62
     7
370
    30
100
AcDbLine
 10
70.57929906952248
 20
35.24644487359552
 30
0.0
 11
65.80390844452248
 21
34.19175737359552
 31
0.0
  0
LINE
  5
3B1
330
1F
100
AcDbEntity
  8
100
  6
Continuous
 62
     7
370
    30
100
AcDbLine
 10
73.27461156952248
 20
36.38902299859552
 30
0.0
 11
70.57929906952248
 21
35.24644487359552
 31
0.0
  0
LINE
  5
3B2
330
1F
100
AcDbEntity
  8
100
  6
Continuous
 62
     7
370
    30
100
AcDbLine
 10
75.06172094452248
 20
37.20933549859552
 30
0.0
 11
73.27461156952248
 21
36.38902299859552
 31
0.0
  0
LINE
  5
3B3
330
1F
100
AcDbEntity
  8
100
  6
Continuous
 62
     7
370
    30
100
AcDbLine
 10
76.96601781952248
 20
38.41050737359552
 30
0.0
 11
75.06172094452248
 21
37.20933549859552
 31
0.0
  0
LINE
  5
3B4
330
1F
100
AcDbEntity
  8
100
  6
Continuous
 62
     7
370
    30
100
AcDbLine
 10
77.55195531952248
 20
39.37730424859552
 30
0.0
 11
76.96601781952248
 21
38.41050737359552
 31
0.0
  0
LINE
  5
3B5
330
1F
100
AcDbEntity
  8
100
  6
Continuous
 62
     7
370
    30
100
AcDbLine
 10
77.78633031952248
 20
40.54917924859552
 30
0.0
 11
77.55195531952248
 21
39.37730424859552
 31
0.0
  0
LINE
  5
3B6
330
1F
100
AcDbEntity
  8
100
  6
Continuous
 62
     7
370
    30
100
AcDbLine
 10
77.69843969452248
 20
41.86753862359552
 30
0.0
 11
77.78633031952248
 21
40.54917924859552
 31
0.0
  0
LINE
  5
3B7
330
1F
100
AcDbEntity
  8
100
  6
Continuous
 62
     7
370
    30
100
AcDbLine
 10
77.22968969452248
 20
42.83433549859552
 30
0.0
 11
77.69843969452248
 21
41.86753862359552
 31
0.0
  0
LINE
  5
3B8
330
1F
100
AcDbEntity
  8
100
  6
Continuous
 62
     7
370
    30
100
AcDbLine
 10
77.3312278197788
 20
45.12018689797108
 30
0.0
 11
79.76383285225313
 21
44.15196427820899
 31
0.0
  0
LINE
  5
3B9
330
1F
100
AcDbEntity
  8
100
  6
Continuous
 62
     7
370
    30
100
AcDbLine
 10
82.47383031952248
 20
54.55308549859552
 30
0.0
 11
81.75247927514388
 21
56.8006708548147
 31
0.0
  0
LINE
  5
3BA
330
1F
100
AcDbEntity
  8
100
  6
Continuous
 62
     7
370
    30
100
AcDbLine
 10
82.59101781952248
 20
53.05894487359552
 30
0.0
 11
82.47383031952248
 21
54.55308549859552
 31
0.0
  0
LINE
  5
3BB
330
1F
100
AcDbEntity
  8
100
  6
Continuous
 62
     7
370
    30
100
AcDbLine
 10
82.44453344452248
 20
42.98081987359552
 30
0.0
 11
82.59101781952248
 21
53.05894487359552
 31
0.0
  0
LINE
  5
3BC
330
1F
100
AcDbEntity
  8
100
  6
Continuous
 62
     7
370
    30
100
AcDbLine
 10
82.21015844452248
 20
38.41050737359552
 30
0.0
 11
82.44453344452248
 21
42.98081987359552
 31
0.0
  0
LINE
  5
3BD
330
1F
100
AcDbEntity
  8
100
  6
Continuous
 62
     7
370
    30
100
AcDbLine
 10
82.26875219452248
 20
37.41441362359552
 30
0.0
 11
82.21015844452248
 21
38.41050737359552
 31
0.0
  0
LINE
  5
3BE
330
1F
100
AcDbEntity
  8
100
  6
Continuous
 62
     7
370
    30
100
AcDbLine
 10
82.47383031952248
 20
36.47691362359552
 30
0.0
 11
82.26875219452248
 21
37.41441362359552
 31
0.0
  0
LINE
  5
3BF
330
1F
100
AcDbEntity
  8
100
  6
Continuous
 62
     7
370
    30
100
AcDbLine
 10
81.94648656952248
 20
35.92027299859552
 30
0.0
 11
82.47383031952248
 21
36.47691362359552
 31
0.0
  0
LINE
  5
3C0
330
1F
100
AcDbEntity
  8
100
  6
Continuous
 62
     7
370
    30
100
AcDbLine
 10
81.21406469452248
 20
35.92027299859552
 30
0.0
 11
81.94648656952248
 21
35.92027299859552
 31
0.0
  0
LINE
  5
3C1
330
1F
100
AcDbEntity
  8
100
  6
Continuous
 62
     7
370
    30
100
AcDbLine
 10
80.30586156952248
 20
36.06675737359552
 30
0.0
 11
81.21406469452248
 21
35.92027299859552
 31
0.0
  0
LINE
  5
3C2
330
1F
100
AcDbEntity
  8
100
  6
Continuous
 62
     7
370
    30
100
AcDbLine
 10
79.42695531952248
 20
36.24253862359552
 30
0.0
 11
80.30586156952248
 21
36.06675737359552
 31
0.0
  0
LINE
  5
3C3
330
1F
100
AcDbEntity
  8
100
  6
Continuous
 62
     7
370
    30
100
AcDbLine
 10
79.36836156952248
 20
37.67808549859552
 30
0.0
 11
79.42695531952248
 21
36.24253862359552
 31
0.0
  0
LINE
  5
3C4
330
1F
100
AcDbEntity
  8
100
  6
Continuous
 62
     7
370
    30
100
AcDbLine
 10
79.60273656952248
 20
38.38121049859552
 30
0.0
 11
79.36836156952248
 21
37.67808549859552
 31
0.0
  0
LINE
  5
3C5
330
1F
100
AcDbEntity
  8
100
  6
Continuous
 62
     7
370
    30
100
AcDbLine
 10
79.74922094452248
 20
43.85972612359552
 30
0.0
 11
79.60273656952248
 21
38.38121049859552
 31
0.0
  0
LINE
  5
3C6
330
1F
100
AcDbEntity
  8
100
  6
Continuous
 62
     7
370
    30
100
AcDbLine
 10
79.80781469452248
 20
45.03160112359552
 30
0.0
 11
79.74922094452248
 21
43.85972612359552
 31
0.0
  0
LINE
  5
3C7
330
1F
100
AcDbEntity
  8
100
  6
Continuous
 62
     7
370
    30
100
AcDbLine
 10
80.01289281952248
 20
52.91246049859552
 30
0.0
 11
79.80781469452248
 21
45.03160112359552
 31
0.0
  0
LINE
  5
3C8
330
1F
100
AcDbEntity
  8
100
  6
Continuous
 62
     7
370
    30
100
AcDbLine
 10
79.89570531952248
 20
54.23081987359552
 30
0.0
 11
80.01289281952248
 21
52.91246049859552
 31
0.0
  0
LINE
  5
3C9
330
1F
100
AcDbEntity
  8
100
  6
Continuous
 62
     7
370
    30
100
AcDbLine
 10
79.40850768189915
 20
55.95167326985991
 30
0.0
 11
79.89570531952248
 21
54.23081987359552
 31
0.0
  0
LINE
  5
3CA
330
1F
100
AcDbEntity
  8
100
  6
Continuous
 62
     7
370
    30
100
AcDbLine
 10
83.08906469452248
 20
42.54136674859552
 30
0.0
 11
82.44453344452248
 21
42.98081987359552
 31
0.0
  0
LINE
  5
3CB
330
1F
100
AcDbEntity
  8
100
  6
Continuous
 62
     7
370
    30
100
AcDbLine
 10
84.72968969452248
 20
41.39878862359552
 30
0.0
 11
83.08906469452248
 21
42.54136674859552
 31
0.0
  0
LINE
  5
3CC
330
1F
100
AcDbEntity
  8
100
  6
Continuous
 62
     7
370
    30
100
AcDbLine
 10
85.78437719452248
 20
40.31480424859552
 30
0.0
 11
84.72968969452248
 21
41.39878862359552
 31
0.0
  0
LINE
  5
3CD
330
1F
100
AcDbEntity
  8
100
  6
Continuous
 62
     7
370
    30
100
AcDbLine
 10
86.66328344452248
 20
38.82066362359552
 30
0.0
 11
85.78437719452248
 21
40.31480424859552
 31
0.0
  0
LINE
  5
3CE
330
1F
100
AcDbEntity
  8
100
  6
Continuous
 62
     7
370
    30
100
AcDbLine
 10
86.72187719452248
 20
35.42222612359552
 30
0.0
 11
86.66328344452248
 21
38.82066362359552
 31
0.0
  0
LINE
  5
3CF
330
1F
100
AcDbEntity
  8
100
  6
Continuous
 62
     7
370
    30
100
AcDbLine
 10
86.42890844452248
 20
34.57261674859552
 30
0.0
 11
86.72187719452248
 21
35.42222612359552
 31
0.0
  0
LINE
  5
3D0
330
1F
100
AcDbEntity
  8
100
  6
Continuous
 62
     7
370
    30
100
AcDbLine
 10
84.75898656952248
 20
32.69761674859552
 30
0.0
 11
86.42890844452248
 21
34.57261674859552
 31
0.0
  0
LINE
  5
3D1
330
1F
100
AcDbEntity
  8
100
  6
Continuous
 62
     7
370
    30
100
AcDbLine
 10
82.18086156952248
 20
30.82261674859552
 30
0.0
 11
84.75898656952248
 21
32.69761674859552
 31
0.0
  0
LINE
  5
3D2
330
1F
100
AcDbEntity
  8
100
  6
Continuous
 62
     7
370
    30
100
AcDbLine
 10
76.26289281952248
 20
27.98081987359552
 30
0.0
 11
82.18086156952248
 21
30.82261674859552
 31
0.0
  0
LINE
  5
3D3
330
1F
100
AcDbEntity
  8
100
  6
Continuous
 62
     7
370
    30
100
AcDbLine
 10
71.69258031952248
 20
26.63316362359552
 30
0.0
 11
76.26289281952248
 21
27.98081987359552
 31
0.0
  0
LINE
  5
3D4
330
1F
100
AcDbEntity
  8
100
  6
Continuous
 62
     7
370
    30
100
AcDbLine
 10
64.83711156952248
 20
25.54917924859552
 30
0.0
 11
71.69258031952248
 21
26.63316362359552
 31
0.0
  0
LINE
  5
3D5
330
1F
100
AcDbEntity
  8
100
  6
Continuous
 62
     7
370
    30
100
AcDbLine
 10
59.12422094452247
 20
24.99253862359552
 30
0.0
 11
64.83711156952248
 21
25.54917924859552
 31
0.0
  0
LINE
  5
3D6
330
1F
100
AcDbEntity
  8
100
  6
Continuous
 62
     7
370
    30
100
AcDbLine
 10
50.77461156952247
 20
24.58238237359552
 30
0.0
 11
59.12422094452247
 21
24.99253862359552
 31
0.0
  0
LINE
  5
3D7
330
1F
100
AcDbEntity
  8
100
  6
Continuous
 62
     7
370
    30
100
AcDbLine
 10
43.47968969452247
 20
24.64097612359552
 30
0.0
 11
50.77461156952247
 21
24.58238237359552
 31
0.0
  0
LINE
  5
3D8
330
1F
100
AcDbEntity
  8
100
  6
Continuous
 62
     7
370
    30
100
AcDbLine
 10
35.56953344452247
 20
25.19761674859552
 30
0.0
 11
43.47968969452247
 21
24.64097612359552
 31
0.0
  0
LINE
  5
3D9
330
1F
100
AcDbEntity
  8
100
  6
Continuous
 62
     7
370
    30
100
AcDbLine
 10
28.62617406952247
 20
26.13511674859552
 30
0.0
 11
35.56953344452247
 21
25.19761674859552
 31
0.0
  0
LINE
  5
3DA
330
1F
100
AcDbEntity
  8
100
  6
Continuous
 62
     7
370
    30
100
AcDbLine
 10
22.38593969452247
 20
27.42417924859552
 30
0.0
 11
28.62617406952247
 21
26.13511674859552
 31
0.0
  0
LINE
  5
3DB
330
1F
100
AcDbEntity
  8
100
  6
Continuous
 62
     7
370
    30
100
AcDbLine
 10
17.43476781952247
 20
29.03550737359552
 30
0.0
 11
22.38593969452247
 21
27.42417924859552
 31
0.0
  0
LINE
  5
3DC
330
1F
100
AcDbEntity
  8
100
  6
Continuous
 62
     7
370
    30
100
AcDbLine
 10
14.12422094452247
 20
30.73472612359552
 30
0.0
 11
17.43476781952247
 21
29.03550737359552
 31
0.0
  0
LINE
  5
3DD
330
1F
100
AcDbEntity
  8
100
  6
Continuous
 62
     7
370
    30
100
AcDbLine
 10
11.92695531952247
 20
32.28746049859552
 30
0.0
 11
14.12422094452247
 21
30.73472612359552
 31
0.0
  0
LINE
  5
3DE
330
1F
100
AcDbEntity
  8
100
  6
Continuous
 62
     7
370
    30
100
AcDbLine
 10
9.23164281952247
 20
34.71910112359552
 30
0.0
 11
11.92695531952247
 21
32.28746049859552
 31
0.0
  0
LINE
  5
3DF
330
1F
100
AcDbEntity
  8
100
  6
Continuous
 62
     7
370
    30
100
AcDbLine
 10
8.11836156952247
 20
36.24253862359552
 30
0.0
 11
9.23164281952247
 21
34.71910112359552
 31
0.0
  0
LINE
  5
3E0
330
1F
100
AcDbEntity
  8
100
  6
Continuous
 62
     7
370
    30
100
AcDbLine
 10
8.00117406952247
 20
38.93785112359552
 30
0.0
 11
8.11836156952247
 21
36.24253862359552
 31
0.0
  0
LINE
  5
3E1
330
1F
100
AcDbEntity
  8
100
  6
Continuous
 62
     7
370
    30
100
AcDbLine
 10
8.35273656952247
 20
40.66636674859552
 30
0.0
 11
8.00117406952247
 21
38.93785112359552
 31
0.0
  0
LINE
  5
3E2
330
1F
100
AcDbEntity
  8
100
  6
Continuous
 62
     7
370
    30
100
AcDbLine
 10
9.43672094452247
 20
41.95542924859552
 30
0.0
 11
8.35273656952247
 21
40.66636674859552
 31
0.0
  0
LINE
  5
3E3
330
1F
100
AcDbEntity
  8
100
  6
Continuous
 62
     7
370
    30
100
AcDbLine
 10
11.75117406952247
 20
43.50816362359552
 30
0.0
 11
9.43672094452247
 21
41.95542924859552
 31
0.0
  0
LINE
  5
3E4
330
1F
100
AcDbEntity
  8
100
  6
Continuous
 62
     7
370
    30
100
AcDbLine
 10
13.53828344452247
 20
44.38706987359552
 30
0.0
 11
11.75117406952247
 21
43.50816362359552
 31
0.0
  0
LINE
  5
3E5
330
1F
100
AcDbEntity
  8
100
  6
Continuous
 62
     7
370
    30
100
AcDbLine
 10
15.14961156952247
 20
45.26597612359552
 30
0.0
 11
13.53828344452247
 21
44.38706987359552
 31
0.0
  0
LINE
  5
3E6
330
1F
100
AcDbEntity
  8
100
  6
Continuous
 62
     7
370
    30
100
AcDbLine
 10
16.58515844452247
 20
43.50816362359552
 30
0.0
 11
17.27141305301966
 21
43.64501953125001
 31
0.0
  0
LINE
  5
3E7
330
1F
100
AcDbEntity
  8
100
  6
Continuous
 62
     7
370
    30
100
AcDbLine
 10
15.50117406952247
 20
43.53746049859552
 30
0.0
 11
16.58515844452247
 21
43.50816362359552
 31
0.0
  0
LINE
  5
3E8
330
1F
100
AcDbEntity
  8
100
  6
Continuous
 62
     7
370
    30
100
AcDbLine
 10
14.88593969452247
 20
43.94761674859552
 30
0.0
 11
15.50117406952247
 21
43.53746049859552
 31
0.0
  0
LINE
  5
3E9
330
1F
100
AcDbEntity
  8
100
  6
Continuous
 62
     7
370
    30
100
AcDbLine
 10
15.14961156952247
 20
45.26597612359552
 30
0.0
 11
14.88593969452247
 21
43.94761674859552
 31
0.0
  0
LINE
  5
3EA
330
1F
100
AcDbEntity
  8
100
  6
Continuous
 62
     7
370
    30
100
AcDbLine
 10
15.33523858676126
 20
57.59557417703827
 30
0.0
 11
15.14961156952247
 21
45.26597612359552
 31
0.0
  0
LINE
  5
3EB
330
1F
100
AcDbEntity
  8
100
  6
Continuous
 62
     7
370
    30
100
AcDbLine
 10
17.66914281952247
 20
42.70249956109552
 30
0.0
 11
17.63252172577247
 21
43.70591752984552
 31
0.0
  0
LINE
  5
3EC
330
1F
100
AcDbEntity
  8
100
  6
Continuous
 62
     7
370
    30
100
AcDbLine
 10
17.71308813202247
 20
42.17515581109552
 30
0.0
 11
17.66914281952247
 21
42.70249956109552
 31
0.0
  0
LINE
  5
3ED
330
1F
100
AcDbEntity
  8
100
  6
Continuous
 62
     7
370
    30
100
AcDbLine
 10
18.26972875702247
 20
41.14976518609552
 30
0.0
 11
17.71308813202247
 21
42.17515581109552
 31
0.0
  0
LINE
  5
3EE
330
1F
100
AcDbEntity
  8
100
  6
Continuous
 62
     7
370
    30
100
AcDbLine
 10
19.11933813202247
 20
40.00718706109552
 30
0.0
 11
18.26972875702247
 21
41.14976518609552
 31
0.0
  0
LINE
  5
3EF
330
1F
100
AcDbEntity
  8
100
  6
Continuous
 62
     7
370
    30
100
AcDbLine
 10
20.96504125702247
 20
38.68882768609552
 30
0.0
 11
19.11933813202247
 21
40.00718706109552
 31
0.0
  0
LINE
  5
3F0
330
1F
100
AcDbEntity
  8
100
  6
Continuous
 62
     7
370
    30
100
AcDbLine
 10
23.83613500702247
 20
37.54624956109552
 30
0.0
 11
20.96504125702247
 21
38.68882768609552
 31
0.0
  0
LINE
  5
3F1
330
1F
100
AcDbEntity
  8
100
  6
Continuous
 62
     7
370
    30
100
AcDbLine
 10
28.14277563202247
 20
36.43296831109552
 30
0.0
 11
23.83613500702247
 21
37.54624956109552
 31
0.0
  0
LINE
  5
3F2
330
1F
100
AcDbEntity
  8
100
  6
Continuous
 62
     7
370
    30
100
AcDbLine
 10
32.39082250702247
 20
35.61265581109552
 30
0.0
 11
28.14277563202247
 21
36.43296831109552
 31
0.0
  0
LINE
  5
3F3
330
1F
100
AcDbEntity
  8
100
  6
Continuous
 62
     7
370
    30
100
AcDbLine
 10
37.01972875702247
 20
35.26109331109552
 30
0.0
 11
35.46699438202247
 21
35.37828081109552
 31
0.0
  0
LINE
  5
3F4
330
1F
100
AcDbEntity
  8
100
  6
Continuous
 62
     7
370
    30
100
AcDbLine
 10
43.17207250702247
 20
34.90953081109552
 30
0.0
 11
37.01972875702247
 21
35.26109331109552
 31
0.0
  0
LINE
  5
3F5
330
1F
100
AcDbEntity
  8
100
  6
Continuous
 62
     7
370
    30
100
AcDbLine
 10
50.34980688202247
 20
34.93882768609552
 30
0.0
 11
43.17207250702247
 21
34.90953081109552
 31
0.0
  0
LINE
  5
3F6
330
1F
100
AcDbEntity
  8
100
  6
Continuous
 62
     7
370
    30
100
AcDbLine
 10
57.76191625702247
 20
35.26109331109552
 30
0.0
 11
50.34980688202247
 21
34.93882768609552
 31
0.0
  0
LINE
  5
3F7
330
1F
100
AcDbEntity
  8
100
  6
Continuous
 62
     7
370
    30
100
AcDbLine
 10
63.12324438202247
 20
35.78843706109552
 30
0.0
 11
57.76191625702247
 21
35.26109331109552
 31
0.0
  0
LINE
  5
3F8
330
1F
100
AcDbEntity
  8
100
  6
Continuous
 62
     7
370
    30
100
AcDbLine
 10
67.45918188202248
 20
36.55015581109552
 30
0.0
 11
63.12324438202247
 21
35.78843706109552
 31
0.0
  0
LINE
  5
3F9
330
1F
100
AcDbEntity
  8
100
  6
Continuous
 62
     7
370
    30
100
AcDbLine
 10
70.27168188202248
 20
37.31187456109552
 30
0.0
 11
67.45918188202248
 21
36.55015581109552
 31
0.0
  0
LINE
  5
3FA
330
1F
100
AcDbEntity
  8
100
  6
Continuous
 62
     7
370
    30
100
AcDbLine
 10
73.69941625702248
 20
38.95249956109552
 30
0.0
 11
70.27168188202248
 21
37.31187456109552
 31
0.0
  0
LINE
  5
3FB
330
1F
100
AcDbEntity
  8
100
  6
Continuous
 62
     7
370
    30
100
AcDbLine
 10
75.55976781952248
 20
40.41734331109552
 30
0.0
 11
73.69941625702248
 21
38.95249956109552
 31
0.0
  0
LINE
  5
3FC
330
1F
100
AcDbEntity
  8
100
  6
Continuous
 62
     7
370
    30
100
AcDbLine
 10
76.51191625702248
 20
41.39878862359552
 30
0.0
 11
75.55976781952248
 21
40.41734331109552
 31
0.0
  0
LINE
  5
3FD
330
1F
100
AcDbEntity
  8
100
  6
Continuous
 62
     7
370
    30
100
AcDbLine
 10
77.22968969452248
 20
42.83433549859552
 30
0.0
 11
76.51191625702248
 21
41.39878862359552
 31
0.0
  0
LINE
  5
3FE
330
1F
100
AcDbEntity
  8
100
  6
Continuous
 62
     7
370
    30
100
AcDbLine
 10
59.91523656952247
 20
37.97105424859552
 30
0.0
 11
55.08125219452247
 21
37.47300737359552
 31
0.0
  0
LINE
  5
3FF
330
1F
100
AcDbEntity
  8
100
  6
Continuous
 62
     7
370
    30
100
AcDbLine
 10
65.92109594452248
 20
38.99644487359552
 30
0.0
 11
59.91523656952247
 21
37.97105424859552
 31
0.0
  0
LINE
  5
400
330
1F
100
AcDbEntity
  8
100
  6
Continuous
 62
     7
370
    30
100
AcDbLine
 10
69.58320531952248
 20
39.90464799859552
 30
0.0
 11
65.92109594452248
 21
38.99644487359552
 31
0.0
  0
LINE
  5
401
330
1F
100
AcDbEntity
  8
100
  6
Continuous
 62
     7
370
    30
100
AcDbLine
 10
73.74336156952248
 20
41.48667924859552
 30
0.0
 11
69.58320531952248
 21
39.90464799859552
 31
0.0
  0
LINE
  5
402
330
1F
100
AcDbEntity
  8
100
  6
Continuous
 62
     7
370
    30
100
AcDbLine
 10
76.40937719452248
 20
42.89292924859552
 30
0.0
 11
73.74336156952248
 21
41.48667924859552
 31
0.0
  0
LINE
  5
403
330
1F
100
AcDbEntity
  8
100
  6
Continuous
 62
     7
370
    30
100
AcDbLine
 10
77.22968969452248
 20
42.83433549859552
 30
0.0
 11
77.78921886454148
 21
55.43059461851215
 31
0.0
  0
LINE
  5
404
330
1F
100
AcDbEntity
  8
100
  6
Continuous
 62
     7
370
    30
100
AcDbLine
 10
76.05781469452248
 20
41.36949174859552
 30
0.0
 11
77.22968969452248
 21
42.83433549859552
 31
0.0
  0
LINE
  5
405
330
1F
100
AcDbEntity
  8
100
  6
Continuous
 62
     7
370
    30
100
AcDbLine
 10
74.41718969452248
 20
40.31480424859552
 30
0.0
 11
76.05781469452248
 21
41.36949174859552
 31
0.0
  0
LINE
  5
406
330
1F
100
AcDbEntity
  8
100
  6
Continuous
 62
     7
370
    30
100
AcDbLine
 10
70.02265844452248
 20
38.90855424859552
 30
0.0
 11
74.41718969452248
 21
40.31480424859552
 31
0.0
  0
LINE
  5
407
330
1F
100
AcDbEntity
  8
100
  6
Continuous
 62
     7
370
    30
100
AcDbLine
 10
60.23750219452247
 20
37.03355424859552
 30
0.0
 11
70.02265844452248
 21
38.90855424859552
 31
0.0
  0
LINE
  5
408
330
1F
100
AcDbEntity
  8
100
  6
Continuous
 62
     7
370
    30
100
AcDbLine
 10
53.79218969452247
 20
36.62339799859552
 30
0.0
 11
60.23750219452247
 21
37.03355424859552
 31
0.0
  0
LINE
  5
409
330
1F
100
AcDbEntity
  8
100
  6
Continuous
 62
     7
370
    30
100
AcDbLine
 10
43.94843969452247
 20
36.44761674859552
 30
0.0
 11
53.79218969452247
 21
36.62339799859552
 31
0.0
  0
LINE
  5
40A
330
1F
100
AcDbEntity
  8
100
  6
Continuous
 62
     7
370
    30
100
AcDbLine
 10
35.51093969452247
 20
37.32652299859552
 30
0.0
 11
43.94843969452247
 21
36.44761674859552
 31
0.0
  0
LINE
  5
40B
330
1F
100
AcDbEntity
  8
100
  6
Continuous
 62
     7
370
    30
100
AcDbLine
 10
17.33955297577247
 20
43.94029252984552
 30
0.0
 11
17.60160471567595
 21
44.32840787708321
 31
0.0
  0
LINE
  5
40C
330
1F
100
AcDbEntity
  8
100
  6
Continuous
 62
     7
370
    30
100
AcDbLine
 10
17.60322485077247
 20
44.11607377984552
 30
0.0
 11
17.50600401080432
 21
56.85778854895381
 31
0.0
  0
LINE
  5
40D
330
1F
100
AcDbEntity
  8
100
  6
Continuous
 62
     7
370
    30
100
AcDbLine
 10
17.63252172577247
 20
43.70591752984552
 30
0.0
 11
17.60322485077247
 21
44.11607377984552
 31
0.0
  0
LINE
  5
40E
330
1F
100
AcDbEntity
  8
100
  6
Continuous
 62
     7
370
    30
100
AcDbLine
 10
18.04267797577247
 20
42.85630815484552
 30
0.0
 11
17.63252172577247
 21
43.70591752984552
 31
0.0
  0
LINE
  5
40F
330
1F
100
AcDbEntity
  8
100
  6
Continuous
 62
     7
370
    30
100
AcDbLine
 10
18.98017797577247
 20
41.97740190484552
 30
0.0
 11
18.04267797577247
 21
42.85630815484552
 31
0.0
  0
LINE
  5
410
330
1F
100
AcDbEntity
  8
100
  6
Continuous
 62
     7
370
    30
100
AcDbLine
 10
20.91377172577247
 20
40.68833940484552
 30
0.0
 11
18.98017797577247
 21
41.97740190484552
 31
0.0
  0
LINE
  5
411
330
1F
100
AcDbEntity
  8
100
  6
Continuous
 62
     7
370
    30
100
AcDbLine
 10
23.66767797577247
 20
39.60435502984552
 30
0.0
 11
20.91377172577247
 21
40.68833940484552
 31
0.0
  0
LINE
  5
412
330
1F
100
AcDbEntity
  8
100
  6
Continuous
 62
     7
370
    30
100
AcDbLine
 10
27.91572485077247
 20
38.52037065484552
 30
0.0
 11
23.66767797577247
 21
39.60435502984552
 31
0.0
  0
LINE
  5
413
330
1F
100
AcDbEntity
  8
100
  6
Continuous
 62
     7
370
    30
100
AcDbLine
 10
32.45674047577247
 20
37.78794877984552
 30
0.0
 11
27.91572485077247
 21
38.52037065484552
 31
0.0
  0
LINE
  5
414
330
1F
100
AcDbEntity
  8
100
  6
Continuous
 62
     7
370
    30
100
AcDbLine
 10
30.81611547577247
 20
34.44810502984552
 30
0.0
 11
32.42744360077247
 21
34.15513627984552
 31
0.0
  0
LINE
  5
415
330
1F
100
AcDbEntity
  8
100
  6
Continuous
 62
     7
370
    30
100
AcDbLine
 10
27.30049047577247
 20
35.20982377984552
 30
0.0
 11
30.81611547577247
 21
34.44810502984552
 31
0.0
  0
LINE
  5
416
330
1F
100
AcDbEntity
  8
100
  6
Continuous
 62
     7
370
    30
100
AcDbLine
 10
23.57978735077247
 20
36.23521440484552
 30
0.0
 11
27.30049047577247
 21
35.20982377984552
 31
0.0
  0
LINE
  5
417
330
1F
100
AcDbEntity
  8
100
  6
Continuous
 62
     7
370
    30
100
AcDbLine
 10
19.62470922577247
 20
37.99302690484552
 30
0.0
 11
23.57978735077247
 21
36.23521440484552
 31
0.0
  0
LINE
  5
418
330
1F
100
AcDbEntity
  8
100
  6
Continuous
 62
     7
370
    30
100
AcDbLine
 10
17.92549047577247
 20
39.16490190484552
 30
0.0
 11
19.62470922577247
 21
37.99302690484552
 31
0.0
  0
LINE
  5
419
330
1F
100
AcDbEntity
  8
100
  6
Continuous
 62
     7
370
    30
100
AcDbLine
 10
17.07588110077247
 20
40.68833940484552
 30
0.0
 11
17.92549047577247
 21
39.16490190484552
 31
0.0
  0
LINE
  5
41A
330
1F
100
AcDbEntity
  8
100
  6
Continuous
 62
     7
370
    30
100
AcDbLine
 10
17.01728735077247
 20
41.74302690484552
 30
0.0
 11
17.07588110077247
 21
40.68833940484552
 31
0.0
  0
LINE
  5
41B
330
1F
100
AcDbEntity
  8
100
  6
Continuous
 62
     7
370
    30
100
AcDbLine
 10
17.07588110077247
 20
42.79771440484552
 30
0.0
 11
17.01728735077247
 21
41.74302690484552
 31
0.0
  0
LINE
  5
41C
330
1F
100
AcDbEntity
  8
100
  6
Continuous
 62
     7
370
    30
100
AcDbLine
 10
17.33955297577247
 20
43.94029252984552
 30
0.0
 11
17.07588110077247
 21
42.79771440484552
 31
0.0
  0
LINE
  5
41D
330
1F
100
AcDbEntity
  8
100
  6
Continuous
 62
     7
370
    30
100
AcDbLine
 10
17.50600401080432
 20
56.85778854895381
 30
0.0
 11
17.33955297577247
 21
43.94029252984552
 31
0.0
  0
LINE
  5
41E
330
1F
100
AcDbEntity
  8
100
  6
Continuous
 62
     7
370
    30
100
AcDbLine
 10
84.10713110077248
 20
63.39341752984552
 30
0.0
 11
82.83983920960867
 21
64.30551006756104
 31
0.0
  0
LINE
  5
41F
330
1F
100
AcDbEntity
  8
100
  6
Continuous
 62
     7
370
    30
100
AcDbLine
 10
84.66377172577248
 20
62.74888627984552
 30
0.0
 11
84.10713110077248
 21
63.39341752984552
 31
0.0
  0
LINE
  5
420
330
1F
100
AcDbEntity
  8
100
  6
Continuous
 62
     7
370
    30
100
AcDbLine
 10
85.22041235077248
 20
62.07505815484552
 30
0.0
 11
84.66377172577248
 21
62.74888627984552
 31
0.0
  0
LINE
  5
421
330
1F
100
AcDbEntity
  8
100
  6
Continuous
 62
     7
370
    30
100
AcDbLine
 10
85.48408422577248
 20
61.02037065484552
 30
0.0
 11
85.22041235077248
 21
62.07505815484552
 31
0.0
  0
LINE
  5
422
330
1F
100
AcDbEntity
  8
100
  6
Continuous
 62
     7
370
    30
100
AcDbLine
 10
85.22041235077248
 20
59.73130815484552
 30
0.0
 11
85.48408422577248
 21
61.02037065484552
 31
0.0
  0
LINE
  5
423
330
1F
100
AcDbEntity
  8
100
  6
Continuous
 62
     7
370
    30
100
AcDbLine
 10
84.31220922577248
 20
58.44224565484552
 30
0.0
 11
85.22041235077248
 21
59.73130815484552
 31
0.0
  0
LINE
  5
424
330
1F
100
AcDbEntity
  8
100
  6
Continuous
 62
     7
370
    30
100
AcDbLine
 10
81.99775610077248
 20
56.88951127984552
 30
0.0
 11
84.31220922577248
 21
58.44224565484552
 31
0.0
  0
LINE
  5
425
330
1F
100
AcDbEntity
  8
100
  6
Continuous
 62
     7
370
    30
100
AcDbLine
 10
78.27705297577248
 20
55.54185502984552
 30
0.0
 11
81.99775610077248
 21
56.88951127984552
 31
0.0
  0
LINE
  5
426
330
1F
100
AcDbEntity
  8
100
  6
Continuous
 62
     7
370
    30
100
AcDbLine
 10
71.59736547577248
 20
54.01841752984552
 30
0.0
 11
78.27705297577248
 21
55.54185502984552
 31
0.0
  0
LINE
  5
427
330
1F
100
AcDbEntity
  8
100
  6
Continuous
 62
     7
370
    30
100
AcDbLine
 10
65.65009985077248
 20
53.34458940484552
 30
0.0
 11
71.59736547577248
 21
54.01841752984552
 31
0.0
  0
LINE
  5
428
330
1F
100
AcDbEntity
  8
100
  6
Continuous
 62
     7
370
    30
100
AcDbLine
 10
58.70674047577247
 20
52.96373002984552
 30
0.0
 11
65.65009985077248
 21
53.34458940484552
 31
0.0
  0
LINE
  5
429
330
1F
100
AcDbEntity
  8
100
  6
Continuous
 62
     7
370
    30
100
AcDbLine
 10
52.73017797577247
 20
52.81724565484552
 30
0.0
 11
58.70674047577247
 21
52.96373002984552
 31
0.0
  0
LINE
  5
42A
330
1F
100
AcDbEntity
  8
100
  6
Continuous
 62
     7
370
    30
100
AcDbLine
 10
45.05439672577247
 20
53.05162065484552
 30
0.0
 11
52.73017797577247
 21
52.81724565484552
 31
0.0
  0
LINE
  5
42B
330
1F
100
AcDbEntity
  8
100
  6
Continuous
 62
     7
370
    30
100
AcDbLine
 10
37.20283422577247
 20
53.60826127984552
 30
0.0
 11
45.05439672577247
 21
53.05162065484552
 31
0.0
  0
LINE
  5
42C
330
1F
100
AcDbEntity
  8
100
  6
Continuous
 62
     7
370
    30
100
AcDbLine
 10
34.09736547577247
 20
53.95982377984552
 30
0.0
 11
37.20283422577247
 21
53.60826127984552
 31
0.0
  0
LINE
  5
42D
330
1F
100
AcDbEntity
  8
100
  6
Continuous
 62
     7
370
    30
100
AcDbLine
 10
29.38056860077247
 20
54.39927690484552
 30
0.0
 11
34.09736547577247
 21
53.95982377984552
 31
0.0
  0
LINE
  5
42E
330
1F
100
AcDbEntity
  8
100
  6
Continuous
 62
     7
370
    30
100
AcDbLine
 10
24.57588110077247
 20
55.04380815484552
 30
0.0
 11
29.38056860077247
 21
54.39927690484552
 31
0.0
  0
LINE
  5
42F
330
1F
100
AcDbEntity
  8
100
  6
Continuous
 62
     7
370
    30
100
AcDbLine
 10
19.88838110077247
 20
56.15708940484552
 30
0.0
 11
24.57588110077247
 21
55.04380815484552
 31
0.0
  0
LINE
  5
430
330
1F
100
AcDbEntity
  8
100
  6
Continuous
 62
     7
370
    30
100
AcDbLine
 10
15.90400610077247
 20
57.32896440484552
 30
0.0
 11
19.88838110077247
 21
56.15708940484552
 31
0.0
  0
LINE
  5
431
330
1F
100
AcDbEntity
  8
100
  6
Continuous
 62
     7
370
    30
100
AcDbLine
 10
13.09150610077247
 20
58.64732377984552
 30
0.0
 11
15.90400610077247
 21
57.32896440484552
 31
0.0
  0
LINE
  5
432
330
1F
100
AcDbEntity
  8
100
  6
Continuous
 62
     7
370
    30
100
AcDbLine
 10
11.27509985077247
 20
59.87779252984552
 30
0.0
 11
13.09150610077247
 21
58.64732377984552
 31
0.0
  0
LINE
  5
433
330
1F
100
AcDbEntity
  8
100
  6
Continuous
 62
     7
370
    30
100
AcDbLine
 10
9.98603735077247
 20
61.34263627984552
 30
0.0
 11
11.27509985077247
 21
59.87779252984552
 31
0.0
  0
LINE
  5
434
330
1F
100
AcDbEntity
  8
100
  6
Continuous
 62
     7
370
    30
100
AcDbLine
 10
9.78095922577247
 20
62.77818315484552
 30
0.0
 11
9.98603735077247
 21
61.34263627984552
 31
0.0
  0
LINE
  5
435
330
1F
100
AcDbEntity
  8
100
  6
Continuous
 62
     7
370
    30
100
AcDbLine
 10
10.13252172577247
 20
64.00865190484552
 30
0.0
 11
9.78095922577247
 21
62.77818315484552
 31
0.0
  0
LINE
  5
436
330
1F
100
AcDbEntity
  8
100
  6
Continuous
 62
     7
370
    30
100
AcDbLine
 10
11.04072485077247
 20
64.85826127984552
 30
0.0
 11
10.13252172577247
 21
64.00865190484552
 31
0.0
  0
LINE
  5
437
330
1F
100
AcDbEntity
  8
100
  6
Continuous
 62
     7
370
    30
100
AcDbLine
 10
13.23799047577247
 20
66.23521440484552
 30
0.0
 11
11.04072485077247
 21
64.85826127984552
 31
0.0
  0
LINE
  5
438
330
1F
100
AcDbEntity
  8
100
  6
Continuous
 62
     7
370
    30
100
AcDbLine
 10
15.96259985077247
 20
67.33384721734552
 30
0.0
 11
13.23799047577247
 21
66.23521440484552
 31
0.0
  0
LINE
  5
439
330
1F
100
AcDbEntity
  8
100
  6
Continuous
 62
     7
370
    30
100
AcDbLine
 10
15.55244360077247
 20
64.27232377984552
 30
0.0
 11
16.13838110077247
 21
64.16978471734552
 31
0.0
  0
LINE
  5
43A
330
1F
100
AcDbEntity
  8
100
  6
Continuous
 62
     7
370
    30
100
AcDbLine
 10
14.87861547577247
 20
64.00865190484552
 30
0.0
 11
15.55244360077247
 21
64.27232377984552
 31
0.0
  0
LINE
  5
43B
330
1F
100
AcDbEntity
  8
100
  6
Continuous
 62
     7
370
    30
100
AcDbLine
 10
13.58955297577247
 20
63.39341752984552
 30
0.0
 11
14.87861547577247
 21
64.00865190484552
 31
0.0
  0
LINE
  5
43C
330
1F
100
AcDbEntity
  8
100
  6
Continuous
 62
     7
370
    30
100
AcDbLine
 10
13.09150610077247
 20
62.86607377984552
 30
0.0
 11
13.58955297577247
 21
63.39341752984552
 31
0.0
  0
LINE
  5
43D
330
1F
100
AcDbEntity
  8
100
  6
Continuous
 62
     7
370
    30
100
AcDbLine
 10
13.23799047577247
 20
62.28013627984552
 30
0.0
 11
13.09150610077247
 21
62.86607377984552
 31
0.0
  0
LINE
  5
43E
330
1F
100
AcDbEntity
  8
100
  6
Continuous
 62
     7
370
    30
100
AcDbLine
 10
13.99970922577247
 20
61.69419877984552
 30
0.0
 11
13.23799047577247
 21
62.28013627984552
 31
0.0
  0
LINE
  5
43F
330
1F
100
AcDbEntity
  8
100
  6
Continuous
 62
     7
370
    30
100
AcDbLine
 10
15.31806860077247
 20
61.06431596734552
 30
0.0
 11
13.99970922577247
 21
61.69419877984552
 31
0.0
  0
LINE
  5
440
330
1F
100
AcDbEntity
  8
100
  6
Continuous
 62
     7
370
    30
100
AcDbLine
 10
17.60322485077247
 20
60.41978471734552
 30
0.0
 11
15.31806860077247
 21
61.06431596734552
 31
0.0
  0
LINE
  5
441
330
1F
100
AcDbEntity
  8
100
  6
Continuous
 62
     7
370
    30
100
AcDbLine
 10
24.89814672577247
 20
58.50083940484552
 30
0.0
 11
17.60322485077247
 21
60.41978471734552
 31
0.0
  0
LINE
  5
442
330
1F
100
AcDbEntity
  8
100
  6
Continuous
 62
     7
370
    30
100
AcDbLine
 10
33.62861547577247
 20
57.46080034234552
 30
0.0
 11
24.89814672577247
 21
58.50083940484552
 31
0.0
  0
LINE
  5
443
330
1F
100
AcDbEntity
  8
100
  6
Continuous
 62
     7
370
    30
100
AcDbLine
 10
36.49970922577247
 20
57.22642534234552
 30
0.0
 11
33.62861547577247
 21
57.46080034234552
 31
0.0
  0
LINE
  5
444
330
1F
100
AcDbEntity
  8
100
  6
Continuous
 62
     7
370
    30
100
AcDbLine
 10
39.78095922577247
 20
56.80162065484552
 30
0.0
 11
36.49970922577247
 21
57.22642534234552
 31
0.0
  0
LINE
  5
445
330
1F
100
AcDbEntity
  8
100
  6
Continuous
 62
     7
370
    30
100
AcDbLine
 10
45.58174047577247
 20
56.47935502984552
 30
0.0
 11
39.78095922577247
 21
56.80162065484552
 31
0.0
  0
LINE
  5
446
330
1F
100
AcDbEntity
  8
100
  6
Continuous
 62
     7
370
    30
100
AcDbLine
 10
52.49580297577247
 20
56.45005815484552
 30
0.0
 11
45.58174047577247
 21
56.47935502984552
 31
0.0
  0
LINE
  5
447
330
1F
100
AcDbEntity
  8
100
  6
Continuous
 62
     7
370
    30
100
AcDbLine
 10
59.82002172577247
 20
56.62583940484552
 30
0.0
 11
52.49580297577247
 21
56.45005815484552
 31
0.0
  0
LINE
  5
448
330
1F
100
AcDbEntity
  8
100
  6
Continuous
 62
     7
370
    30
100
AcDbLine
 10
64.09736547577248
 20
56.86021440484552
 30
0.0
 11
59.82002172577247
 21
56.62583940484552
 31
0.0
  0
LINE
  5
449
330
1F
100
AcDbEntity
  8
100
  6
Continuous
 62
     7
370
    30
100
AcDbLine
 10
68.72627172577248
 20
57.29966752984552
 30
0.0
 11
64.09736547577248
 21
56.86021440484552
 31
0.0
  0
LINE
  5
44A
330
1F
100
AcDbEntity
  8
100
  6
Continuous
 62
     7
370
    30
100
AcDbLine
 10
74.49775610077248
 20
58.14927690484552
 30
0.0
 11
68.72627172577248
 21
57.29966752984552
 31
0.0
  0
LINE
  5
44B
330
1F
100
AcDbEntity
  8
100
  6
Continuous
 62
     7
370
    30
100
AcDbLine
 10
77.95478735077248
 20
58.80845659234552
 30
0.0
 11
74.49775610077248
 21
58.14927690484552
 31
0.0
  0
LINE
  5
44C
330
1F
100
AcDbEntity
  8
100
  6
Continuous
 62
     7
370
    30
100
AcDbLine
 10
79.00947485077248
 20
59.13072221734552
 30
0.0
 11
77.95478735077248
 21
58.80845659234552
 31
0.0
  0
LINE
  5
44D
330
1F
100
AcDbEntity
  8
100
  6
Continuous
 62
     7
370
    30
100
AcDbLine
 10
80.18134985077248
 20
59.27720659234552
 30
0.0
 11
79.00947485077248
 21
59.13072221734552
 31
0.0
  0
LINE
  5
44E
330
1F
100
AcDbEntity
  8
100
  6
Continuous
 62
     7
370
    30
100
AcDbLine
 10
81.04560766327248
 20
59.62876909234552
 30
0.0
 11
80.18134985077248
 21
59.27720659234552
 31
0.0
  0
LINE
  5
44F
330
1F
100
AcDbEntity
  8
100
  6
Continuous
 62
     7
370
    30
100
AcDbLine
 10
81.90986547577248
 20
60.56626909234552
 30
0.0
 11
81.04560766327248
 21
59.62876909234552
 31
0.0
  0
LINE
  5
450
330
1F
100
AcDbEntity
  8
100
  6
Continuous
 62
     7
370
    30
100
AcDbLine
 10
82.39326391327248
 20
61.40123002984552
 30
0.0
 11
81.90986547577248
 21
60.56626909234552
 31
0.0
  0
LINE
  5
451
330
1F
100
AcDbEntity
  8
100
  6
Continuous
 62
     7
370
    30
100
AcDbLine
 10
82.37861547577248
 20
61.69419877984552
 30
0.0
 11
82.39326391327248
 21
61.40123002984552
 31
0.0
  0
LINE
  5
452
330
1F
100
AcDbEntity
  8
100
  6
Continuous
 62
     7
370
    30
100
AcDbLine
 10
82.11857399703536
 20
62.03363781012902
 30
0.0
 11
82.37861547577248
 21
61.69419877984552
 31
0.0
  0
LINE
  5
453
330
1F
100
AcDbEntity
  8
100
  6
Continuous
 62
     7
370
    30
100
AcDbLine
 10
78.13793991847467
 20
63.6162114945283
 30
0.0
 11
79.78681572490478
 21
62.93378813880639
 31
0.0
  0
LINE
  5
454
330
1F
100
AcDbEntity
  8
100
  6
Continuous
 62
     7
370
    30
100
AcDbLine
 10
78.18916235077248
 20
66.42564409234552
 30
0.0
 11
80.46088553581615
 21
65.46063829267302
 31
0.0
  0
LINE
  5
455
330
1F
100
AcDbEntity
  8
100
  6
Continuous
 62
     7
370
    30
100
AcDbLine
 10
78.18916235077248
 20
64.96080034234552
 30
0.0
 11
77.95478735077248
 21
58.80845659234552
 31
0.0
  0
LINE
  5
456
330
1F
100
AcDbEntity
  8
100
  6
Continuous
 62
     7
370
    30
100
AcDbLine
 10
78.18916235077248
 20
71.58189409234552
 30
0.0
 11
78.18916235077248
 21
64.96080034234552
 31
0.0
  0
LINE
  5
457
330
1F
100
AcDbEntity
  8
100
  6
Continuous
 62
     7
370
    30
100
AcDbLine
 10
78.48213110077248
 20
79.60923784234552
 30
0.0
 11
78.18916235077248
 21
71.58189409234552
 31
0.0
  0
LINE
  5
458
330
1F
100
AcDbEntity
  8
100
  6
Continuous
 62
     7
370
    30
100
AcDbLine
 10
78.53148655342088
 20
88.07867940639127
 30
0.0
 11
78.48213110077248
 21
79.60923784234552
 31
0.0
  0
LINE
  5
459
330
1F
100
AcDbEntity
  8
100
  6
Continuous
 62
     7
370
    30
100
AcDbLine
 10
82.75947485077248
 20
87.60728471734552
 30
0.0
 11
82.76533422577248
 21
88.70298784234552
 31
0.0
  0
LINE
  5
45A
330
1F
100
AcDbEntity
  8
100
  6
Continuous
 62
     7
370
    30
100
AcDbLine
 10
82.96455297577248
 20
86.99205034234552
 30
0.0
 11
82.75947485077248
 21
87.60728471734552
 31
0.0
  0
LINE
  5
45B
330
1F
100
AcDbEntity
  8
100
  6
Continuous
 62
     7
370
    30
100
AcDbLine
 10
83.31611547577248
 20
85.96665971734552
 30
0.0
 11
82.96455297577248
 21
86.99205034234552
 31
0.0
  0
LINE
  5
45C
330
1F
100
AcDbEntity
  8
100
  6
Continuous
 62
     7
370
    30
100
AcDbLine
 10
83.52119360077248
 20
85.08775346734552
 30
0.0
 11
83.31611547577248
 21
85.96665971734552
 31
0.0
  0
LINE
  5
45D
330
1F
100
AcDbEntity
  8
100
  6
Continuous
 62
     7
370
    30
100
AcDbLine
 10
83.52119360077248
 20
82.18736284234552
 30
0.0
 11
83.52119360077248
 21
85.08775346734552
 31
0.0
  0
LINE
  5
45E
330
1F
100
AcDbEntity
  8
100
  6
Continuous
 62
     7
370
    30
100
AcDbLine
 10
83.28681860077248
 20
72.69517534234552
 30
0.0
 11
83.52119360077248
 21
82.18736284234552
 31
0.0
  0
LINE
  5
45F
330
1F
100
AcDbEntity
  8
100
  6
Continuous
 62
     7
370
    30
100
AcDbLine
 10
82.87666235077248
 20
64.93150346734552
 30
0.0
 11
83.28681860077248
 21
72.69517534234552
 31
0.0
  0
LINE
  5
460
330
1F
100
AcDbEntity
  8
100
  6
Continuous
 62
     7
370
    30
100
AcDbLine
 10
82.81806860077248
 20
63.93540971734552
 30
0.0
 11
82.87666235077248
 21
64.93150346734552
 31
0.0
  0
LINE
  5
461
330
1F
100
AcDbEntity
  8
100
  6
Continuous
 62
     7
370
    30
100
AcDbLine
 10
82.23213110077248
 20
62.52915971734552
 30
0.0
 11
82.81806860077248
 21
63.93540971734552
 31
0.0
  0
LINE
  5
462
330
1F
100
AcDbEntity
  8
100
  6
Continuous
 62
     7
370
    30
100
AcDbLine
 10
81.90986547577248
 20
61.12290971734552
 30
0.0
 11
82.23213110077248
 21
62.52915971734552
 31
0.0
  0
LINE
  5
463
330
1F
100
AcDbEntity
  8
100
  6
Continuous
 62
     7
370
    30
100
AcDbLine
 10
81.90986547577248
 20
60.56626909234552
 30
0.0
 11
81.90986547577248
 21
61.12290971734552
 31
0.0
  0
LINE
  5
464
330
1F
100
AcDbEntity
  8
100
  6
Continuous
 62
     7
370
    30
100
AcDbLine
 10
79.00947485077248
 20
59.71665971734552
 30
0.0
 11
79.00947485077248
 21
59.13072221734552
 31
0.0
  0
LINE
  5
465
330
1F
100
AcDbEntity
  8
100
  6
Continuous
 62
     7
370
    30
100
AcDbLine
 10
79.09736547577248
 20
60.91783159234552
 30
0.0
 11
79.00947485077248
 21
59.71665971734552
 31
0.0
  0
LINE
  5
466
330
1F
100
AcDbEntity
  8
100
  6
Continuous
 62
     7
370
    30
100
AcDbLine
 10
79.65400610077248
 20
62.55845659234552
 30
0.0
 11
79.09736547577248
 21
60.91783159234552
 31
0.0
  0
LINE
  5
467
330
1F
100
AcDbEntity
  8
100
  6
Continuous
 62
     7
370
    30
100
AcDbLine
 10
80.32783422577248
 20
64.46275346734552
 30
0.0
 11
79.65400610077248
 21
62.55845659234552
 31
0.0
  0
LINE
  5
468
330
1F
100
AcDbEntity
  8
100
  6
Continuous
 62
     7
370
    30
100
AcDbLine
 10
80.50361547577248
 20
65.78111284234552
 30
0.0
 11
80.32783422577248
 21
64.46275346734552
 31
0.0
  0
LINE
  5
469
330
1F
100
AcDbEntity
  8
100
  6
Continuous
 62
     7
370
    30
100
AcDbLine
 10
80.67939672577248
 20
70.52720659234552
 30
0.0
 11
80.50361547577248
 21
65.78111284234552
 31
0.0
  0
LINE
  5
46A
330
1F
100
AcDbEntity
  8
100
  6
Continuous
 62
     7
370
    30
100
AcDbLine
 10
80.94306860077248
 20
79.49205034234552
 30
0.0
 11
80.67939672577248
 21
70.52720659234552
 31
0.0
  0
LINE
  5
46B
330
1F
100
AcDbEntity
  8
100
  6
Continuous
 62
     7
370
    30
100
AcDbLine
 10
80.85517797577248
 20
85.32212846734552
 30
0.0
 11
80.94306860077248
 21
79.49205034234552
 31
0.0
  0
LINE
  5
46C
330
1F
100
AcDbEntity
  8
100
  6
Continuous
 62
     7
370
    30
100
AcDbLine
 10
80.38642797577248
 20
86.72837846734552
 30
0.0
 11
80.85517797577248
 21
85.32212846734552
 31
0.0
  0
LINE
  5
46D
330
1F
100
AcDbEntity
  8
100
  6
Continuous
 62
     7
370
    30
100
AcDbLine
 10
80.13849096128507
 20
88.2609459075247
 30
0.0
 11
80.38642797577248
 21
86.72837846734552
 31
0.0
  0
LINE
  5
46E
330
1F
100
AcDbEntity
  8
100
  6
Continuous
 62
     7
370
    30
100
AcDbLine
 10
36.73408422577247
 20
84.50181596734552
 30
0.0
 11
37.1756929378149
 21
87.7290768476492
 31
0.0
  0
LINE
  5
46F
330
1F
100
AcDbEntity
  8
100
  6
Continuous
 62
     7
370
    30
100
AcDbLine
 10
36.58759985077247
 20
82.89048784234552
 30
0.0
 11
36.73408422577247
 21
84.50181596734552
 31
0.0
  0
LINE
  5
470
330
1F
100
AcDbEntity
  8
100
  6
Continuous
 62
     7
370
    30
100
AcDbLine
 10
36.55830297577247
 20
81.36705034234552
 30
0.0
 11
36.58759985077247
 21
82.89048784234552
 31
0.0
  0
LINE
  5
471
330
1F
100
AcDbEntity
  8
100
  6
Continuous
 62
     7
370
    30
100
AcDbLine
 10
36.32392797577247
 20
73.13462846734552
 30
0.0
 11
36.55830297577247
 21
81.36705034234552
 31
0.0
  0
LINE
  5
472
330
1F
100
AcDbEntity
  8
100
  6
Continuous
 62
     7
370
    30
100
AcDbLine
 10
36.11884985077247
 20
64.84361284234552
 30
0.0
 11
36.32392797577247
 21
73.13462846734552
 31
0.0
  0
LINE
  5
473
330
1F
100
AcDbEntity
  8
100
  6
Continuous
 62
     7
370
    30
100
AcDbLine
 10
36.03095922577247
 20
62.20689409234552
 30
0.0
 11
36.11884985077247
 21
64.84361284234552
 31
0.0
  0
LINE
  5
474
330
1F
100
AcDbEntity
  8
100
  6
Continuous
 62
     7
370
    30
100
AcDbLine
 10
36.20674047577247
 20
60.88853471734552
 30
0.0
 11
36.03095922577247
 21
62.20689409234552
 31
0.0
  0
LINE
  5
475
330
1F
100
AcDbEntity
  8
100
  6
Continuous
 62
     7
370
    30
100
AcDbLine
 10
36.26533422577247
 20
59.27720659234552
 30
0.0
 11
36.20674047577247
 21
60.88853471734552
 31
0.0
  0
LINE
  5
476
330
1F
100
AcDbEntity
  8
100
  6
Continuous
 62
     7
370
    30
100
AcDbLine
 10
36.49970922577247
 20
57.22642534234552
 30
0.0
 11
36.26533422577247
 21
59.27720659234552
 31
0.0
  0
LINE
  5
477
330
1F
100
AcDbEntity
  8
100
  6
Continuous
 62
     7
370
    30
100
AcDbLine
 10
33.62861547577247
 20
57.81236284234552
 30
0.0
 11
33.62861547577247
 21
57.46080034234552
 31
0.0
  0
LINE
  5
478
330
1F
100
AcDbEntity
  8
100
  6
Continuous
 62
     7
370
    30
100
AcDbLine
 10
33.27705297577247
 20
59.57017534234552
 30
0.0
 11
33.62861547577247
 21
57.81236284234552
 31
0.0
  0
LINE
  5
479
330
1F
100
AcDbEntity
  8
100
  6
Continuous
 62
     7
370
    30
100
AcDbLine
 10
33.15986547577247
 20
61.41587846734552
 30
0.0
 11
33.27705297577247
 21
59.57017534234552
 31
0.0
  0
LINE
  5
47A
330
1F
100
AcDbEntity
  8
100
  6
Continuous
 62
     7
370
    30
100
AcDbLine
 10
33.10127172577247
 20
62.64634721734552
 30
0.0
 11
33.15986547577247
 21
61.41587846734552
 31
0.0
  0
LINE
  5
47B
330
1F
100
AcDbEntity
  8
100
  6
Continuous
 62
     7
370
    30
100
AcDbLine
 10
33.18916235077247
 20
71.66978471734552
 30
0.0
 11
33.10127172577247
 21
62.64634721734552
 31
0.0
  0
LINE
  5
47C
330
1F
100
AcDbEntity
  8
100
  6
Continuous
 62
     7
370
    30
100
AcDbLine
 10
33.39424047577247
 20
78.43736284234552
 30
0.0
 11
33.18916235077247
 21
71.66978471734552
 31
0.0
  0
LINE
  5
47D
330
1F
100
AcDbEntity
  8
100
  6
Continuous
 62
     7
370
    30
100
AcDbLine
 10
33.57002172577247
 20
82.62681596734552
 30
0.0
 11
33.39424047577247
 21
78.43736284234552
 31
0.0
  0
LINE
  5
47E
330
1F
100
AcDbEntity
  8
100
  6
Continuous
 62
     7
370
    30
100
AcDbLine
 10
33.57002172577247
 20
83.56431596734552
 30
0.0
 11
33.57002172577247
 21
82.62681596734552
 31
0.0
  0
LINE
  5
47F
330
1F
100
AcDbEntity
  8
100
  6
Continuous
 62
     7
370
    30
100
AcDbLine
 10
33.80439672577247
 20
84.97056596734552
 30
0.0
 11
33.57002172577247
 21
83.56431596734552
 31
0.0
  0
LINE
  5
480
330
1F
100
AcDbEntity
  8
100
  6
Continuous
 62
     7
370
    30
100
AcDbLine
 10
33.95088110077247
 20
86.66978471734552
 30
0.0
 11
33.80439672577247
 21
84.97056596734552
 31
0.0
  0
LINE
  5
481
330
1F
100
AcDbEntity
  8
100
  6
Continuous
 62
     7
370
    30
100
AcDbLine
 10
34.18645722390059
 20
87.91914385836048
 30
0.0
 11
33.95088110077247
 21
86.66978471734552
 31
0.0
  0
LINE
  5
482
330
1F
100
AcDbEntity
  8
100
  6
Continuous
 62
     7
370
    30
100
AcDbLine
 10
17.60322485077247
 20
60.41978471734552
 30
0.0
 11
17.92549047577247
 21
89.51158159234552
 31
0.0
  0
LINE
  5
483
330
1F
100
AcDbEntity
  8
100
  6
Continuous
 62
     7
370
    30
100
AcDbLine
 10
16.13838110077247
 20
64.16978471734552
 30
0.0
 11
15.31806860077247
 21
61.06431596734552
 31
0.0
  0
LINE
  5
484
330
1F
100
AcDbEntity
  8
100
  6
Continuous
 62
     7
370
    30
100
AcDbLine
 10
16.31416235077247
 20
65.63462846734552
 30
0.0
 11
16.13838110077247
 21
64.16978471734552
 31
0.0
  0
LINE
  5
485
330
1F
100
AcDbEntity
  8
100
  6
Continuous
 62
     7
370
    30
100
AcDbLine
 10
15.96259985077247
 20
67.33384721734552
 30
0.0
 11
16.31416235077247
 21
65.63462846734552
 31
0.0
  0
LINE
  5
486
330
1F
100
AcDbEntity
  8
100
  6
Continuous
 62
     7
370
    30
100
AcDbLine
 10
15.25947485077247
 20
69.67759721734552
 30
0.0
 11
15.96259985077247
 21
67.33384721734552
 31
0.0
  0
LINE
  5
487
330
1F
100
AcDbEntity
  8
100
  6
Continuous
 62
     7
370
    30
100
AcDbLine
 10
15.08369360077247
 20
72.72447221734552
 30
0.0
 11
15.25947485077247
 21
69.67759721734552
 31
0.0
  0
LINE
  5
488
330
1F
100
AcDbEntity
  8
100
  6
Continuous
 62
     7
370
    30
100
AcDbLine
 10
15.08369360077247
 20
79.99009721734552
 30
0.0
 11
15.08369360077247
 21
72.72447221734552
 31
0.0
  0
LINE
  5
489
330
1F
100
AcDbEntity
  8
100
  6
Continuous
 62
     7
370
    30
100
AcDbLine
 10
15.28611240277701
 20
90.14503232986442
 30
0.0
 11
15.08369360077247
 21
79.99009721734552
 31
0.0
  0
LINE
  5
48A
330
1F
100
AcDbEntity
  8
100
  6
Continuous
 62
     7
370
    30
100
AcDbLine
 10
14.70283422577247
 20
96.71861284234552
 30
0.0
 11
16.14259538261823
 21
96.80789976554743
 31
0.0
  0
LINE
  5
48B
330
1F
100
AcDbEntity
  8
100
  6
Continuous
 62
     7
370
    30
100
AcDbLine
 10
13.32588110077247
 20
96.51353471734552
 30
0.0
 11
14.70283422577247
 21
96.71861284234552
 31
0.0
  0
LINE
  5
48C
330
1F
100
AcDbEntity
  8
100
  6
Continuous
 62
     7
370
    30
100
AcDbLine
 10
11.91963110077247
 20
96.04478471734552
 30
0.0
 11
13.32588110077247
 21
96.51353471734552
 31
0.0
  0
LINE
  5
48D
330
1F
100
AcDbEntity
  8
100
  6
Continuous
 62
     7
370
    30
100
AcDbLine
 10
10.57197485077247
 20
95.22447221734552
 30
0.0
 11
11.91963110077247
 21
96.04478471734552
 31
0.0
  0
LINE
  5
48E
330
1F
100
AcDbEntity
  8
100
  6
Continuous
 62
     7
370
    30
100
AcDbLine
 10
10.04463110077247
 20
94.49205034234552
 30
0.0
 11
10.57197485077247
 21
95.22447221734552
 31
0.0
  0
LINE
  5
48F
330
1F
100
AcDbEntity
  8
100
  6
Continuous
 62
     7
370
    30
100
AcDbLine
 10
9.89814672577247
 20
93.61314409234552
 30
0.0
 11
10.04463110077247
 21
94.49205034234552
 31
0.0
  0
LINE
  5
490
330
1F
100
AcDbEntity
  8
100
  6
Continuous
 62
     7
370
    30
100
AcDbLine
 10
10.04463110077247
 20
92.82212846734552
 30
0.0
 11
9.89814672577247
 21
93.61314409234552
 31
0.0
  0
LINE
  5
491
330
1F
100
AcDbEntity
  8
100
  6
Continuous
 62
     7
370
    30
100
AcDbLine
 10
10.68916235077247
 20
92.03111284234552
 30
0.0
 11
10.04463110077247
 21
92.82212846734552
 31
0.0
  0
LINE
  5
492
330
1F
100
AcDbEntity
  8
100
  6
Continuous
 62
     7
370
    30
100
AcDbLine
 10
11.77314672577247
 20
91.41587846734552
 30
0.0
 11
10.68916235077247
 21
92.03111284234552
 31
0.0
  0
LINE
  5
493
330
1F
100
AcDbEntity
  8
100
  6
Continuous
 62
     7
370
    30
100
AcDbLine
 10
13.03291235077247
 20
90.82994096734552
 30
0.0
 11
11.77314672577247
 21
91.41587846734552
 31
0.0
  0
LINE
  5
494
330
1F
100
AcDbEntity
  8
100
  6
Continuous
 62
     7
370
    30
100
AcDbLine
 10
14.99580297577247
 20
90.21470659234552
 30
0.0
 11
13.03291235077247
 21
90.82994096734552
 31
0.0
  0
LINE
  5
495
330
1F
100
AcDbEntity
  8
100
  6
Continuous
 62
     7
370
    30
100
AcDbLine
 10
17.92549047577247
 20
89.51158159234552
 30
0.0
 11
14.99580297577247
 21
90.21470659234552
 31
0.0
  0
LINE
  5
496
330
1F
100
AcDbEntity
  8
100
  6
Continuous
 62
     7
370
    30
100
AcDbLine
 10
24.07783422577247
 20
88.69126909234552
 30
0.0
 11
17.92549047577247
 21
89.51158159234552
 31
0.0
  0
LINE
  5
497
330
1F
100
AcDbEntity
  8
100
  6
Continuous
 62
     7
370
    30
100
AcDbLine
 10
33.10127172577247
 20
87.98814409234552
 30
0.0
 11
24.07783422577247
 21
88.69126909234552
 31
0.0
  0
LINE
  5
498
330
1F
100
AcDbEntity
  8
100
  6
Continuous
 62
     7
370
    30
100
AcDbLine
 10
38.16963110077247
 20
87.66587846734552
 30
0.0
 11
33.10127172577247
 21
87.98814409234552
 31
0.0
  0
LINE
  5
499
330
1F
100
AcDbEntity
  8
100
  6
Continuous
 62
     7
370
    30
100
AcDbLine
 10
45.66963110077247
 20
87.31431596734552
 30
0.0
 11
38.16963110077247
 21
87.66587846734552
 31
0.0
  0
LINE
  5
49A
330
1F
100
AcDbEntity
  8
100
  6
Continuous
 62
     7
370
    30
100
AcDbLine
 10
55.07392797577247
 20
87.13853471734552
 30
0.0
 11
45.66963110077247
 21
87.31431596734552
 31
0.0
  0
LINE
  5
49B
330
1F
100
AcDbEntity
  8
100
  6
Continuous
 62
     7
370
    30
100
AcDbLine
 10
64.21455297577248
 20
87.19712846734552
 30
0.0
 11
55.07392797577247
 21
87.13853471734552
 31
0.0
  0
LINE
  5
49C
330
1F
100
AcDbEntity
  8
100
  6
Continuous
 62
     7
370
    30
100
AcDbLine
 10
69.69306860077248
 20
87.43150346734552
 30
0.0
 11
64.21455297577248
 21
87.19712846734552
 31
0.0
  0
LINE
  5
49D
330
1F
100
AcDbEntity
  8
100
  6
Continuous
 62
     7
370
    30
100
AcDbLine
 10
75.34736547577248
 20
87.75376909234552
 30
0.0
 11
69.69306860077248
 21
87.43150346734552
 31
0.0
  0
LINE
  5
49E
330
1F
100
AcDbEntity
  8
100
  6
Continuous
 62
     7
370
    30
100
AcDbLine
 10
79.65400610077248
 20
88.19322221734552
 30
0.0
 11
75.34736547577248
 21
87.75376909234552
 31
0.0
  0
LINE
  5
49F
330
1F
100
AcDbEntity
  8
100
  6
Continuous
 62
     7
370
    30
100
AcDbLine
 10
82.37861547577248
 20
88.57408159234552
 30
0.0
 11
79.65400610077248
 21
88.19322221734552
 31
0.0
  0
LINE
  5
4A0
330
1F
100
AcDbEntity
  8
100
  6
Continuous
 62
     7
370
    30
100
AcDbLine
 10
83.78486547577248
 20
89.04283159234552
 30
0.0
 11
82.37861547577248
 21
88.57408159234552
 31
0.0
  0
LINE
  5
4A1
330
1F
100
AcDbEntity
  8
100
  6
Continuous
 62
     7
370
    30
100
AcDbLine
 10
85.68916235077248
 20
89.80455034234552
 30
0.0
 11
83.78486547577248
 21
89.04283159234552
 31
0.0
  0
LINE
  5
4A2
330
1F
100
AcDbEntity
  8
100
  6
Continuous
 62
     7
370
    30
100
AcDbLine
 10
86.18720922577248
 20
90.65415971734552
 30
0.0
 11
85.68916235077248
 21
89.80455034234552
 31
0.0
  0
LINE
  5
4A3
330
1F
100
AcDbEntity
  8
100
  6
Continuous
 62
     7
370
    30
100
AcDbLine
 10
86.36299047577248
 20
91.59165971734552
 30
0.0
 11
86.18720922577248
 21
90.65415971734552
 31
0.0
  0
LINE
  5
4A4
330
1F
100
AcDbEntity
  8
100
  6
Continuous
 62
     7
370
    30
100
AcDbLine
 10
86.04072485077248
 20
92.49986284234552
 30
0.0
 11
86.36299047577248
 21
91.59165971734552
 31
0.0
  0
LINE
  5
4A5
330
1F
100
AcDbEntity
  8
100
  6
Continuous
 62
     7
370
    30
100
AcDbLine
 10
84.98603735077248
 20
93.37876909234552
 30
0.0
 11
86.04072485077248
 21
92.49986284234552
 31
0.0
  0
LINE
  5
4A6
330
1F
100
AcDbEntity
  8
100
  6
Continuous
 62
     7
370
    30
100
AcDbLine
 10
83.15498266327248
 20
94.15513627984552
 30
0.0
 11
84.98603735077248
 21
93.37876909234552
 31
0.0
  0
LINE
  5
4A7
330
1F
100
AcDbEntity
  8
100
  6
Continuous
 62
     7
370
    30
100
AcDbLine
 10
82.20283422577248
 20
91.85533159234552
 30
0.0
 11
82.53974828827248
 21
92.04576127984552
 31
0.0
  0
LINE
  5
4A8
330
1F
100
AcDbEntity
  8
100
  6
Continuous
 62
     7
370
    30
100
AcDbLine
 10
81.11884985077248
 20
91.41587846734552
 30
0.0
 11
82.20283422577248
 21
91.85533159234552
 31
0.0
  0
LINE
  5
4A9
330
1F
100
AcDbEntity
  8
100
  6
Continuous
 62
     7
370
    30
100
AcDbLine
 10
79.84443578827248
 20
91.37193315484552
 30
0.0
 11
81.11884985077248
 21
91.41587846734552
 31
0.0
  0
LINE
  5
4AA
330
1F
100
AcDbEntity
  8
100
  6
Continuous
 62
     7
370
    30
100
AcDbLine
 10
78.61396703827248
 20
91.31333940484552
 30
0.0
 11
79.84443578827248
 21
91.37193315484552
 31
0.0
  0
LINE
  5
4AB
330
1F
100
AcDbEntity
  8
100
  6
Continuous
 62
     7
370
    30
100
AcDbLine
 10
71.91963110077248
 20
91.09361284234552
 30
0.0
 11
78.61396703827248
 21
91.31333940484552
 31
0.0
  0
LINE
  5
4AC
330
1F
100
AcDbEntity
  8
100
  6
Continuous
 62
     7
370
    30
100
AcDbLine
 10
61.69502172577247
 20
90.74205034234552
 30
0.0
 11
71.91963110077248
 21
91.09361284234552
 31
0.0
  0
LINE
  5
4AD
330
1F
100
AcDbEntity
  8
100
  6
Continuous
 62
     7
370
    30
100
AcDbLine
 10
54.37080297577247
 20
90.71275346734552
 30
0.0
 11
61.69502172577247
 21
90.74205034234552
 31
0.0
  0
LINE
  5
4AE
330
1F
100
AcDbEntity
  8
100
  6
Continuous
 62
     7
370
    30
100
AcDbLine
 10
47.42744360077247
 20
90.85923784234552
 30
0.0
 11
54.37080297577247
 21
90.71275346734552
 31
0.0
  0
LINE
  5
4AF
330
1F
100
AcDbEntity
  8
100
  6
Continuous
 62
     7
370
    30
100
AcDbLine
 10
37.45185766327247
 20
91.28404252984552
 30
0.0
 11
47.42744360077247
 21
90.85923784234552
 31
0.0
  0
LINE
  5
4B0
330
1F
100
AcDbEntity
  8
100
  6
Continuous
 62
     7
370
    30
100
AcDbLine
 10
34.43427953827247
 20
91.45982377984552
 30
0.0
 11
37.45185766327247
 21
91.28404252984552
 31
0.0
  0
LINE
  5
4B1
330
1F
100
AcDbEntity
  8
100
  6
Continuous
 62
     7
370
    30
100
AcDbLine
 10
30.69892797577247
 20
91.85533159234552
 30
0.0
 11
34.43427953827247
 21
91.45982377984552
 31
0.0
  0
LINE
  5
4B2
330
1F
100
AcDbEntity
  8
100
  6
Continuous
 62
     7
370
    30
100
AcDbLine
 10
25.22041235077247
 20
92.29478471734552
 30
0.0
 11
30.69892797577247
 21
91.85533159234552
 31
0.0
  0
LINE
  5
4B3
330
1F
100
AcDbEntity
  8
100
  6
Continuous
 62
     7
370
    30
100
AcDbLine
 10
19.96162328827247
 20
92.85142534234552
 30
0.0
 11
25.22041235077247
 21
92.29478471734552
 31
0.0
  0
LINE
  5
4B4
330
1F
100
AcDbEntity
  8
100
  6
Continuous
 62
     7
370
    30
100
AcDbLine
 10
17.94013891327247
 20
93.24693315484552
 30
0.0
 11
19.96162328827247
 21
92.85142534234552
 31
0.0
  0
LINE
  5
4B5
330
1F
100
AcDbEntity
  8
100
  6
Continuous
 62
     7
370
    30
100
AcDbLine
 10
16.09443578827247
 20
93.68638627984552
 30
0.0
 11
17.94013891327247
 21
93.24693315484552
 31
0.0
  0
LINE
  5
4B6
330
1F
100
AcDbEntity
  8
100
  6
Continuous
 62
     7
370
    30
100
AcDbLine
 10
14.95185766327247
 20
93.89146440484552
 30
0.0
 11
16.09443578827247
 21
93.68638627984552
 31
0.0
  0
LINE
  5
4B7
330
1F
100
AcDbEntity
  8
100
  6
Continuous
 62
     7
370
    30
100
AcDbLine
 10
15.46455297577247
 20
93.96470659234552
 30
0.0
 11
14.95185766327247
 21
93.89146440484552
 31
0.0
  0
LINE
  5
4B8
330
1F
100
AcDbEntity
  8
100
  6
Continuous
 62
     7
370
    30
100
AcDbLine
 10
16.13572668592348
 20
93.96509983898983
 30
0.0
 11
15.46455297577247
 21
93.96470659234552
 31
0.0
  0
LINE
  5
4B9
330
1F
100
AcDbEntity
  8
100
  6
Continuous
 62
     7
370
    30
100
AcDbLine
 10
18.46748266327247
 20
98.75474565484552
 30
0.0
 11
18.55490042863522
 21
97.66311854849934
 31
0.0
  0
LINE
  5
4BA
330
1F
100
AcDbEntity
  8
100
  6
Continuous
 62
     7
370
    30
100
AcDbLine
 10
18.40888891327247
 20
100.6297456548455
 30
0.0
 11
18.46748266327247
 21
98.75474565484552
 31
0.0
  0
LINE
  5
4BB
330
1F
100
AcDbEntity
  8
100
  6
Continuous
 62
     7
370
    30
100
AcDbLine
 10
18.43818578827247
 20
103.5301362798455
 30
0.0
 11
18.40888891327247
 21
100.6297456548455
 31
0.0
  0
LINE
  5
4BC
330
1F
100
AcDbEntity
  8
100
  6
Continuous
 62
     7
370
    30
100
AcDbLine
 10
18.87763891327247
 20
106.2254487798455
 30
0.0
 11
18.43818578827247
 21
103.5301362798455
 31
0.0
  0
LINE
  5
4BD
330
1F
100
AcDbEntity
  8
100
  6
Continuous
 62
     7
370
    30
100
AcDbLine
 10
19.58076391327247
 20
109.4481050298455
 30
0.0
 11
18.87763891327247
 21
106.2254487798455
 31
0.0
  0
LINE
  5
4BE
330
1F
100
AcDbEntity
  8
100
  6
Continuous
 62
     7
370
    30
100
AcDbLine
 10
20.63545141327247
 20
112.3484956548455
 30
0.0
 11
19.58076391327247
 21
109.4481050298455
 31
0.0
  0
LINE
  5
4BF
330
1F
100
AcDbEntity
  8
100
  6
Continuous
 62
     7
370
    30
100
AcDbLine
 10
22.10029516327247
 20
115.5418550298455
 30
0.0
 11
20.63545141327247
 21
112.3484956548455
 31
0.0
  0
LINE
  5
4C0
330
1F
100
AcDbEntity
  8
100
  6
Continuous
 62
     7
370
    30
100
AcDbLine
 10
23.97529516327247
 20
118.4715425298455
 30
0.0
 11
22.10029516327247
 21
115.5418550298455
 31
0.0
  0
LINE
  5
4C1
330
1F
100
AcDbEntity
  8
100
  6
Continuous
 62
     7
370
    30
100
AcDbLine
 10
25.64521703827247
 20
120.6395112798455
 30
0.0
 11
23.97529516327247
 21
118.4715425298455
 31
0.0
  0
LINE
  5
4C2
330
1F
100
AcDbEntity
  8
100
  6
Continuous
 62
     7
370
    30
100
AcDbLine
 10
27.46162328827247
 20
122.6316987798455
 30
0.0
 11
25.64521703827247
 21
120.6395112798455
 31
0.0
  0
LINE
  5
4C3
330
1F
100
AcDbEntity
  8
100
  6
Continuous
 62
     7
370
    30
100
AcDbLine
 10
30.15693578827247
 20
124.7703706548455
 30
0.0
 11
27.46162328827247
 21
122.6316987798455
 31
0.0
  0
LINE
  5
4C4
330
1F
100
AcDbEntity
  8
100
  6
Continuous
 62
     7
370
    30
100
AcDbLine
 10
34.25849828827247
 20
127.1434175298455
 30
0.0
 11
30.15693578827247
 21
124.7703706548455
 31
0.0
  0
LINE
  5
4C5
330
1F
100
AcDbEntity
  8
100
  6
Continuous
 62
     7
370
    30
100
AcDbLine
 10
37.94990453827247
 20
128.9891206548455
 30
0.0
 11
34.25849828827247
 21
127.1434175298455
 31
0.0
  0
LINE
  5
4C6
330
1F
100
AcDbEntity
  8
100
  6
Continuous
 62
     7
370
    30
100
AcDbLine
 10
41.96357641327247
 20
130.2195894048455
 30
0.0
 11
37.94990453827247
 21
128.9891206548455
 31
0.0
  0
LINE
  5
4C7
330
1F
100
AcDbEntity
  8
100
  6
Continuous
 62
     7
370
    30
100
AcDbLine
 10
43.81714447115838
 20
130.3019745768254
 30
0.0
 11
41.96357641327247
 21
130.2195894048455
 31
0.0
  0
LINE
  5
4C8
330
1F
100
AcDbEntity
  8
100
  6
Continuous
 62
     7
370
    30
100
AcDbLine
 10
79.25849828827248
 20
95.06333940484552
 30
0.0
 11
78.39855522338016
 21
95.05960946932623
 31
0.0
  0
LINE
  5
4C9
330
1F
100
AcDbEntity
  8
100
  6
Continuous
 62
     7
370
    30
100
AcDbLine
 10
80.6450689034827
 20
94.90815050078535
 30
0.0
 11
79.25849828827248
 21
95.06333940484552
 31
0.0
  0
LINE
  5
4CA
330
1F
100
AcDbEntity
  8
100
  6
Continuous
 62
     7
370
    30
100
AcDbLine
 10
79.55146703827248
 20
92.71958940484552
 30
0.0
 11
80.09079729341337
 21
92.45318642740835
 31
0.0
  0
LINE
  5
4CB
330
1F
100
AcDbEntity
  8
100
  6
Continuous
 62
     7
370
    30
100
AcDbLine
 10
78.57275977860942
 20
92.77619712288319
 30
0.0
 11
79.55146703827248
 21
92.71958940484552
 31
0.0
  0
LINE
  5
4CC
330
1F
100
AcDbEntity
  8
100
  6
Continuous
 62
     7
370
    30
100
AcDbLine
 10
78.55537328827248
 20
93.39341752984552
 30
0.0
 11
78.61396703827248
 21
91.31333940484552
 31
0.0
  0
LINE
  5
4CD
330
1F
100
AcDbEntity
  8
100
  6
Continuous
 62
     7
370
    30
100
AcDbLine
 10
78.32099828827248
 20
95.88365190484552
 30
0.0
 11
78.55537328827248
 21
93.39341752984552
 31
0.0
  0
LINE
  5
4CE
330
1F
100
AcDbEntity
  8
100
  6
Continuous
 62
     7
370
    30
100
AcDbLine
 10
77.58857641327248
 20
99.78013627984552
 30
0.0
 11
78.32099828827248
 21
95.88365190484552
 31
0.0
  0
LINE
  5
4CF
330
1F
100
AcDbEntity
  8
100
  6
Continuous
 62
     7
370
    30
100
AcDbLine
 10
76.24092016327248
 20
103.1785737798455
 30
0.0
 11
77.58857641327248
 21
99.78013627984552
 31
0.0
  0
LINE
  5
4D0
330
1F
100
AcDbEntity
  8
100
  6
Continuous
 62
     7
370
    30
100
AcDbLine
 10
74.39521703827248
 20
106.7820894048455
 30
0.0
 11
76.24092016327248
 21
103.1785737798455
 31
0.0
  0
LINE
  5
4D1
330
1F
100
AcDbEntity
  8
100
  6
Continuous
 62
     7
370
    30
100
AcDbLine
 10
71.43623266327248
 20
110.3563081548455
 30
0.0
 11
74.39521703827248
 21
106.7820894048455
 31
0.0
  0
LINE
  5
4D2
330
1F
100
AcDbEntity
  8
100
  6
Continuous
 62
     7
370
    30
100
AcDbLine
 10
68.33076391327248
 20
113.6668550298455
 30
0.0
 11
71.43623266327248
 21
110.3563081548455
 31
0.0
  0
LINE
  5
4D3
330
1F
100
AcDbEntity
  8
100
  6
Continuous
 62
     7
370
    30
100
AcDbLine
 10
65.16670141327248
 20
116.1863862798455
 30
0.0
 11
68.33076391327248
 21
113.6668550298455
 31
0.0
  0
LINE
  5
4D4
330
1F
100
AcDbEntity
  8
100
  6
Continuous
 62
     7
370
    30
100
AcDbLine
 10
61.44599828827247
 20
118.3250581548455
 30
0.0
 11
65.16670141327248
 21
116.1863862798455
 31
0.0
  0
LINE
  5
4D5
330
1F
100
AcDbEntity
  8
100
  6
Continuous
 62
     7
370
    30
100
AcDbLine
 10
58.95576391327247
 20
119.4090425298455
 30
0.0
 11
61.44599828827247
 21
118.3250581548455
 31
0.0
  0
LINE
  5
4D6
330
1F
100
AcDbEntity
  8
100
  6
Continuous
 62
     7
370
    30
100
AcDbLine
 10
55.85029516327247
 20
120.4637300298455
 30
0.0
 11
58.95576391327247
 21
119.4090425298455
 31
0.0
  0
LINE
  5
4D7
330
1F
100
AcDbEntity
  8
100
  6
Continuous
 62
     7
370
    30
100
AcDbLine
 10
51.71943578827247
 20
121.2840425298455
 30
0.0
 11
55.85029516327247
 21
120.4637300298455
 31
0.0
  0
LINE
  5
4D8
330
1F
100
AcDbEntity
  8
100
  6
Continuous
 62
     7
370
    30
100
AcDbLine
 10
48.05732641327247
 20
121.2840425298455
 30
0.0
 11
51.71943578827247
 21
121.2840425298455
 31
0.0
  0
LINE
  5
4D9
330
1F
100
AcDbEntity
  8
100
  6
Continuous
 62
     7
370
    30
100
AcDbLine
 10
44.45381078827247
 20
120.9031831548455
 30
0.0
 11
48.05732641327247
 21
121.2840425298455
 31
0.0
  0
LINE
  5
4DA
330
1F
100
AcDbEntity
  8
100
  6
Continuous
 62
     7
370
    30
100
AcDbLine
 10
41.48234268789846
 20
120.1772414010184
 30
0.0
 11
44.45381078827247
 21
120.9031831548455
 31
0.0
  0
LINE
  5
4DB
330
1F
100
AcDbEntity
  8
100
  6
Continuous
 62
     7
370
    30
100
AcDbLine
 10
36.89521703827247
 20
118.8816987798455
 30
0.0
 11
37.86526209815822
 21
119.2026944378225
 31
0.0
  0
LINE
  5
4DC
330
1F
100
AcDbEntity
  8
100
  6
Continuous
 62
     7
370
    30
100
AcDbLine
 10
33.55537328827247
 20
117.3875581548455
 30
0.0
 11
36.89521703827247
 21
118.8816987798455
 31
0.0
  0
LINE
  5
4DD
330
1F
100
AcDbEntity
  8
100
  6
Continuous
 62
     7
370
    30
100
AcDbLine
 10
30.33271703827247
 20
115.6004487798455
 30
0.0
 11
33.55537328827247
 21
117.3875581548455
 31
0.0
  0
LINE
  5
4DE
330
1F
100
AcDbEntity
  8
100
  6
Continuous
 62
     7
370
    30
100
AcDbLine
 10
27.49092016327247
 20
113.2566987798455
 30
0.0
 11
30.33271703827247
 21
115.6004487798455
 31
0.0
  0
LINE
  5
4DF
330
1F
100
AcDbEntity
  8
100
  6
Continuous
 62
     7
370
    30
100
AcDbLine
 10
23.94599828827247
 20
109.4774019048455
 30
0.0
 11
27.49092016327247
 21
113.2566987798455
 31
0.0
  0
LINE
  5
4E0
330
1F
100
AcDbEntity
  8
100
  6
Continuous
 62
     7
370
    30
100
AcDbLine
 10
21.04560766327247
 20
104.9949800298455
 30
0.0
 11
23.94599828827247
 21
109.4774019048455
 31
0.0
  0
LINE
  5
4E1
330
1F
100
AcDbEntity
  8
100
  6
Continuous
 62
     7
370
    30
100
AcDbLine
 10
19.17060766327247
 20
99.98521440484552
 30
0.0
 11
21.04560766327247
 21
104.9949800298455
 31
0.0
  0
LINE
  5
4E2
330
1F
100
AcDbEntity
  8
100
  6
Continuous
 62
     7
370
    30
100
AcDbLine
 10
18.14521703827247
 20
96.11802690484552
 30
0.0
 11
19.17060766327247
 21
99.98521440484552
 31
0.0
  0
LINE
  5
4E3
330
1F
100
AcDbEntity
  8
100
  6
Continuous
 62
     7
370
    30
100
AcDbLine
 10
17.94013891327247
 20
93.24693315484552
 30
0.0
 11
18.14521703827247
 21
96.11802690484552
 31
0.0
  0
LINE
  5
4E4
330
1F
100
AcDbEntity
  8
100
  6
Continuous
 62
     7
370
    30
100
AcDbLine
 10
16.32881078827247
 20
95.26841752984552
 30
0.0
 11
16.09443578827247
 21
93.68638627984552
 31
0.0
  0
LINE
  5
4E5
330
1F
100
AcDbEntity
  8
100
  6
Continuous
 62
     7
370
    30
100
AcDbLine
 10
16.15302953827247
 20
96.55748002984552
 30
0.0
 11
16.32881078827247
 21
95.26841752984552
 31
0.0
  0
LINE
  5
4E6
330
1F
100
AcDbEntity
  8
100
  6
Continuous
 62
     7
370
    30
100
AcDbLine
 10
16.12373266327247
 20
97.26060502984552
 30
0.0
 11
16.15302953827247
 21
96.55748002984552
 31
0.0
  0
LINE
  5
4E7
330
1F
100
AcDbEntity
  8
100
  6
Continuous
 62
     7
370
    30
100
AcDbLine
 10
15.83076391327247
 20
98.95982377984552
 30
0.0
 11
16.12373266327247
 21
97.26060502984552
 31
0.0
  0
LINE
  5
4E8
330
1F
100
AcDbEntity
  8
100
  6
Continuous
 62
     7
370
    30
100
AcDbLine
 10
15.71357641327247
 20
101.2156831548455
 30
0.0
 11
15.83076391327247
 21
98.95982377984552
 31
0.0
  0
LINE
  5
4E9
330
1F
100
AcDbEntity
  8
100
  6
Continuous
 62
     7
370
    30
100
AcDbLine
 10
15.88935766327247
 20
104.0281831548455
 30
0.0
 11
15.71357641327247
 21
101.2156831548455
 31
0.0
  0
LINE
  5
4EA
330
1F
100
AcDbEntity
  8
100
  6
Continuous
 62
     7
370
    30
100
AcDbLine
 10
16.29951391327247
 20
106.7820894048455
 30
0.0
 11
15.88935766327247
 21
104.0281831548455
 31
0.0
  0
LINE
  5
4EB
330
1F
100
AcDbEntity
  8
100
  6
Continuous
 62
     7
370
    30
100
AcDbLine
 10
17.23701391327247
 20
110.5320894048455
 30
0.0
 11
16.29951391327247
 21
106.7820894048455
 31
0.0
  0
LINE
  5
4EC
330
1F
100
AcDbEntity
  8
100
  6
Continuous
 62
     7
370
    30
100
AcDbLine
 10
18.52607641327247
 20
113.7547456548455
 30
0.0
 11
17.23701391327247
 21
110.5320894048455
 31
0.0
  0
LINE
  5
4ED
330
1F
100
AcDbEntity
  8
100
  6
Continuous
 62
     7
370
    30
100
AcDbLine
 10
19.99092016327247
 20
116.7723237798455
 30
0.0
 11
18.52607641327247
 21
113.7547456548455
 31
0.0
  0
LINE
  5
4EE
330
1F
100
AcDbEntity
  8
100
  6
Continuous
 62
     7
370
    30
100
AcDbLine
 10
22.33467016327247
 20
120.3172456548455
 30
0.0
 11
19.99092016327247
 21
116.7723237798455
 31
0.0
  0
LINE
  5
4EF
330
1F
100
AcDbEntity
  8
100
  6
Continuous
 62
     7
370
    30
100
AcDbLine
 10
24.41474828827247
 20
122.6902925298455
 30
0.0
 11
22.33467016327247
 21
120.3172456548455
 31
0.0
  0
LINE
  5
4F0
330
1F
100
AcDbEntity
  8
100
  6
Continuous
 62
     7
370
    30
100
AcDbLine
 10
27.49092016327247
 20
125.7664644048455
 30
0.0
 11
24.41474828827247
 21
122.6902925298455
 31
0.0
  0
LINE
  5
4F1
330
1F
100
AcDbEntity
  8
100
  6
Continuous
 62
     7
370
    30
100
AcDbLine
 10
30.88935766327247
 20
128.0516206548455
 30
0.0
 11
27.49092016327247
 21
125.7664644048455
 31
0.0
  0
LINE
  5
4F2
330
1F
100
AcDbEntity
  8
100
  6
Continuous
 62
     7
370
    30
100
AcDbLine
 10
34.55146703827247
 20
130.1024019048455
 30
0.0
 11
30.88935766327247
 21
128.0516206548455
 31
0.0
  0
LINE
  5
4F3
330
1F
100
AcDbEntity
  8
100
  6
Continuous
 62
     7
370
    30
100
AcDbLine
 10
39.41474828827247
 20
132.0359956548455
 30
0.0
 11
34.55146703827247
 21
130.1024019048455
 31
0.0
  0
LINE
  5
4F4
330
1F
100
AcDbEntity
  8
100
  6
Continuous
 62
     7
370
    30
100
AcDbLine
 10
44.01435766327247
 20
132.8563081548455
 30
0.0
 11
39.41474828827247
 21
132.0359956548455
 31
0.0
  0
LINE
  5
4F5
330
1F
100
AcDbEntity
  8
100
  6
Continuous
 62
     7
370
    30
100
AcDbLine
 10
46.44599828827247
 20
133.0027925298455
 30
0.0
 11
44.01435766327247
 21
132.8563081548455
 31
0.0
  0
LINE
  5
4F6
330
1F
100
AcDbEntity
  8
100
  6
Continuous
 62
     7
370
    30
100
AcDbLine
 10
56.28974828827247
 20
127.7293550298455
 30
0.0
 11
55.11787328827247
 21
129.8973237798455
 31
0.0
  0
LINE
  5
4F7
330
1F
100
AcDbEntity
  8
100
  6
Continuous
 62
     7
370
    30
100
AcDbLine
 10
57.31513891327247
 20
125.5613862798455
 30
0.0
 11
56.28974828827247
 21
127.7293550298455
 31
0.0
  0
LINE
  5
4F8
330
1F
100
AcDbEntity
  8
100
  6
Continuous
 62
     7
370
    30
100
AcDbLine
 10
58.31123266327247
 20
122.5438081548455
 30
0.0
 11
57.31513891327247
 21
125.5613862798455
 31
0.0
  0
LINE
  5
4F9
330
1F
100
AcDbEntity
  8
100
  6
Continuous
 62
     7
370
    30
100
AcDbLine
 10
58.95576391327247
 20
119.4090425298455
 30
0.0
 11
58.31123266327247
 21
122.5438081548455
 31
0.0
  0
LINE
  5
4FA
330
1F
100
AcDbEntity
  8
100
  6
Continuous
 62
     7
370
    30
100
AcDbLine
 10
60.86006078827247
 20
121.8699800298455
 30
0.0
 11
61.44599828827247
 21
118.3250581548455
 31
0.0
  0
LINE
  5
4FB
330
1F
100
AcDbEntity
  8
100
  6
Continuous
 62
     7
370
    30
100
AcDbLine
 10
59.77607641327247
 20
125.0926362798455
 30
0.0
 11
60.86006078827247
 21
121.8699800298455
 31
0.0
  0
LINE
  5
4FC
330
1F
100
AcDbEntity
  8
100
  6
Continuous
 62
     7
370
    30
100
AcDbLine
 10
58.25263891327247
 20
128.6082612798455
 30
0.0
 11
59.77607641327247
 21
125.0926362798455
 31
0.0
  0
LINE
  5
4FD
330
1F
100
AcDbEntity
  8
100
  6
Continuous
 62
     7
370
    30
100
AcDbLine
 10
58.74073108118233
 20
128.8691341199701
 30
0.0
 11
58.25263891327247
 21
128.6082612798455
 31
0.0
  0
LINE
  5
4FE
330
1F
100
AcDbEntity
  8
100
  6
Continuous
 62
     7
370
    30
100
AcDbLine
 10
48.96552953827247
 20
130.2781831548455
 30
0.0
 11
47.38195666945852
 21
130.5145769413876
 31
0.0
  0
LINE
  5
4FF
330
1F
100
AcDbEntity
  8
100
  6
Continuous
 62
     7
370
    30
100
AcDbLine
 10
51.36787328827247
 20
129.8973237798455
 30
0.0
 11
48.96552953827247
 21
130.2781831548455
 31
0.0
  0
LINE
  5
500
330
1F
100
AcDbEntity
  8
100
  6
Continuous
 62
     7
370
    30
100
AcDbLine
 10
55.11787328827247
 20
129.8973237798455
 30
0.0
 11
51.36787328827247
 21
129.8973237798455
 31
0.0
  0
LINE
  5
501
330
1F
100
AcDbEntity
  8
100
  6
Continuous
 62
     7
370
    30
100
AcDbLine
 10
57.54951391327247
 20
129.2820894048455
 30
0.0
 11
55.11787328827247
 21
129.8973237798455
 31
0.0
  0
LINE
  5
502
330
1F
100
AcDbEntity
  8
100
  6
Continuous
 62
     7
370
    30
100
AcDbLine
 10
59.74677953827247
 20
128.5203706548455
 30
0.0
 11
57.54951391327247
 21
129.2820894048455
 31
0.0
  0
LINE
  5
503
330
1F
100
AcDbEntity
  8
100
  6
Continuous
 62
     7
370
    30
100
AcDbLine
 10
62.32490453827247
 20
127.3777925298455
 30
0.0
 11
59.74677953827247
 21
128.5203706548455
 31
0.0
  0
LINE
  5
504
330
1F
100
AcDbEntity
  8
100
  6
Continuous
 62
     7
370
    30
100
AcDbLine
 10
64.58076391327248
 20
126.1180269048455
 30
0.0
 11
62.32490453827247
 21
127.3777925298455
 31
0.0
  0
LINE
  5
505
330
1F
100
AcDbEntity
  8
100
  6
Continuous
 62
     7
370
    30
100
AcDbLine
 10
67.56904516327248
 20
124.0379487798455
 30
0.0
 11
64.58076391327248
 21
126.1180269048455
 31
0.0
  0
LINE
  5
506
330
1F
100
AcDbEntity
  8
100
  6
Continuous
 62
     7
370
    30
100
AcDbLine
 10
70.41084203827248
 20
121.7234956548455
 30
0.0
 11
67.56904516327248
 21
124.0379487798455
 31
0.0
  0
LINE
  5
507
330
1F
100
AcDbEntity
  8
100
  6
Continuous
 62
     7
370
    30
100
AcDbLine
 10
72.66670141327248
 20
119.4969331548455
 30
0.0
 11
70.41084203827248
 21
121.7234956548455
 31
0.0
  0
LINE
  5
508
330
1F
100
AcDbEntity
  8
100
  6
Continuous
 62
     7
370
    30
100
AcDbLine
 10
74.77607641327248
 20
116.9481050298455
 30
0.0
 11
72.66670141327248
 21
119.4969331548455
 31
0.0
  0
LINE
  5
509
330
1F
100
AcDbEntity
  8
100
  6
Continuous
 62
     7
370
    30
100
AcDbLine
 10
77.03193578827248
 20
113.1395112798455
 30
0.0
 11
74.77607641327248
 21
116.9481050298455
 31
0.0
  0
LINE
  5
50A
330
1F
100
AcDbEntity
  8
100
  6
Continuous
 62
     7
370
    30
100
AcDbLine
 10
78.87763891327248
 20
109.1258394048455
 30
0.0
 11
77.03193578827248
 21
113.1395112798455
 31
0.0
  0
LINE
  5
50B
330
1F
100
AcDbEntity
  8
100
  6
Continuous
 62
     7
370
    30
100
AcDbLine
 10
79.96162328827248
 20
105.7274019048455
 30
0.0
 11
78.87763891327248
 21
109.1258394048455
 31
0.0
  0
LINE
  5
50C
330
1F
100
AcDbEntity
  8
100
  6
Continuous
 62
     7
370
    30
100
AcDbLine
 10
80.66474828827248
 20
101.8895112798455
 30
0.0
 11
79.96162328827248
 21
105.7274019048455
 31
0.0
  0
LINE
  5
50D
330
1F
100
AcDbEntity
  8
100
  6
Continuous
 62
     7
370
    30
100
AcDbLine
 10
80.86982641327248
 20
99.63365190484552
 30
0.0
 11
80.66474828827248
 21
101.8895112798455
 31
0.0
  0
LINE
  5
50E
330
1F
100
AcDbEntity
  8
100
  6
Continuous
 62
     7
370
    30
100
AcDbLine
 10
80.86982641327248
 20
95.91294877984552
 30
0.0
 11
80.86982641327248
 21
99.63365190484552
 31
0.0
  0
LINE
  5
50F
330
1F
100
AcDbEntity
  8
100
  6
Continuous
 62
     7
370
    30
100
AcDbLine
 10
80.37177953827248
 20
93.68638627984552
 30
0.0
 11
80.86982641327248
 21
95.91294877984552
 31
0.0
  0
LINE
  5
510
330
1F
100
AcDbEntity
  8
100
  6
Continuous
 62
     7
370
    30
100
AcDbLine
 10
79.84443578827248
 20
91.37193315484552
 30
0.0
 11
80.37177953827248
 21
93.68638627984552
 31
0.0
  0
LINE
  5
511
330
1F
100
AcDbEntity
  8
100
  6
Continuous
 62
     7
370
    30
100
AcDbLine
 10
83.15498266327248
 20
94.15513627984552
 30
0.0
 11
82.53974828827248
 21
92.04576127984552
 31
0.0
  0
LINE
  5
512
330
1F
100
AcDbEntity
  8
100
  6
Continuous
 62
     7
370
    30
100
AcDbLine
 10
83.44795141327248
 20
96.73326127984552
 30
0.0
 11
83.15498266327248
 21
94.15513627984552
 31
0.0
  0
LINE
  5
513
330
1F
100
AcDbEntity
  8
100
  6
Continuous
 62
     7
370
    30
100
AcDbLine
 10
83.38935766327248
 20
99.10630815484552
 30
0.0
 11
83.44795141327248
 21
96.73326127984552
 31
0.0
  0
LINE
  5
514
330
1F
100
AcDbEntity
  8
100
  6
Continuous
 62
     7
370
    30
100
AcDbLine
 10
83.15498266327248
 20
102.3582612798455
 30
0.0
 11
83.38935766327248
 21
99.10630815484552
 31
0.0
  0
LINE
  5
515
330
1F
100
AcDbEntity
  8
100
  6
Continuous
 62
     7
370
    30
100
AcDbLine
 10
82.45185766327248
 20
105.9031831548455
 30
0.0
 11
83.15498266327248
 21
102.3582612798455
 31
0.0
  0
LINE
  5
516
330
1F
100
AcDbEntity
  8
100
  6
Continuous
 62
     7
370
    30
100
AcDbLine
 10
81.42646703827248
 20
109.6238862798455
 30
0.0
 11
82.45185766327248
 21
105.9031831548455
 31
0.0
  0
LINE
  5
517
330
1F
100
AcDbEntity
  8
100
  6
Continuous
 62
     7
370
    30
100
AcDbLine
 10
79.40498266327248
 20
113.9305269048455
 30
0.0
 11
81.42646703827248
 21
109.6238862798455
 31
0.0
  0
LINE
  5
518
330
1F
100
AcDbEntity
  8
100
  6
Continuous
 62
     7
370
    30
100
AcDbLine
 10
77.50068578827248
 20
117.2117769048455
 30
0.0
 11
79.40498266327248
 21
113.9305269048455
 31
0.0
  0
LINE
  5
519
330
1F
100
AcDbEntity
  8
100
  6
Continuous
 62
     7
370
    30
100
AcDbLine
 10
74.60029516327248
 20
120.6981050298455
 30
0.0
 11
77.50068578827248
 21
117.2117769048455
 31
0.0
  0
LINE
  5
51A
330
1F
100
AcDbEntity
  8
100
  6
Continuous
 62
     7
370
    30
100
AcDbLine
 10
72.60810766327248
 20
122.8953706548455
 30
0.0
 11
74.60029516327248
 21
120.6981050298455
 31
0.0
  0
LINE
  5
51B
330
1F
100
AcDbEntity
  8
100
  6
Continuous
 62
     7
370
    30
100
AcDbLine
 10
69.47334203827248
 20
125.5613862798455
 30
0.0
 11
72.60810766327248
 21
122.8953706548455
 31
0.0
  0
LINE
  5
51C
330
1F
100
AcDbEntity
  8
100
  6
Continuous
 62
     7
370
    30
100
AcDbLine
 10
66.66084203827248
 20
127.6414644048455
 30
0.0
 11
69.47334203827248
 21
125.5613862798455
 31
0.0
  0
LINE
  5
51D
330
1F
100
AcDbEntity
  8
100
  6
Continuous
 62
     7
370
    30
100
AcDbLine
 10
63.11592016327247
 20
129.6922456548455
 30
0.0
 11
66.66084203827248
 21
127.6414644048455
 31
0.0
  0
LINE
  5
51E
330
1F
100
AcDbEntity
  8
100
  6
Continuous
 62
     7
370
    30
100
AcDbLine
 10
58.86787328827247
 20
131.3914644048455
 30
0.0
 11
63.11592016327247
 21
129.6922456548455
 31
0.0
  0
LINE
  5
51F
330
1F
100
AcDbEntity
  8
100
  6
Continuous
 62
     7
370
    30
100
AcDbLine
 10
56.02607641327247
 20
132.1238862798455
 30
0.0
 11
58.86787328827247
 21
131.3914644048455
 31
0.0
  0
LINE
  5
520
330
1F
100
AcDbEntity
  8
100
  6
Continuous
 62
     7
370
    30
100
AcDbLine
 10
53.50654516327247
 20
132.3289644048455
 30
0.0
 11
56.02607641327247
 21
132.1238862798455
 31
0.0
  0
LINE
  5
521
330
1F
100
AcDbEntity
  8
100
  6
Continuous
 62
     7
370
    30
100
AcDbLine
 10
50.72334203827247
 20
132.3875581548455
 30
0.0
 11
53.50654516327247
 21
132.3289644048455
 31
0.0
  0
LINE
  5
522
330
1F
100
AcDbEntity
  8
100
  6
Continuous
 62
     7
370
    30
100
AcDbLine
 10
55.38154516327247
 20
132.9149019048455
 30
0.0
 11
56.02607641327247
 21
132.1238862798455
 31
0.0
  0
LINE
  5
523
330
1F
100
AcDbEntity
  8
100
  6
Continuous
 62
     7
370
    30
100
AcDbLine
 10
54.20967016327247
 20
133.9109956548455
 30
0.0
 11
55.38154516327247
 21
132.9149019048455
 31
0.0
  0
LINE
  5
524
330
1F
100
AcDbEntity
  8
100
  6
Continuous
 62
     7
370
    30
100
AcDbLine
 10
46.44599828827247
 20
133.0027925298455
 30
0.0
 11
48.29170141327247
 21
134.3504487798455
 31
0.0
  0
LINE
  5
525
330
1F
100
AcDbEntity
  8
100
  6
Continuous
 62
     7
370
    30
100
AcDbLine
 10
44.19013891327247
 20
130.8348237798455
 30
0.0
 11
46.44599828827247
 21
133.0027925298455
 31
0.0
  0
LINE
  5
526
330
1F
100
AcDbEntity
  8
100
  6
Continuous
 62
     7
370
    30
100
AcDbLine
 10
42.75459203827247
 20
128.7840425298455
 30
0.0
 11
44.19013891327247
 21
130.8348237798455
 31
0.0
  0
LINE
  5
527
330
1F
100
AcDbEntity
  8
100
  6
Continuous
 62
     7
370
    30
100
AcDbLine
 10
41.46552953827247
 20
126.5867769048455
 30
0.0
 11
42.75459203827247
 21
128.7840425298455
 31
0.0
  0
LINE
  5
528
330
1F
100
AcDbEntity
  8
100
  6
Continuous
 62
     7
370
    30
100
AcDbLine
 10
39.29756078827247
 20
122.8660737798455
 30
0.0
 11
41.46552953827247
 21
126.5867769048455
 31
0.0
  0
LINE
  5
529
330
1F
100
AcDbEntity
  8
100
  6
Continuous
 62
     7
370
    30
100
AcDbLine
 10
37.77412328827247
 20
118.9695894048455
 30
0.0
 11
39.29756078827247
 21
122.8660737798455
 31
0.0
  0
LINE
  5
52A
330
1F
100
AcDbEntity
  8
100
  6
Continuous
 62
     7
370
    30
100
AcDbLine
 10
36.51435766327247
 20
114.1356050298455
 30
0.0
 11
37.77412328827247
 21
118.9695894048455
 31
0.0
  0
LINE
  5
52B
330
1F
100
AcDbEntity
  8
100
  6
Continuous
 62
     7
370
    30
100
AcDbLine
 10
35.57685766327247
 20
109.7703706548455
 30
0.0
 11
36.51435766327247
 21
114.1356050298455
 31
0.0
  0
LINE
  5
52C
330
1F
100
AcDbEntity
  8
100
  6
Continuous
 62
     7
370
    30
100
AcDbLine
 10
34.72724828827247
 20
104.3504487798455
 30
0.0
 11
35.57685766327247
 21
109.7703706548455
 31
0.0
  0
LINE
  5
52D
330
1F
100
AcDbEntity
  8
100
  6
Continuous
 62
     7
370
    30
100
AcDbLine
 10
34.49287328827247
 20
101.0399019048455
 30
0.0
 11
34.72724828827247
 21
104.3504487798455
 31
0.0
  0
LINE
  5
52E
330
1F
100
AcDbEntity
  8
100
  6
Continuous
 62
     7
370
    30
100
AcDbLine
 10
34.34638891327247
 20
97.81724565484552
 30
0.0
 11
34.49287328827247
 21
101.0399019048455
 31
0.0
  0
LINE
  5
52F
330
1F
100
AcDbEntity
  8
100
  6
Continuous
 62
     7
370
    30
100
AcDbLine
 10
34.25849828827247
 20
94.36021440484552
 30
0.0
 11
34.34638891327247
 21
97.81724565484552
 31
0.0
  0
LINE
  5
530
330
1F
100
AcDbEntity
  8
100
  6
Continuous
 62
     7
370
    30
100
AcDbLine
 10
34.43427953827247
 20
91.45982377984552
 30
0.0
 11
34.25849828827247
 21
94.36021440484552
 31
0.0
  0
LINE
  5
531
330
1F
100
AcDbEntity
  8
100
  6
Continuous
 62
     7
370
    30
100
AcDbLine
 10
37.36396703827247
 20
92.80748002984552
 30
0.0
 11
37.45185766327247
 21
91.28404252984552
 31
0.0
  0
LINE
  5
532
330
1F
100
AcDbEntity
  8
100
  6
Continuous
 62
     7
370
    30
100
AcDbLine
 10
37.24677953827247
 20
96.03013627984552
 30
0.0
 11
37.36396703827247
 21
92.80748002984552
 31
0.0
  0
LINE
  5
533
330
1F
100
AcDbEntity
  8
100
  6
Continuous
 62
     7
370
    30
100
AcDbLine
 10
37.45185766327247
 20
100.1024019048455
 30
0.0
 11
37.24677953827247
 21
96.03013627984552
 31
0.0
  0
LINE
  5
534
330
1F
100
AcDbEntity
  8
100
  6
Continuous
 62
     7
370
    30
100
AcDbLine
 10
37.74482641327247
 20
102.9149019048455
 30
0.0
 11
37.45185766327247
 21
100.1024019048455
 31
0.0
  0
LINE
  5
535
330
1F
100
AcDbEntity
  8
100
  6
Continuous
 62
     7
370
    30
100
AcDbLine
 10
38.15498266327247
 20
106.3719331548455
 30
0.0
 11
37.74482641327247
 21
102.9149019048455
 31
0.0
  0
LINE
  5
536
330
1F
100
AcDbEntity
  8
100
  6
Continuous
 62
     7
370
    30
100
AcDbLine
 10
38.62373266327247
 20
109.0965425298455
 30
0.0
 11
38.15498266327247
 21
106.3719331548455
 31
0.0
  0
LINE
  5
537
330
1F
100
AcDbEntity
  8
100
  6
Continuous
 62
     7
370
    30
100
AcDbLine
 10
39.23896703827247
 20
112.4656831548455
 30
0.0
 11
38.62373266327247
 21
109.0965425298455
 31
0.0
  0
LINE
  5
538
330
1F
100
AcDbEntity
  8
100
  6
Continuous
 62
     7
370
    30
100
AcDbLine
 10
40.49873266327247
 20
116.6258394048455
 30
0.0
 11
39.23896703827247
 21
112.4656831548455
 31
0.0
  0
LINE
  5
539
330
1F
100
AcDbEntity
  8
100
  6
Continuous
 62
     7
370
    30
100
AcDbLine
 10
41.40693578827247
 20
119.9656831548455
 30
0.0
 11
40.49873266327247
 21
116.6258394048455
 31
0.0
  0
LINE
  5
53A
330
1F
100
AcDbEntity
  8
100
  6
Continuous
 62
     7
370
    30
100
AcDbLine
 10
42.46162328827247
 20
122.9246675298455
 30
0.0
 11
41.40693578827247
 21
119.9656831548455
 31
0.0
  0
LINE
  5
53B
330
1F
100
AcDbEntity
  8
100
  6
Continuous
 62
     7
370
    30
100
AcDbLine
 10
43.83857641327247
 20
125.6492769048455
 30
0.0
 11
42.46162328827247
 21
122.9246675298455
 31
0.0
  0
LINE
  5
53C
330
1F
100
AcDbEntity
  8
100
  6
Continuous
 62
     7
370
    30
100
AcDbLine
 10
45.42060766327247
 20
128.1395112798455
 30
0.0
 11
43.83857641327247
 21
125.6492769048455
 31
0.0
  0
LINE
  5
53D
330
1F
100
AcDbEntity
  8
100
  6
Continuous
 62
     7
370
    30
100
AcDbLine
 10
47.14912328827247
 20
130.3367769048455
 30
0.0
 11
45.42060766327247
 21
128.1395112798455
 31
0.0
  0
LINE
  5
53E
330
1F
100
AcDbEntity
  8
100
  6
Continuous
 62
     7
370
    30
100
AcDbLine
 10
48.76045141327247
 20
131.5672456548455
 30
0.0
 11
47.14912328827247
 21
130.3367769048455
 31
0.0
  0
LINE
  5
53F
330
1F
100
AcDbEntity
  8
100
  6
Continuous
 62
     7
370
    30
100
AcDbLine
 10
50.04951391327247
 20
132.2703706548455
 30
0.0
 11
48.76045141327247
 21
131.5672456548455
 31
0.0
  0
MTEXT
  5
540
330
1F
100
AcDbEntity
  8
100
  6
Continuous
 62
     7
370
     9
100
AcDbMText
 10
-26.61052011929071
 20
-126.5146552801502
 30
0.0
 40
25.0
 41
293.4182016041797
 46
25.0
 71
     7
 72
     1
  1
{\fＭＳ ゴシック;\W0.714286;松本船舶電機製作所}
 73
     1
 44
1.0
  0
MTEXT
  5
541
330
1F
100
AcDbEntity
  8
100
  6
Continuous
 62
     7
370
     9
100
AcDbMText
 10
-46.28246095612654
 20
177.338199901668
 30
0.0
 40
25.0
 41
349.4765505874703
 46
25.0
 71
     7
 72
     1
  1
{\fＭＳ ゴシック;\W0.714286;[電球色ＬＥＤランプ付]}
 73
     1
 44
1.0
  0
MTEXT
  5
542
330
1F
100
AcDbEntity
  8
1
  6
DOT
 62
     7
370
     9
100
AcDbMText
 10
16.09237205827102
 20
240.3251617296559
 30
0.0
 40
25.0
 41
152.9102596313618
 46
25.0
 71
     7
 72
     1
  1
{\fＭＳ ゴシック;\W0.714286;（RNE-DK-G）}
 73
     1
 44
1.0
  0
MTEXT
  5
543
330
1F
100
AcDbEntity
  8
100
  6
Continuous
 62
     7
370
     9
100
AcDbMText
 10
-32.49458216824772
 20
209.6866847501526
 30
0.0
 40
25.0
 41
320.4737321302051
 46
25.0
 71
     7
 72
     1
  1
{\fＭＳ ゴシック;\W0.714286;Ｒネオデッキゴールド}
 73
     1
 44
1.0
  0
ENDSEC
  0
SECTION
  2
OBJECTS
  0
DICTIONARY
  5
C
330
0
100
AcDbDictionary
281
     1
  3
ACAD_DETAILVIEWSTYLE
350
54B
  3
ACAD_GROUP
350
D
  3
ACAD_LAYOUT
350
1A
  3
ACAD_MATERIAL
350
43
  3
ACAD_MLEADERSTYLE
350
6B
  3
ACAD_MLINESTYLE
350
17
  3
ACAD_PLOTSETTINGS
350
19
  3
ACAD_PLOTSTYLENAME
350
E
  3
ACAD_SCALELIST
350
47
  3
ACAD_SECTIONVIEWSTYLE
350
54C
  3
ACAD_TABLESTYLE
350
69
  3
ACAD_VISUALSTYLE
350
2A
  3
ACDB_RECOMPOSE_DATA
350
548
  3
AcDbVariableDictionary
350
544
  0
SUN
  5
6D
330
29
100
AcDbSun
 90
        1
290
     0
 63
     7
421
 16777215
 40
1.0
291
     1
 91
  2455826
 92
 54000000
292
     0
 70
     2
 71
   256
280
     1
  0
DICTIONARY
  5
54B
102
{ACAD_REACTORS
330
C
102
}
330
C
100
AcDbDictionary
281
     1
  0
DICTIONARY
  5
D
102
{ACAD_REACTORS
330
C
102
}
330
C
100
AcDbDictionary
281
     1
  0
DICTIONARY
  5
1A
102
{ACAD_REACTORS
330
C
102
}
330
C
100
AcDbDictionary
281
     1
  3
Layout1
350
1E
  3
Layout2
350
26
  3
Model
350
22
  0
DICTIONARY
  5
43
102
{ACAD_REACTORS
330
C
102
}
330
C
100
AcDbDictionary
281
     1
  3
ByBlock
350
45
  3
ByLayer
350
44
  3
Global
350
46
  0
DICTIONARY
  5
6B
102
{ACAD_REACTORS
330
C
102
}
330
C
100
AcDbDictionary
281
     1
  3
Standard
350
6C
  0
DICTIONARY
  5
17
102
{ACAD_REACTORS
330
C
102
}
330
C
100
AcDbDictionary
281
     1
  3
Standard
350
18
  0
DICTIONARY
  5
19
102
{ACAD_REACTORS
330
C
102
}
330
C
100
AcDbDictionary
281
     1
  0
ACDBDICTIONARYWDFLT
  5
E
102
{ACAD_REACTORS
330
C
102
}
330
C
100
AcDbDictionary
281
     1
  3
Normal
350
F
100
AcDbDictionaryWithDefault
340
F
  0
DICTIONARY
  5
47
102
{ACAD_REACTORS
330
C
102
}
330
C
100
AcDbDictionary
281
     1
  3
A0
350
48
  3
A1
350
49
  3
A2
350
4A
  3
A3
350
4B
  3
A4
350
4C
  3
A5
350
4D
  3
A6
350
4E
  3
A7
350
4F
  3
A8
350
50
  3
A9
350
51
  3
B0
350
52
  3
B1
350
53
  3
B2
350
54
  3
B3
350
55
  3
B4
350
56
  3
B5
350
57
  3
B6
350
58
  3
B7
350
59
  3
B8
350
5A
  3
B9
350
5B
  3
C0
350
5C
  3
C1
350
5D
  3
C2
350
5E
  3
C3
350
5F
  3
C4
350
60
  3
C5
350
61
  3
C6
350
62
  3
C7
350
63
  3
C8
350
64
  3
C9
350
65
  3
D0
350
66
  3
D1
350
67
  3
D2
350
68
  0
DICTIONARY
  5
54C
102
{ACAD_REACTORS
330
C
102
}
330
C
100
AcDbDictionary
281
     1
  0
DICTIONARY
  5
69
102
{ACAD_REACTORS
330
C
102
}
330
C
100
AcDbDictionary
281
     1
  3
Standard
350
6A
  0
DICTIONARY
  5
2A
102
{ACAD_REACTORS
330
C
102
}
330
C
100
AcDbDictionary
281
     1
  3
2dWireframe
350
2F
  3
Basic
350
32
  3
Brighten
350
36
  3
ColorChange
350
3A
  3
Conceptual
350
34
  3
Dim
350
35
  3
EdgeColorOff
350
3D
  3
Facepattern
350
39
  3
Flat
350
2B
  3
FlatWithEdges
350
2C
  3
Gouraud
350
2D
  3
GouraudWithEdges
350
2E
  3
Hidden
350
31
  3
JitterOff
350
3B
  3
Linepattern
350
38
  3
OverhangOff
350
3C
  3
Realistic
350
33
  3
Shaded
350
42
  3
Shaded with edges
350
41
  3
Shades of Gray
350
3E
  3
Sketchy
350
3F
  3
Thicken
350
37
  3
Wireframe
350
30
  3
X-Ray
350
40
  0
XRECORD
  5
548
102
{ACAD_REACTORS
330
C
102
}
330
C
100
AcDbXrecord
280
     1
 90
        1
330
6A
  0
DICTIONARY
  5
544
102
{ACAD_REACTORS
330
C
102
}
330
C
100
AcDbDictionary
281
     1
  3
CANNOSCALE
350
545
  3
CMLEADERSTYLE
350
54A
  3
CTABLESTYLE
350
549
  0
LAYOUT
  5
1E
102
{ACAD_REACTORS
330
1A
102
}
330
1A
100
AcDbPlotSettings
  1

  2
none_device
  4

  6

 40
0.0
 41
0.0
 42
0.0
 43
0.0
 44
0.0
 45
0.0
 46
0.0
 47
0.0
 48
0.0
 49
0.0
140
0.0
141
0.0
142
1.0
143
1.0
 70
   688
 72
     0
 73
     0
 74
     5
  7

 75
    16
 76
     0
 77
     2
 78
   300
147
1.0
148
0.0
149
0.0
100
AcDbLayout
  1
Layout1
 70
     1
 71
     1
 10
0.0
 20
0.0
 11
297.0
 21
210.0
 12
0.0
 22
0.0
 32
0.0
 14
0.0
 24
0.0
 34
0.0
 15
297.0
 25
210.0
 35
0.0
146
0.0
 13
0.0
 23
0.0
 33
0.0
 16
1.0
 26
0.0
 36
0.0
 17
0.0
 27
1.0
 37
0.0
 76
     0
330
1B
  0
LAYOUT
  5
26
102
{ACAD_REACTORS
330
1A
102
}
330
1A
100
AcDbPlotSettings
  1

  2
none_device
  4

  6

 40
0.0
 41
0.0
 42
0.0
 43
0.0
 44
0.0
 45
0.0
 46
0.0
 47
0.0
 48
0.0
 49
0.0
140
0.0
141
0.0
142
1.0
143
1.0
 70
   688
 72
     0
 73
     0
 74
     5
  7

 75
    16
 76
     0
 77
     2
 78
   300
147
1.0
148
0.0
149
0.0
100
AcDbLayout
  1
Layout2
 70
     1
 71
     2
 10
0.0
 20
0.0
 11
0.0
 21
0.0
 12
0.0
 22
0.0
 32
0.0
 14
0.0
 24
0.0
 34
0.0
 15
0.0
 25
0.0
 35
0.0
146
0.0
 13
0.0
 23
0.0
 33
0.0
 16
1.0
 26
0.0
 36
0.0
 17
0.0
 27
1.0
 37
0.0
 76
     0
330
23
  0
LAYOUT
  5
22
102
{ACAD_REACTORS
330
1A
102
}
330
1A
100
AcDbPlotSettings
  1

  2
none_device
  4
Letter_(8.50_x_11.00_Inches)
  6

 40
6.35
 41
6.35
 42
6.35000508
 43
6.35000508
 44
215.9
 45
279.4
 46
0.0
 47
0.0
 48
0.0
 49
0.0
140
0.0
141
0.0
142
1.0
143
1.0
 70
  1712
 72
     0
 73
     0
 74
     0
  7

 75
     0
 76
     0
 77
     2
 78
   300
147
1.0
148
0.0
149
0.0
100
AcDbLayout
  1
Model
 70
     1
 71
     0
 10
0.0
 20
0.0
 11
297.0
 21
210.0
 12
0.0
 22
0.0
 32
0.0
 14
-46.28246095612654
 24
-126.5146552801502
 34
0.0
 15
228.7175390438734
 25
265.325161729656
 35
0.0
146
0.0
 13
0.0
 23
0.0
 33
0.0
 16
1.0
 26
0.0
 36
0.0
 17
0.0
 27
1.0
 37
0.0
 76
     0
330
1F
331
29
  0
MATERIAL
  5
45
102
{ACAD_REACTORS
330
43
102
}
330
43
100
AcDbMaterial
  1
ByBlock
 72
     1
 94
      127
  0
MATERIAL
  5
44
102
{ACAD_REACTORS
330
43
102
}
330
43
100
AcDbMaterial
  1
ByLayer
 72
     1
 94
      127
  0
MATERIAL
  5
46
102
{ACAD_REACTORS
330
43
102
}
330
43
100
AcDbMaterial
  1
Global
 72
     1
 94
      127
  0
MLEADERSTYLE
  5
6C
102
{ACAD_REACTORS
330
6B
102
}
330
6B
100
AcDbMLeaderStyle
179
     2
170
     2
171
     1
172
     0
 90
        2
 40
0.0
 41
0.0
173
     1
 91
-1056964608
340
14
 92
       -2
290
     1
 42
0.09
291
     1
 43
0.36
  3
Standard
341
0
 44
0.18
300

342
11
174
     1
178
     6
175
     1
176
     0
 93
-1056964608
 45
0.18
292
     0
297
     0
 46
0.18
343
0
 94
-1056964608
 47
1.0
 49
1.0
140
1.0
293
     1
141
0.0
294
     1
177
     0
142
1.0
295
     0
296
     0
143
0.125
271
     0
272
     9
273
     9
298
     0
  0
MLINESTYLE
  5
18
102
{ACAD_REACTORS
330
17
102
}
330
17
100
AcDbMlineStyle
  2
Standard
 70
     0
  3

 62
   256
 51
90.0
 52
90.0
 71
     2
 49
0.5
 62
   256
  6
BYLAYER
 49
-0.5
 62
   256
  6
BYLAYER
  0
ACDBPLACEHOLDER
  5
F
102
{ACAD_REACTORS
330
E
102
}
330
E
  0
SCALE
  5
48
102
{ACAD_REACTORS
330
47
102
}
330
47
100
AcDbScale
 70
     0
300
1:1
140
1.0
141
1.0
290
     1
  0
SCALE
  5
49
102
{ACAD_REACTORS
330
47
102
}
330
47
100
AcDbScale
 70
     0
300
1:2
140
1.0
141
2.0
290
     0
  0
SCALE
  5
4A
102
{ACAD_REACTORS
330
47
102
}
330
47
100
AcDbScale
 70
     0
300
1:4
140
1.0
141
4.0
290
     0
  0
SCALE
  5
4B
102
{ACAD_REACTORS
330
47
102
}
330
47
100
AcDbScale
 70
     0
300
1:5
140
1.0
141
5.0
290
     0
  0
SCALE
  5
4C
102
{ACAD_REACTORS
330
47
102
}
330
47
100
AcDbScale
 70
     0
300
1:8
140
1.0
141
8.0
290
     0
  0
SCALE
  5
4D
102
{ACAD_REACTORS
330
47
102
}
330
47
100
AcDbScale
 70
     0
300
1:10
140
1.0
141
10.0
290
     0
  0
SCALE
  5
4E
102
{ACAD_REACTORS
330
47
102
}
330
47
100
AcDbScale
 70
     0
300
1:16
140
1.0
141
16.0
290
     0
  0
SCALE
  5
4F
102
{ACAD_REACTORS
330
47
102
}
330
47
100
AcDbScale
 70
     0
300
1:20
140
1.0
141
20.0
290
     0
  0
SCALE
  5
50
102
{ACAD_REACTORS
330
47
102
}
330
47
100
AcDbScale
 70
     0
300
1:30
140
1.0
141
30.0
290
     0
  0
SCALE
  5
51
102
{ACAD_REACTORS
330
47
102
}
330
47
100
AcDbScale
 70
     0
300
1:40
140
1.0
141
40.0
290
     0
  0
SCALE
  5
52
102
{ACAD_REACTORS
330
47
102
}
330
47
100
AcDbScale
 70
     0
300
1:50
140
1.0
141
50.0
290
     0
  0
SCALE
  5
53
102
{ACAD_REACTORS
330
47
102
}
330
47
100
AcDbScale
 70
     0
300
1:100
140
1.0
141
100.0
290
     0
  0
SCALE
  5
54
102
{ACAD_REACTORS
330
47
102
}
330
47
100
AcDbScale
 70
     0
300
2:1
140
2.0
141
1.0
290
     0
  0
SCALE
  5
55
102
{ACAD_REACTORS
330
47
102
}
330
47
100
AcDbScale
 70
     0
300
4:1
140
4.0
141
1.0
290
     0
  0
SCALE
  5
56
102
{ACAD_REACTORS
330
47
102
}
330
47
100
AcDbScale
 70
     0
300
8:1
140
8.0
141
1.0
290
     0
  0
SCALE
  5
57
102
{ACAD_REACTORS
330
47
102
}
330
47
100
AcDbScale
 70
     0
300
10:1
140
10.0
141
1.0
290
     0
  0
SCALE
  5
58
102
{ACAD_REACTORS
330
47
102
}
330
47
100
AcDbScale
 70
     0
300
100:1
140
100.0
141
1.0
290
     0
  0
SCALE
  5
59
102
{ACAD_REACTORS
330
47
102
}
330
47
100
AcDbScale
 70
     0
300
1/128" = 1'-0"
140
0.0078125
141
12.0
290
     0
  0
SCALE
  5
5A
102
{ACAD_REACTORS
330
47
102
}
330
47
100
AcDbScale
 70
     0
300
1/64" = 1'-0"
140
0.015625
141
12.0
290
     0
  0
SCALE
  5
5B
102
{ACAD_REACTORS
330
47
102
}
330
47
100
AcDbScale
 70
     0
300
1/32" = 1'-0"
140
0.03125
141
12.0
290
     0
  0
SCALE
  5
5C
102
{ACAD_REACTORS
330
47
102
}
330
47
100
AcDbScale
 70
     0
300
1/16" = 1'-0"
140
0.0625
141
12.0
290
     0
  0
SCALE
  5
5D
102
{ACAD_REACTORS
330
47
102
}
330
47
100
AcDbScale
 70
     0
300
3/32" = 1'-0"
140
0.09375
141
12.0
290
     0
  0
SCALE
  5
5E
102
{ACAD_REACTORS
330
47
102
}
330
47
100
AcDbScale
 70
     0
300
1/8" = 1'-0"
140
0.125
141
12.0
290
     0
  0
SCALE
  5
5F
102
{ACAD_REACTORS
330
47
102
}
330
47
100
AcDbScale
 70
     0
300
3/16" = 1'-0"
140
0.1875
141
12.0
290
     0
  0
SCALE
  5
60
102
{ACAD_REACTORS
330
47
102
}
330
47
100
AcDbScale
 70
     0
300
1/4" = 1'-0"
140
0.25
141
12.0
290
     0
  0
SCALE
  5
61
102
{ACAD_REACTORS
330
47
102
}
330
47
100
AcDbScale
 70
     0
300
3/8" = 1'-0"
140
0.375
141
12.0
290
     0
  0
SCALE
  5
62
102
{ACAD_REACTORS
330
47
102
}
330
47
100
AcDbScale
 70
     0
300
1/2" = 1'-0"
140
0.5
141
12.0
290
     0
  0
SCALE
  5
63
102
{ACAD_REACTORS
330
47
102
}
330
47
100
AcDbScale
 70
     0
300
3/4" = 1'-0"
140
0.75
141
12.0
290
     0
  0
SCALE
  5
64
102
{ACAD_REACTORS
330
47
102
}
330
47
100
AcDbScale
 70
     0
300
1" = 1'-0"
140
1.0
141
12.0
290
     0
  0
SCALE
  5
65
102
{ACAD_REACTORS
330
47
102
}
330
47
100
AcDbScale
 70
     0
300
1-1/2" = 1'-0"
140
1.5
141
12.0
290
     0
  0
SCALE
  5
66
102
{ACAD_REACTORS
330
47
102
}
330
47
100
AcDbScale
 70
     0
300
3" = 1'-0"
140
3.0
141
12.0
290
     0
  0
SCALE
  5
67
102
{ACAD_REACTORS
330
47
102
}
330
47
100
AcDbScale
 70
     0
300
6" = 1'-0"
140
6.0
141
12.0
290
     0
  0
SCALE
  5
68
102
{ACAD_REACTORS
330
47
102
}
330
47
100
AcDbScale
 70
     0
300
1'-0" = 1'-0"
140
12.0
141
12.0
290
     0
  0
TABLESTYLE
  5
6A
102
{ACAD_REACTORS
330
69
102
}
102
{ACAD_XDICTIONARY
360
546
102
}
330
69
100
AcDbTableStyle
  3
Standard
 70
     0
 71
     0
 40
0.06
 41
0.06
280
     0
281
     0
  7
Standard
140
0.18
170
     2
 62
     0
 63
   257
283
     0
 90
        4
 91
        0
  1

274
    -2
284
     1
 64
     0
275
    -2
285
     1
 65
     0
276
    -2
286
     1
 66
     0
277
    -2
287
     1
 67
     0
278
    -2
288
     1
 68
     0
279
    -2
289
     1
 69
     0
  7
Standard
140
0.25
170
     5
 62
     0
 63
   257
283
     0
 90
        4
 91
        0
  1

274
    -2
284
     1
 64
     0
275
    -2
285
     1
 65
     0
276
    -2
286
     1
 66
     0
277
    -2
287
     1
 67
     0
278
    -2
288
     1
 68
     0
279
    -2
289
     1
 69
     0
  7
Standard
140
0.18
170
     5
 62
     0
 63
   257
283
     0
 90
        4
 91
        0
  1

274
    -2
284
     1
 64
     0
275
    -2
285
     1
 65
     0
276
    -2
286
     1
 66
     0
277
    -2
287
     1
 67
     0
278
    -2
288
     1
 68
     0
279
    -2
289
     1
 69
     0
  0
VISUALSTYLE
  5
2F
102
{ACAD_REACTORS
330
2A
102
}
330
2A
100
AcDbVisualStyle
  2
2dWireframe
 70
     4
177
     3
291
     0
 70
    58
 90
        0
176
     1
 90
        2
176
     1
 90
        0
176
     1
 90
        0
176
     1
 40
0.6
176
     1
 40
30.0
176
     1
 62
     7
420
 16777215
176
     1
 90
        1
176
     1
 90
        4
176
     1
 62
     7
176
     1
 62
   257
176
     1
 90
        1
176
     1
 90
        1
176
     1
 40
1.0
176
     1
 90
        0
176
     1
 62
   257
176
     1
 40
1.0
176
     1
 90
        1
176
     1
 90
        6
176
     1
 90
        2
176
     1
 62
     7
176
     1
 90
        5
176
     1
 90
        0
176
     1
 90
        0
176
     1
290
     0
176
     1
 90
        1
176
     1
 40
0.0
176
     1
 90
        0
176
     1
290
     1
176
     1
290
     1
176
     1
290
     0
176
     1
290
     0
176
     1
290
     0
176
     1
290
     0
176
     1
290
     0
176
     1
290
     0
176
     1
290
     0
176
     1
 90
       50
176
     1
 40
0.0
176
     1
 40
1.0
176
     1
 90
        0
176
     1
 62
    18
420
        0
176
     1
 90
       50
176
     1
 90
        3
176
     1
 62
     5
420
      255
176
     1
290
     0
176
     1
 90
       50
176
     1
 90
       50
176
     1
 90
       50
176
     1
290
     0
176
     1
 90
       50
176
     1
 62
   256
176
     0
 40
1.0
176
     0
 90
        2
176
     1
  1
strokes_ogs.tif
176
     1
290
     0
176
     1
 40
1.0
176
     1
 40
1.0
176
     1
  0
VISUALSTYLE
  5
32
102
{ACAD_REACTORS
330
2A
102
}
330
2A
100
AcDbVisualStyle
  2
Basic
 70
     7
177
     3
291
     1
 70
    58
 90
        1
176
     1
 90
        0
176
     1
 90
        1
176
     1
 90
        0
176
     1
 40
0.6
176
     1
 40
30.0
176
     1
 62
     7
420
 16777215
176
     1
 90
        0
176
     1
 90
        4
176
     1
 62
     7
176
     1
 62
   257
176
     1
 90
        1
176
     1
 90
        1
176
     1
 40
1.0
176
     1
 90
        8
176
     1
 62
     7
176
     1
 40
1.0
176
     1
 90
        1
176
     1
 90
        6
176
     1
 90
        2
176
     1
 62
     7
176
     1
 90
        5
176
     1
 90
        0
176
     1
 90
        0
176
     1
290
     0
176
     1
 90
        1
176
     1
 40
0.0
176
     1
 90
        0
176
     1
290
     0
176
     1
290
     1
176
     1
290
     1
176
     1
290
     0
176
     1
290
     0
176
     1
290
     0
176
     1
290
     0
176
     1
290
     0
176
     1
290
     0
176
     1
 90
       50
176
     1
 40
0.0
176
     1
 40
1.0
176
     1
 90
        0
176
     1
 62
    18
420
        0
176
     1
 90
       50
176
     1
 90
        3
176
     1
 62
     5
420
      255
176
     1
290
     0
176
     1
 90
       50
176
     1
 90
       50
176
     1
 90
       50
176
     1
290
     0
176
     1
 90
       50
176
     1
 62
   256
176
     0
 40
1.0
176
     0
 90
        2
176
     1
  1
strokes_ogs.tif
176
     1
290
     0
176
     1
 40
1.0
176
     1
 40
1.0
176
     1
  0
VISUALSTYLE
  5
36
102
{ACAD_REACTORS
330
2A
102
}
330
2A
100
AcDbVisualStyle
  2
Brighten
 70
    12
177
     3
291
     1
 70
    58
 90
        2
176
     1
 90
        2
176
     1
 90
        0
176
     1
 90
        0
176
     1
 40
0.6
176
     1
 40
30.0
176
     1
 62
     7
420
 16777215
176
     1
 90
        1
176
     1
 90
        4
176
     1
 62
     7
176
     1
 62
   257
176
     1
 90
        1
176
     1
 90
        1
176
     1
 40
1.0
176
     1
 90
        8
176
     1
 62
     7
176
     1
 40
1.0
176
     1
 90
        1
176
     1
 90
        6
176
     1
 90
        2
176
     1
 62
     7
176
     1
 90
        5
176
     1
 90
        0
176
     1
 90
        0
176
     1
290
     0
176
     1
 90
        1
176
     1
 40
50.0
176
     1
 90
        0
176
     1
290
     0
176
     1
290
     1
176
     1
290
     1
176
     1
290
     0
176
     1
290
     0
176
     1
290
     0
176
     1
290
     0
176
     1
290
     0
176
     1
290
     0
176
     1
 90
       50
176
     1
 40
0.0
176
     1
 40
1.0
176
     1
 90
        0
176
     1
 62
    18
420
        0
176
     1
 90
       50
176
     1
 90
        3
176
     1
 62
     5
420
      255
176
     1
290
     0
176
     1
 90
       50
176
     1
 90
       50
176
     1
 90
       50
176
     1
290
     0
176
     1
 90
       50
176
     1
 62
   256
176
     0
 40
1.0
176
     0
 90
        2
176
     1
  1
strokes_ogs.tif
176
     1
290
     0
176
     1
 40
1.0
176
     1
 40
1.0
176
     1
  0
VISUALSTYLE
  5
3A
102
{ACAD_REACTORS
330
2A
102
}
330
2A
100
AcDbVisualStyle
  2
ColorChange
 70
    16
177
     3
291
     1
 70
    58
 90
        2
176
     1
 90
        2
176
     1
 90
        3
176
     1
 90
        0
176
     1
 40
0.6
176
     1
 40
30.0
176
     1
 62
     8
420
  8421504
176
     1
 90
        1
176
     1
 90
        4
176
     1
 62
     7
176
     1
 62
   257
176
     1
 90
        1
176
     1
 90
        1
176
     1
 40
1.0
176
     1
 90
        8
176
     1
 62
     8
420
  8421504
176
     1
 40
1.0
176
     1
 90
        1
176
     1
 90
        6
176
     1
 90
        2
176
     1
 62
     7
176
     1
 90
        5
176
     1
 90
        0
176
     1
 90
        0
176
     1
290
     0
176
     1
 90
        1
176
     1
 40
0.0
176
     1
 90
        0
176
     1
290
     0
176
     1
290
     1
176
     1
290
     1
176
     1
290
     0
176
     1
290
     0
176
     1
290
     0
176
     1
290
     0
176
     1
290
     0
176
     1
290
     0
176
     1
 90
       50
176
     1
 40
0.0
176
     1
 40
1.0
176
     1
 90
        0
176
     1
 62
    18
420
        0
176
     1
 90
       50
176
     1
 90
        3
176
     1
 62
     5
420
      255
176
     1
290
     0
176
     1
 90
       50
176
     1
 90
       50
176
     1
 90
       50
176
     1
290
     0
176
     1
 90
       50
176
     1
 62
   256
176
     0
 40
1.0
176
     0
 90
        2
176
     1
  1
strokes_ogs.tif
176
     1
290
     0
176
     1
 40
1.0
176
     1
 40
1.0
176
     1
  0
VISUALSTYLE
  5
34
102
{ACAD_REACTORS
330
2A
102
}
330
2A
100
AcDbVisualStyle
  2
Conceptual
 70
     9
177
     3
291
     0
 70
    58
 90
        3
176
     1
 90
        2
176
     1
 90
        0
176
     1
 90
        0
176
     1
 40
0.6
176
     1
 40
30.0
176
     1
 62
     7
420
 16777215
176
     1
 90
        2
176
     1
 90
        2
176
     1
 62
     7
176
     1
 62
   257
176
     1
 90
        1
176
     1
 90
        1
176
     1
 40
179.0
176
     1
 90
        8
176
     1
 62
     7
176
     1
 40
1.0
176
     1
 90
        1
176
     1
 90
        6
176
     1
 90
        2
176
     1
 62
     7
176
     1
 90
        3
176
     1
 90
        0
176
     1
 90
        0
176
     1
290
     0
176
     1
 90
        1
176
     1
 40
0.0
176
     1
 90
        0
176
     1
290
     0
176
     1
290
     1
176
     1
290
     1
176
     1
290
     0
176
     1
290
     0
176
     1
290
     0
176
     1
290
     0
176
     1
290
     0
176
     1
290
     0
176
     1
 90
       50
176
     1
 40
0.0
176
     1
 40
1.0
176
     1
 90
        0
176
     1
 62
    18
420
        0
176
     1
 90
       50
176
     1
 90
        3
176
     1
 62
     5
420
      255
176
     1
290
     0
176
     1
 90
       50
176
     1
 90
       50
176
     1
 90
       50
176
     1
290
     0
176
     1
 90
       50
176
     1
 62
   256
176
     0
 40
1.0
176
     0
 90
        2
176
     1
  1
strokes_ogs.tif
176
     1
290
     0
176
     1
 40
1.0
176
     1
 40
1.0
176
     1
  0
VISUALSTYLE
  5
35
102
{ACAD_REACTORS
330
2A
102
}
330
2A
100
AcDbVisualStyle
  2
Dim
 70
    11
177
     3
291
     1
 70
    58
 90
        2
176
     1
 90
        2
176
     1
 90
        0
176
     1
 90
        0
176
     1
 40
0.6
176
     1
 40
30.0
176
     1
 62
     7
420
 16777215
176
     1
 90
        1
176
     1
 90
        4
176
     1
 62
     7
176
     1
 62
   257
176
     1
 90
        1
176
     1
 90
        1
176
     1
 40
1.0
176
     1
 90
        8
176
     1
 62
     7
176
     1
 40
1.0
176
     1
 90
        1
176
     1
 90
        6
176
     1
 90
        2
176
     1
 62
     7
176
     1
 90
        5
176
     1
 90
        0
176
     1
 90
        0
176
     1
290
     0
176
     1
 90
        1
176
     1
 40
-50.0
176
     1
 90
        0
176
     1
290
     0
176
     1
290
     1
176
     1
290
     1
176
     1
290
     0
176
     1
290
     0
176
     1
290
     0
176
     1
290
     0
176
     1
290
     0
176
     1
290
     0
176
     1
 90
       50
176
     1
 40
0.0
176
     1
 40
1.0
176
     1
 90
        0
176
     1
 62
    18
420
        0
176
     1
 90
       50
176
     1
 90
        3
176
     1
 62
     5
420
      255
176
     1
290
     0
176
     1
 90
       50
176
     1
 90
       50
176
     1
 90
       50
176
     1
290
     0
176
     1
 90
       50
176
     1
 62
   256
176
     0
 40
1.0
176
     0
 90
        2
176
     1
  1
strokes_ogs.tif
176
     1
290
     0
176
     1
 40
1.0
176
     1
 40
1.0
176
     1
  0
VISUALSTYLE
  5
3D
102
{ACAD_REACTORS
330
2A
102
}
330
2A
100
AcDbVisualStyle
  2
EdgeColorOff
 70
    22
177
     3
291
     1
 70
    58
 90
        2
176
     0
 90
        2
176
     0
 90
        0
176
     0
 90
        0
176
     0
 40
0.6
176
     0
 40
30.0
176
     0
 62
     7
420
 16777215
176
     0
 90
        1
176
     0
 90
        4
176
     0
 62
     7
176
     0
 62
   257
176
     0
 90
        1
176
     0
 90
        1
176
     0
 40
1.0
176
     0
 90
        8
176
     2
 62
     7
176
     0
 40
1.0
176
     0
 90
        1
176
     0
 90
        6
176
     0
 90
        2
176
     0
 62
     7
176
     0
 90
        5
176
     0
 90
        0
176
     0
 90
        0
176
     0
290
     0
176
     0
 90
        1
176
     0
 40
0.0
176
     0
 90
        0
176
     0
290
     0
176
     0
290
     1
176
     0
290
     1
176
     0
290
     0
176
     0
290
     0
176
     0
290
     0
176
     0
290
     0
176
     0
290
     0
176
     0
290
     0
176
     0
 90
       50
176
     0
 40
0.0
176
     0
 40
1.0
176
     0
 90
        0
176
     0
 62
    18
420
        0
176
     0
 90
       50
176
     0
 90
        3
176
     0
 62
     5
420
      255
176
     0
290
     0
176
     0
 90
       50
176
     0
 90
       50
176
     0
 90
       50
176
     0
290
     0
176
     0
 90
       50
176
     0
 62
   256
176
     0
 40
1.0
176
     0
 90
        2
176
     0
  1
strokes_ogs.tif
176
     0
290
     0
176
     0
 40
1.0
176
     0
 40
1.0
176
     0
  0
VISUALSTYLE
  5
39
102
{ACAD_REACTORS
330
2A
102
}
330
2A
100
AcDbVisualStyle
  2
Facepattern
 70
    15
177
     3
291
     1
 70
    58
 90
        2
176
     1
 90
        2
176
     1
 90
        0
176
     1
 90
        0
176
     1
 40
0.6
176
     1
 40
30.0
176
     1
 62
     7
420
 16777215
176
     1
 90
        1
176
     1
 90
        4
176
     1
 62
     7
176
     1
 62
   257
176
     1
 90
        1
176
     1
 90
        1
176
     1
 40
1.0
176
     1
 90
        8
176
     1
 62
     7
176
     1
 40
1.0
176
     1
 90
        1
176
     1
 90
        6
176
     1
 90
        2
176
     1
 62
     7
176
     1
 90
        5
176
     1
 90
        0
176
     1
 90
        0
176
     1
290
     0
176
     1
 90
        1
176
     1
 40
0.0
176
     1
 90
        0
176
     1
290
     0
176
     1
290
     1
176
     1
290
     1
176
     1
290
     0
176
     1
290
     0
176
     1
290
     0
176
     1
290
     0
176
     1
290
     0
176
     1
290
     0
176
     1
 90
       50
176
     1
 40
0.0
176
     1
 40
1.0
176
     1
 90
        0
176
     1
 62
    18
420
        0
176
     1
 90
       50
176
     1
 90
        3
176
     1
 62
     5
420
      255
176
     1
290
     0
176
     1
 90
       50
176
     1
 90
       50
176
     1
 90
       50
176
     1
290
     0
176
     1
 90
       50
176
     1
 62
   256
176
     0
 40
1.0
176
     0
 90
        2
176
     1
  1
strokes_ogs.tif
176
     1
290
     0
176
     1
 40
1.0
176
     1
 40
1.0
176
     1
  0
VISUALSTYLE
  5
2B
102
{ACAD_REACTORS
330
2A
102
}
330
2A
100
AcDbVisualStyle
  2
Flat
 70
     0
177
     3
291
     1
 70
    58
 90
        2
176
     1
 90
        1
176
     1
 90
        1
176
     1
 90
        2
176
     1
 40
0.6
176
     1
 40
30.0
176
     1
 62
     7
420
 16777215
176
     1
 90
        0
176
     1
 90
        0
176
     1
 62
     7
176
     1
 62
   257
176
     1
 90
        1
176
     1
 90
        1
176
     1
 40
1.0
176
     1
 90
        8
176
     1
 62
     7
176
     1
 40
1.0
176
     1
 90
        1
176
     1
 90
        6
176
     1
 90
        2
176
     1
 62
     7
176
     1
 90
        5
176
     1
 90
        0
176
     1
 90
        0
176
     1
290
     0
176
     1
 90
       13
176
     1
 40
0.0
176
     1
 90
        0
176
     1
290
     0
176
     1
290
     1
176
     1
290
     1
176
     1
290
     0
176
     1
290
     0
176
     1
290
     0
176
     1
290
     0
176
     1
290
     0
176
     1
290
     0
176
     1
 90
       50
176
     1
 40
0.0
176
     1
 40
1.0
176
     1
 90
        0
176
     1
 62
    18
420
        0
176
     1
 90
       50
176
     1
 90
        3
176
     1
 62
     5
420
      255
176
     1
290
     0
176
     1
 90
       50
176
     1
 90
       50
176
     1
 90
       50
176
     1
290
     0
176
     1
 90
       50
176
     1
 62
   256
176
     0
 40
1.0
176
     0
 90
        2
176
     1
  1
strokes_ogs.tif
176
     1
290
     0
176
     1
 40
1.0
176
     1
 40
1.0
176
     1
  0
VISUALSTYLE
  5
2C
102
{ACAD_REACTORS
330
2A
102
}
330
2A
100
AcDbVisualStyle
  2
FlatWithEdges
 70
     1
177
     3
291
     1
 70
    58
 90
        2
176
     1
 90
        1
176
     1
 90
        1
176
     1
 90
        2
176
     1
 40
0.6
176
     1
 40
30.0
176
     1
 62
     7
420
 16777215
176
     1
 90
        1
176
     1
 90
        0
176
     1
 62
     7
176
     1
 62
   257
176
     1
 90
        1
176
     1
 90
        1
176
     1
 40
1.0
176
     1
 90
        0
176
     1
 62
   257
176
     1
 40
1.0
176
     1
 90
        1
176
     1
 90
        6
176
     1
 90
        2
176
     1
 62
     7
176
     1
 90
        5
176
     1
 90
        0
176
     1
 90
        0
176
     1
290
     0
176
     1
 90
       13
176
     1
 40
0.0
176
     1
 90
        0
176
     1
290
     0
176
     1
290
     1
176
     1
290
     1
176
     1
290
     0
176
     1
290
     0
176
     1
290
     0
176
     1
290
     0
176
     1
290
     0
176
     1
290
     0
176
     1
 90
       50
176
     1
 40
0.0
176
     1
 40
1.0
176
     1
 90
        0
176
     1
 62
    18
420
        0
176
     1
 90
       50
176
     1
 90
        3
176
     1
 62
     5
420
      255
176
     1
290
     0
176
     1
 90
       50
176
     1
 90
       50
176
     1
 90
       50
176
     1
290
     0
176
     1
 90
       50
176
     1
 62
   256
176
     0
 40
1.0
176
     0
 90
        2
176
     1
  1
strokes_ogs.tif
176
     1
290
     0
176
     1
 40
1.0
176
     1
 40
1.0
176
     1
  0
VISUALSTYLE
  5
2D
102
{ACAD_REACTORS
330
2A
102
}
330
2A
100
AcDbVisualStyle
  2
Gouraud
 70
     2
177
     3
291
     1
 70
    58
 90
        2
176
     1
 90
        2
176
     1
 90
        1
176
     1
 90
        2
176
     1
 40
0.6
176
     1
 40
30.0
176
     1
 62
     7
420
 16777215
176
     1
 90
        0
176
     1
 90
        0
176
     1
 62
     7
176
     1
 62
   257
176
     1
 90
        1
176
     1
 90
        1
176
     1
 40
1.0
176
     1
 90
        0
176
     1
 62
     7
176
     1
 40
1.0
176
     1
 90
        1
176
     1
 90
        6
176
     1
 90
        2
176
     1
 62
     7
176
     1
 90
        5
176
     1
 90
        0
176
     1
 90
        0
176
     1
290
     0
176
     1
 90
       13
176
     1
 40
0.0
176
     1
 90
        0
176
     1
290
     0
176
     1
290
     1
176
     1
290
     1
176
     1
290
     0
176
     1
290
     0
176
     1
290
     0
176
     1
290
     0
176
     1
290
     0
176
     1
290
     0
176
     1
 90
       50
176
     1
 40
0.0
176
     1
 40
1.0
176
     1
 90
        0
176
     1
 62
    18
420
        0
176
     1
 90
       50
176
     1
 90
        3
176
     1
 62
     5
420
      255
176
     1
290
     0
176
     1
 90
       50
176
     1
 90
       50
176
     1
 90
       50
176
     1
290
     0
176
     1
 90
       50
176
     1
 62
   256
176
     0
 40
1.0
176
     0
 90
        2
176
     1
  1
strokes_ogs.tif
176
     1
290
     0
176
     1
 40
1.0
176
     1
 40
1.0
176
     1
  0
VISUALSTYLE
  5
2E
102
{ACAD_REACTORS
330
2A
102
}
330
2A
100
AcDbVisualStyle
  2
GouraudWithEdges
 70
     3
177
     3
291
     1
 70
    58
 90
        2
176
     1
 90
        2
176
     1
 90
        1
176
     1
 90
        2
176
     1
 40
0.6
176
     1
 40
30.0
176
     1
 62
     7
420
 16777215
176
     1
 90
        1
176
     1
 90
        0
176
     1
 62
     7
176
     1
 62
   257
176
     1
 90
        1
176
     1
 90
        1
176
     1
 40
1.0
176
     1
 90
        0
176
     1
 62
   257
176
     1
 40
1.0
176
     1
 90
        1
176
     1
 90
        6
176
     1
 90
        2
176
     1
 62
     7
176
     1
 90
        5
176
     1
 90
        0
176
     1
 90
        0
176
     1
290
     0
176
     1
 90
       13
176
     1
 40
0.0
176
     1
 90
        0
176
     1
290
     0
176
     1
290
     1
176
     1
290
     1
176
     1
290
     0
176
     1
290
     0
176
     1
290
     0
176
     1
290
     0
176
     1
290
     0
176
     1
290
     0
176
     1
 90
       50
176
     1
 40
0.0
176
     1
 40
1.0
176
     1
 90
        0
176
     1
 62
    18
420
        0
176
     1
 90
       50
176
     1
 90
        3
176
     1
 62
     5
420
      255
176
     1
290
     0
176
     1
 90
       50
176
     1
 90
       50
176
     1
 90
       50
176
     1
290
     0
176
     1
 90
       50
176
     1
 62
   256
176
     0
 40
1.0
176
     0
 90
        2
176
     1
  1
strokes_ogs.tif
176
     1
290
     0
176
     1
 40
1.0
176
     1
 40
1.0
176
     1
  0
VISUALSTYLE
  5
31
102
{ACAD_REACTORS
330
2A
102
}
330
2A
100
AcDbVisualStyle
  2
Hidden
 70
     6
177
     3
291
     0
 70
    58
 90
        1
176
     1
 90
        2
176
     1
 90
        2
176
     1
 90
        0
176
     1
 40
0.6
176
     1
 40
30.0
176
     1
 62
     7
420
 16777215
176
     1
 90
        2
176
     1
 90
        2
176
     1
 62
     7
176
     1
 62
   257
176
     1
 90
        2
176
     1
 90
        1
176
     1
 40
40.0
176
     1
 90
        0
176
     1
 62
   257
176
     1
 40
1.0
176
     1
 90
        1
176
     1
 90
        6
176
     1
 90
        2
176
     1
 62
     7
176
     1
 90
        3
176
     1
 90
        0
176
     1
 90
        0
176
     1
290
     0
176
     1
 90
        1
176
     1
 40
0.0
176
     1
 90
        0
176
     1
290
     0
176
     1
290
     1
176
     1
290
     1
176
     1
290
     0
176
     1
290
     0
176
     1
290
     0
176
     1
290
     0
176
     1
290
     0
176
     1
290
     0
176
     1
 90
       50
176
     1
 40
0.0
176
     1
 40
1.0
176
     1
 90
        0
176
     1
 62
    18
420
        0
176
     1
 90
       50
176
     1
 90
        3
176
     1
 62
     5
420
      255
176
     1
290
     0
176
     1
 90
       50
176
     1
 90
       50
176
     1
 90
       50
176
     1
290
     0
176
     1
 90
       50
176
     1
 62
   256
176
     0
 40
1.0
176
     0
 90
        2
176
     1
  1
strokes_ogs.tif
176
     1
290
     0
176
     1
 40
1.0
176
     1
 40
1.0
176
     1
  0
VISUALSTYLE
  5
3B
102
{ACAD_REACTORS
330
2A
102
}
330
2A
100
AcDbVisualStyle
  2
JitterOff
 70
    20
177
     3
291
     1
 70
    58
 90
        2
176
     0
 90
        2
176
     0
 90
        0
176
     0
 90
        0
176
     0
 40
0.6
176
     0
 40
30.0
176
     0
 62
     7
420
 16777215
176
     0
 90
        1
176
     0
 90
        4
176
     0
 62
     7
176
     0
 62
   257
176
     0
 90
        1
176
     0
 90
        1
176
     0
 40
1.0
176
     0
 90
       10
176
     2
 62
     7
176
     0
 40
1.0
176
     0
 90
        1
176
     0
 90
        6
176
     0
 90
        2
176
     0
 62
     7
176
     0
 90
        5
176
     0
 90
        0
176
     0
 90
        0
176
     0
290
     0
176
     0
 90
        1
176
     0
 40
0.0
176
     0
 90
        0
176
     0
290
     0
176
     0
290
     1
176
     0
290
     1
176
     0
290
     0
176
     0
290
     0
176
     0
290
     0
176
     0
290
     0
176
     0
290
     0
176
     0
290
     0
176
     0
 90
       50
176
     0
 40
0.0
176
     0
 40
1.0
176
     0
 90
        0
176
     0
 62
    18
420
        0
176
     0
 90
       50
176
     0
 90
        3
176
     0
 62
     5
420
      255
176
     0
290
     0
176
     0
 90
       50
176
     0
 90
       50
176
     0
 90
       50
176
     0
290
     0
176
     0
 90
       50
176
     0
 62
   256
176
     0
 40
1.0
176
     0
 90
        2
176
     0
  1
strokes_ogs.tif
176
     0
290
     0
176
     0
 40
1.0
176
     0
 40
1.0
176
     0
  0
VISUALSTYLE
  5
38
102
{ACAD_REACTORS
330
2A
102
}
330
2A
100
AcDbVisualStyle
  2
Linepattern
 70
    14
177
     3
291
     1
 70
    58
 90
        2
176
     1
 90
        2
176
     1
 90
        0
176
     1
 90
        0
176
     1
 40
0.6
176
     1
 40
30.0
176
     1
 62
     7
420
 16777215
176
     1
 90
        1
176
     1
 90
        4
176
     1
 62
     7
176
     1
 62
   257
176
     1
 90
        7
176
     1
 90
        7
176
     1
 40
1.0
176
     1
 90
        8
176
     1
 62
     7
176
     1
 40
1.0
176
     1
 90
        1
176
     1
 90
        6
176
     1
 90
        2
176
     1
 62
     7
176
     1
 90
        5
176
     1
 90
        0
176
     1
 90
        0
176
     1
290
     0
176
     1
 90
        1
176
     1
 40
0.0
176
     1
 90
        0
176
     1
290
     0
176
     1
290
     1
176
     1
290
     1
176
     1
290
     0
176
     1
290
     0
176
     1
290
     0
176
     1
290
     0
176
     1
290
     0
176
     1
290
     0
176
     1
 90
       50
176
     1
 40
0.0
176
     1
 40
1.0
176
     1
 90
        0
176
     1
 62
    18
420
        0
176
     1
 90
       50
176
     1
 90
        3
176
     1
 62
     5
420
      255
176
     1
290
     0
176
     1
 90
       50
176
     1
 90
       50
176
     1
 90
       50
176
     1
290
     0
176
     1
 90
       50
176
     1
 62
   256
176
     0
 40
1.0
176
     0
 90
        2
176
     1
  1
strokes_ogs.tif
176
     1
290
     0
176
     1
 40
1.0
176
     1
 40
1.0
176
     1
  0
VISUALSTYLE
  5
3C
102
{ACAD_REACTORS
330
2A
102
}
330
2A
100
AcDbVisualStyle
  2
OverhangOff
 70
    21
177
     3
291
     1
 70
    58
 90
        2
176
     0
 90
        2
176
     0
 90
        0
176
     0
 90
        0
176
     0
 40
0.6
176
     0
 40
30.0
176
     0
 62
     7
420
 16777215
176
     0
 90
        1
176
     0
 90
        4
176
     0
 62
     7
176
     0
 62
   257
176
     0
 90
        1
176
     0
 90
        1
176
     0
 40
1.0
176
     0
 90
        9
176
     2
 62
     7
176
     0
 40
1.0
176
     0
 90
        1
176
     0
 90
        6
176
     0
 90
        2
176
     0
 62
     7
176
     0
 90
        5
176
     0
 90
        0
176
     0
 90
        0
176
     0
290
     0
176
     0
 90
        1
176
     0
 40
0.0
176
     0
 90
        0
176
     0
290
     0
176
     0
290
     1
176
     0
290
     1
176
     0
290
     0
176
     0
290
     0
176
     0
290
     0
176
     0
290
     0
176
     0
290
     0
176
     0
290
     0
176
     0
 90
       50
176
     0
 40
0.0
176
     0
 40
1.0
176
     0
 90
        0
176
     0
 62
    18
420
        0
176
     0
 90
       50
176
     0
 90
        3
176
     0
 62
     5
420
      255
176
     0
290
     0
176
     0
 90
       50
176
     0
 90
       50
176
     0
 90
       50
176
     0
290
     0
176
     0
 90
       50
176
     0
 62
   256
176
     0
 40
1.0
176
     0
 90
        2
176
     0
  1
strokes_ogs.tif
176
     0
290
     0
176
     0
 40
1.0
176
     0
 40
1.0
176
     0
  0
VISUALSTYLE
  5
33
102
{ACAD_REACTORS
330
2A
102
}
330
2A
100
AcDbVisualStyle
  2
Realistic
 70
     8
177
     3
291
     0
 70
    58
 90
        2
176
     1
 90
        3
176
     1
 90
        0
176
     1
 90
        2
176
     1
 40
0.6
176
     1
 40
30.0
176
     1
 62
     7
420
 16777215
176
     1
 90
        0
176
     1
 90
        0
176
     1
 62
     7
176
     1
 62
   257
176
     1
 90
        1
176
     1
 90
        1
176
     1
 40
1.0
176
     1
 90
        8
176
     1
 62
   257
176
     1
 40
1.0
176
     1
 90
        1
176
     1
 90
        6
176
     1
 90
        2
176
     1
 62
     7
176
     1
 90
        3
176
     1
 90
        0
176
     1
 90
        0
176
     1
290
     0
176
     1
 90
       13
176
     1
 40
0.0
176
     1
 90
        0
176
     1
290
     0
176
     1
290
     1
176
     1
290
     1
176
     1
290
     0
176
     1
290
     0
176
     1
290
     0
176
     1
290
     0
176
     1
290
     0
176
     1
290
     0
176
     1
 90
       50
176
     1
 40
0.0
176
     1
 40
1.0
176
     1
 90
        0
176
     1
 62
    18
420
        0
176
     1
 90
       50
176
     1
 90
        3
176
     1
 62
     5
420
      255
176
     1
290
     0
176
     1
 90
       50
176
     1
 90
       50
176
     1
 90
       50
176
     1
290
     0
176
     1
 90
       50
176
     1
 62
   256
176
     0
 40
1.0
176
     0
 90
        2
176
     1
  1
strokes_ogs.tif
176
     1
290
     0
176
     1
 40
1.0
176
     1
 40
1.0
176
     1
  0
VISUALSTYLE
  5
42
102
{ACAD_REACTORS
330
2A
102
}
330
2A
100
AcDbVisualStyle
  2
Shaded
 70
    27
177
     3
291
     0
 70
    58
 90
        2
176
     1
 90
        2
176
     1
 90
        1
176
     1
 90
        2
176
     1
 40
0.6
176
     1
 40
30.0
176
     1
 62
     7
420
 16777215
176
     1
 90
        0
176
     1
 90
        4
176
     1
 62
     7
176
     1
 62
   257
176
     1
 90
        1
176
     1
 90
        1
176
     1
 40
1.0
176
     1
 90
        8
176
     1
 62
   257
176
     1
 40
1.0
176
     1
 90
        1
176
     1
 90
        6
176
     1
 90
        2
176
     1
 62
     8
420
  7895160
176
     1
 90
        3
176
     1
 90
        0
176
     1
 90
        0
176
     1
290
     0
176
     1
 90
        5
176
     1
 40
0.0
176
     1
 90
        0
176
     1
290
     0
176
     1
290
     1
176
     1
290
     1
176
     1
290
     0
176
     1
290
     0
176
     1
290
     0
176
     1
290
     0
176
     1
290
     0
176
     1
290
     0
176
     1
 90
       50
176
     1
 40
0.0
176
     1
 40
1.0
176
     1
 90
        0
176
     1
 62
    18
420
        0
176
     1
 90
       50
176
     1
 90
        3
176
     1
 62
     5
420
      255
176
     1
290
     0
176
     1
 90
       50
176
     1
 90
       50
176
     1
 90
       50
176
     1
290
     0
176
     1
 90
       50
176
     1
 62
   256
176
     0
 40
1.0
176
     0
 90
        2
176
     1
  1
strokes_ogs.tif
176
     1
290
     0
176
     1
 40
1.0
176
     1
 40
1.0
176
     1
  0
VISUALSTYLE
  5
41
102
{ACAD_REACTORS
330
2A
102
}
330
2A
100
AcDbVisualStyle
  2
Shaded with edges
 70
    26
177
     3
291
     0
 70
    58
 90
        2
176
     1
 90
        2
176
     1
 90
        1
176
     1
 90
        2
176
     1
 40
0.6
176
     1
 40
30.0
176
     1
 62
     7
420
 16777215
176
     1
 90
        1
176
     1
 90
       10
176
     1
 62
     7
176
     1
 62
   257
176
     1
 90
        2
176
     1
 90
        1
176
     1
 40
1.0
176
     1
 90
        8
176
     1
 62
   257
176
     1
 40
1.0
176
     1
 90
        1
176
     1
 90
        6
176
     1
 90
        2
176
     1
 62
     7
176
     1
 90
        3
176
     1
 90
        0
176
     1
 90
        0
176
     1
290
     0
176
     1
 90
        5
176
     1
 40
0.0
176
     1
 90
        0
176
     1
290
     0
176
     1
290
     1
176
     1
290
     1
176
     1
290
     0
176
     1
290
     0
176
     1
290
     0
176
     1
290
     0
176
     1
290
     0
176
     1
290
     0
176
     1
 90
       50
176
     1
 40
0.0
176
     1
 40
1.0
176
     1
 90
        0
176
     1
 62
    18
420
        0
176
     1
 90
       50
176
     1
 90
        3
176
     1
 62
     5
420
      255
176
     1
290
     0
176
     1
 90
       50
176
     1
 90
       50
176
     1
 90
       50
176
     1
290
     0
176
     1
 90
       50
176
     1
 62
   256
176
     0
 40
1.0
176
     0
 90
        2
176
     1
  1
strokes_ogs.tif
176
     1
290
     0
176
     1
 40
1.0
176
     1
 40
1.0
176
     1
  0
VISUALSTYLE
  5
3E
102
{ACAD_REACTORS
330
2A
102
}
330
2A
100
AcDbVisualStyle
  2
Shades of Gray
 70
    23
177
     3
291
     0
 70
    58
 90
        2
176
     1
 90
        2
176
     1
 90
        3
176
     1
 90
        0
176
     1
 40
0.6
176
     1
 40
30.0
176
     1
 62
     7
420
 16777215
176
     1
 90
        2
176
     1
 90
        2
176
     1
 62
     7
176
     1
 62
     7
176
     1
 90
        1
176
     1
 90
        1
176
     1
 40
40.0
176
     1
 90
        8
176
     1
 62
     7
176
     1
 40
1.0
176
     1
 90
        1
176
     1
 90
        6
176
     1
 90
        2
176
     1
 62
     7
176
     1
 90
        3
176
     1
 90
        0
176
     1
 90
        0
176
     1
290
     0
176
     1
 90
        1
176
     1
 40
0.0
176
     1
 90
        0
176
     1
290
     0
176
     1
290
     1
176
     1
290
     1
176
     1
290
     0
176
     1
290
     0
176
     1
290
     0
176
     1
290
     0
176
     1
290
     0
176
     1
290
     0
176
     1
 90
       50
176
     1
 40
0.0
176
     1
 40
1.0
176
     1
 90
        0
176
     1
 62
    18
420
        0
176
     1
 90
       50
176
     1
 90
        3
176
     1
 62
     5
420
      255
176
     1
290
     0
176
     1
 90
       50
176
     1
 90
       50
176
     1
 90
       50
176
     1
290
     0
176
     1
 90
       50
176
     1
 62
   256
176
     0
 40
1.0
176
     0
 90
        2
176
     1
  1
strokes_ogs.tif
176
     1
290
     0
176
     1
 40
1.0
176
     1
 40
1.0
176
     1
  0
VISUALSTYLE
  5
3F
102
{ACAD_REACTORS
330
2A
102
}
330
2A
100
AcDbVisualStyle
  2
Sketchy
 70
    24
177
     3
291
     0
 70
    58
 90
        1
176
     1
 90
        2
176
     1
 90
        2
176
     1
 90
        0
176
     1
 40
0.6
176
     1
 40
30.0
176
     1
 62
     7
420
 16777215
176
     1
 90
        2
176
     1
 90
        2
176
     1
 62
     7
176
     1
 62
     7
176
     1
 90
        1
176
     1
 90
        1
176
     1
 40
40.0
176
     1
 90
       11
176
     1
 62
     7
176
     1
 40
1.0
176
     1
 90
        1
176
     1
 90
        6
176
     1
 90
        2
176
     1
 62
     7
176
     1
 90
        6
176
     1
 90
        0
176
     1
 90
        0
176
     1
290
     0
176
     1
 90
        1
176
     1
 40
0.0
176
     1
 90
        0
176
     1
290
     0
176
     1
290
     1
176
     1
290
     1
176
     1
290
     0
176
     1
290
     0
176
     1
290
     0
176
     1
290
     0
176
     1
290
     0
176
     1
290
     0
176
     1
 90
       50
176
     1
 40
0.0
176
     1
 40
1.0
176
     1
 90
        0
176
     1
 62
    18
420
        0
176
     1
 90
       50
176
     1
 90
        3
176
     1
 62
     5
420
      255
176
     1
290
     0
176
     1
 90
       50
176
     1
 90
       50
176
     1
 90
       50
176
     1
290
     0
176
     1
 90
       50
176
     1
 62
   256
176
     0
 40
1.0
176
     0
 90
        2
176
     1
  1
strokes_ogs.tif
176
     1
290
     0
176
     1
 40
1.0
176
     1
 40
1.0
176
     1
  0
VISUALSTYLE
  5
37
102
{ACAD_REACTORS
330
2A
102
}
330
2A
100
AcDbVisualStyle
  2
Thicken
 70
    13
177
     3
291
     1
 70
    58
 90
        2
176
     1
 90
        2
176
     1
 90
        0
176
     1
 90
        0
176
     1
 40
0.6
176
     1
 40
30.0
176
     1
 62
     7
420
 16777215
176
     1
 90
        1
176
     1
 90
        4
176
     1
 62
     7
176
     1
 62
   257
176
     1
 90
        1
176
     1
 90
        1
176
     1
 40
1.0
176
     1
 90
       12
176
     1
 62
     7
176
     1
 40
1.0
176
     1
 90
        1
176
     1
 90
        6
176
     1
 90
        2
176
     1
 62
     7
176
     1
 90
        5
176
     1
 90
        0
176
     1
 90
        0
176
     1
290
     0
176
     1
 90
        1
176
     1
 40
0.0
176
     1
 90
        0
176
     1
290
     0
176
     1
290
     1
176
     1
290
     1
176
     1
290
     0
176
     1
290
     0
176
     1
290
     0
176
     1
290
     0
176
     1
290
     0
176
     1
290
     0
176
     1
 90
       50
176
     1
 40
0.0
176
     1
 40
1.0
176
     1
 90
        0
176
     1
 62
    18
420
        0
176
     1
 90
       50
176
     1
 90
        3
176
     1
 62
     5
420
      255
176
     1
290
     0
176
     1
 90
       50
176
     1
 90
       50
176
     1
 90
       50
176
     1
290
     0
176
     1
 90
       50
176
     1
 62
   256
176
     0
 40
1.0
176
     0
 90
        2
176
     1
  1
strokes_ogs.tif
176
     1
290
     0
176
     1
 40
1.0
176
     1
 40
1.0
176
     1
  0
VISUALSTYLE
  5
30
102
{ACAD_REACTORS
330
2A
102
}
330
2A
100
AcDbVisualStyle
  2
Wireframe
 70
     5
177
     3
291
     0
 70
    58
 90
        0
176
     1
 90
        2
176
     1
 90
        0
176
     1
 90
        0
176
     1
 40
0.6
176
     1
 40
30.0
176
     1
 62
     7
420
 16777215
176
     1
 90
        1
176
     1
 90
        4
176
     1
 62
     7
176
     1
 62
   257
176
     1
 90
        1
176
     1
 90
        1
176
     1
 40
1.0
176
     1
 90
        0
176
     1
 62
   257
176
     1
 40
1.0
176
     1
 90
        1
176
     1
 90
        6
176
     1
 90
        2
176
     1
 62
     7
176
     1
 90
        3
176
     1
 90
        0
176
     1
 90
        0
176
     1
290
     0
176
     1
 90
        1
176
     1
 40
0.0
176
     1
 90
        0
176
     1
290
     0
176
     1
290
     1
176
     1
290
     1
176
     1
290
     0
176
     1
290
     0
176
     1
290
     0
176
     1
290
     0
176
     1
290
     0
176
     1
290
     0
176
     1
 90
       50
176
     1
 40
0.0
176
     1
 40
1.0
176
     1
 90
        0
176
     1
 62
    18
420
        0
176
     1
 90
       50
176
     1
 90
        3
176
     1
 62
     5
420
      255
176
     1
290
     0
176
     1
 90
       50
176
     1
 90
       50
176
     1
 90
       50
176
     1
290
     0
176
     1
 90
       50
176
     1
 62
   256
176
     0
 40
1.0
176
     0
 90
        2
176
     1
  1
strokes_ogs.tif
176
     1
290
     0
176
     1
 40
1.0
176
     1
 40
1.0
176
     1
  0
VISUALSTYLE
  5
40
102
{ACAD_REACTORS
330
2A
102
}
330
2A
100
AcDbVisualStyle
  2
X-Ray
 70
    25
177
     3
291
     0
 70
    58
 90
        2
176
     1
 90
        2
176
     1
 90
        1
176
     1
 90
        1
176
     1
 40
0.5
176
     1
 40
30.0
176
     1
 62
     7
420
 16777215
176
     1
 90
        1
176
     1
 90
        0
176
     1
 62
     7
176
     1
 62
   257
176
     1
 90
        1
176
     1
 90
        1
176
     1
 40
1.0
176
     1
 90
        8
176
     1
 62
     7
176
     1
 40
1.0
176
     1
 90
        1
176
     1
 90
        6
176
     1
 90
        2
176
     1
 62
     7
176
     1
 90
        3
176
     1
 90
        0
176
     1
 90
        0
176
     1
290
     0
176
     1
 90
       13
176
     1
 40
0.0
176
     1
 90
        0
176
     1
290
     0
176
     1
290
     1
176
     1
290
     1
176
     1
290
     0
176
     1
290
     0
176
     1
290
     0
176
     1
290
     0
176
     1
290
     0
176
     1
290
     0
176
     1
 90
       50
176
     1
 40
0.0
176
     1
 40
1.0
176
     1
 90
        0
176
     1
 62
    18
420
        0
176
     1
 90
       50
176
     1
 90
        3
176
     1
 62
     5
420
      255
176
     1
290
     0
176
     1
 90
       50
176
     1
 90
       50
176
     1
 90
       50
176
     1
290
     0
176
     1
 90
       50
176
     1
 62
   256
176
     0
 40
1.0
176
     0
 90
        2
176
     1
  1
strokes_ogs.tif
176
     1
290
     0
176
     1
 40
1.0
176
     1
 40
1.0
176
     1
  0
DICTIONARYVAR
  5
545
102
{ACAD_REACTORS
330
544
102
}
330
544
100
DictionaryVariables
280
     0
  1
1:1
  0
DICTIONARYVAR
  5
54A
102
{ACAD_REACTORS
330
544
102
}
330
544
100
DictionaryVariables
280
     0
  1
Standard
  0
DICTIONARYVAR
  5
549
102
{ACAD_REACTORS
330
544
102
}
330
544
100
DictionaryVariables
280
     0
  1
Standard
  0
DICTIONARY
  5
546
330
6A
100
AcDbDictionary
280
     1
281
     1
  3
ACAD_ROUNDTRIP_2008_TABLESTYLE_CELLSTYLEMAP
360
547
  0
CELLSTYLEMAP
  5
547
102
{ACAD_REACTORS
330
546
102
}
330
546
100
AcDbCellStyleMap
 90
        3
300
CELLSTYLE
  1
TABLEFORMAT_BEGIN
 90
        5
170
     1
 91
        0
 92
    32768
 62
   257
 93
        1
300
CONTENTFORMAT
  1
CONTENTFORMAT_BEGIN
 90
        0
 91
        0
 92
        4
 93
        0
300

 40
0.0
140
1.0
 94
        5
 62
     0
340
11
144
0.25
309
CONTENTFORMAT_END
171
     1
301
MARGIN
  1
CELLMARGIN_BEGIN
 40
0.06
 40
0.06
 40
0.06
 40
0.06
 40
0.06
 40
0.06
309
CELLMARGIN_END
 94
        6
 95
        1
302
GRIDFORMAT
  1
GRIDFORMAT_BEGIN
 90
        0
 91
        1
 62
     0
 92
       -2
340
14
 93
        0
 40
0.045
309
GRIDFORMAT_END
 95
        2
302
GRIDFORMAT
  1
GRIDFORMAT_BEGIN
 90
        0
 91
        1
 62
     0
 92
       -2
340
14
 93
        0
 40
0.045
309
GRIDFORMAT_END
 95
        4
302
GRIDFORMAT
  1
GRIDFORMAT_BEGIN
 90
        0
 91
        1
 62
     0
 92
       -2
340
14
 93
        0
 40
0.045
309
GRIDFORMAT_END
 95
        8
302
GRIDFORMAT
  1
GRIDFORMAT_BEGIN
 90
        0
 91
        1
 62
     0
 92
       -2
340
14
 93
        0
 40
0.045
309
GRIDFORMAT_END
 95
       16
302
GRIDFORMAT
  1
GRIDFORMAT_BEGIN
 90
        0
 91
        1
 62
     0
 92
       -2
340
14
 93
        0
 40
0.045
309
GRIDFORMAT_END
 95
       32
302
GRIDFORMAT
  1
GRIDFORMAT_BEGIN
 90
        0
 91
        1
 62
     0
 92
       -2
340
14
 93
        0
 40
0.045
309
GRIDFORMAT_END
309
TABLEFORMAT_END
  1
CELLSTYLE_BEGIN
 90
        1
 91
        1
300
_TITLE
309
CELLSTYLE_END
300
CELLSTYLE
  1
TABLEFORMAT_BEGIN
 90
        5
170
     1
 91
        0
 92
        0
 62
   257
 93
        1
300
CONTENTFORMAT
  1
CONTENTFORMAT_BEGIN
 90
        0
 91
        0
 92
        4
 93
        0
300

 40
0.0
140
1.0
 94
        5
 62
     0
340
11
144
0.18
309
CONTENTFORMAT_END
171
     1
301
MARGIN
  1
CELLMARGIN_BEGIN
 40
0.06
 40
0.06
 40
0.06
 40
0.06
 40
0.06
 40
0.06
309
CELLMARGIN_END
 94
        6
 95
        1
302
GRIDFORMAT
  1
GRIDFORMAT_BEGIN
 90
        0
 91
        1
 62
     0
 92
       -2
340
14
 93
        0
 40
0.045
309
GRIDFORMAT_END
 95
        2
302
GRIDFORMAT
  1
GRIDFORMAT_BEGIN
 90
        0
 91
        1
 62
     0
 92
       -2
340
14
 93
        0
 40
0.045
309
GRIDFORMAT_END
 95
        4
302
GRIDFORMAT
  1
GRIDFORMAT_BEGIN
 90
        0
 91
        1
 62
     0
 92
       -2
340
14
 93
        0
 40
0.045
309
GRIDFORMAT_END
 95
        8
302
GRIDFORMAT
  1
GRIDFORMAT_BEGIN
 90
        0
 91
        1
 62
     0
 92
       -2
340
14
 93
        0
 40
0.045
309
GRIDFORMAT_END
 95
       16
302
GRIDFORMAT
  1
GRIDFORMAT_BEGIN
 90
        0
 91
        1
 62
     0
 92
       -2
340
14
 93
        0
 40
0.045
309
GRIDFORMAT_END
 95
       32
302
GRIDFORMAT
  1
GRIDFORMAT_BEGIN
 90
        0
 91
        1
 62
     0
 92
       -2
340
14
 93
        0
 40
0.045
309
GRIDFORMAT_END
309
TABLEFORMAT_END
  1
CELLSTYLE_BEGIN
 90
        2
 91
        1
300
_HEADER
309
CELLSTYLE_END
300
CELLSTYLE
  1
TABLEFORMAT_BEGIN
 90
        5
170
     1
 91
        0
 92
        0
 62
   257
 93
        1
300
CONTENTFORMAT
  1
CONTENTFORMAT_BEGIN
 90
        0
 91
        0
 92
        4
 93
        0
300

 40
0.0
140
1.0
 94
        2
 62
     0
340
11
144
0.18
309
CONTENTFORMAT_END
171
     1
301
MARGIN
  1
CELLMARGIN_BEGIN
 40
0.06
 40
0.06
 40
0.06
 40
0.06
 40
0.06
 40
0.06
309
CELLMARGIN_END
 94
        6
 95
        1
302
GRIDFORMAT
  1
GRIDFORMAT_BEGIN
 90
        0
 91
        1
 62
     0
 92
       -2
340
14
 93
        0
 40
0.045
309
GRIDFORMAT_END
 95
        2
302
GRIDFORMAT
  1
GRIDFORMAT_BEGIN
 90
        0
 91
        1
 62
     0
 92
       -2
340
14
 93
        0
 40
0.045
309
GRIDFORMAT_END
 95
        4
302
GRIDFORMAT
  1
GRIDFORMAT_BEGIN
 90
        0
 91
        1
 62
     0
 92
       -2
340
14
 93
        0
 40
0.045
309
GRIDFORMAT_END
 95
        8
302
GRIDFORMAT
  1
GRIDFORMAT_BEGIN
 90
        0
 91
        1
 62
     0
 92
       -2
340
14
 93
        0
 40
0.045
309
GRIDFORMAT_END
 95
       16
302
GRIDFORMAT
  1
GRIDFORMAT_BEGIN
 90
        0
 91
        1
 62
     0
 92
       -2
340
14
 93
        0
 40
0.045
309
GRIDFORMAT_END
 95
       32
302
GRIDFORMAT
  1
GRIDFORMAT_BEGIN
 90
        0
 91
        1
 62
     0
 92
       -2
340
14
 93
        0
 40
0.045
309
GRIDFORMAT_END
309
TABLEFORMAT_END
  1
CELLSTYLE_BEGIN
 90
        3
 91
        2
300
_DATA
309
CELLSTYLE_END
  0
ENDSEC
  0
EOF
