  0
SECTION
  2
HEADER
  9
$ACADVER
  1
AC1032
  9
$ACADMAINTVER
 90
       55
  9
$DWGCODEPAGE
  3
ANSI_932
  9
$LASTSAVEDBY
  1
client05
  9
$REQUIREDVERSIONS
160
                 0
  9
$INSBASE
 10
0.0
 20
0.0
 30
0.0
  9
$EXTMIN
 10
-64.42883895131109
 20
-124.147231037726
 30
0.0
  9
$EXTMAX
 10
235.5711610486889
 20
263.203949608444
 30
0.0
  9
$LIMMIN
 10
0.0
 20
0.0
  9
$LIMMAX
 10
297.0
 20
210.0
  9
$ORTHOMODE
 70
     0
  9
$REGENMODE
 70
     1
  9
$FILLMODE
 70
     1
  9
$QTEXTMODE
 70
     0
  9
$MIRRTEXT
 70
     1
  9
$LTSCALE
 40
0.25
  9
$ATTMODE
 70
     1
  9
$TEXTSIZE
 40
5.0
  9
$TRACEWID
 40
0.05
  9
$TEXTSTYLE
  7
Standard
  9
$CLAYER
  8
0
  9
$CELTYPE
  6
ByLayer
  9
$CECOLOR
 62
   256
  9
$CELTSCALE
 40
1.0
  9
$DISPSILH
 70
     0
  9
$DIMSCALE
 40
1.0
  9
$DIMASZ
 40
4.0
  9
$DIMEXO
 40
2.0
  9
$DIMDLI
 40
10.0
  9
$DIMRND
 40
0.0
  9
$DIMDLE
 40
0.0
  9
$DIMEXE
 40
2.0
  9
$DIMTP
 40
0.0
  9
$DIMTM
 40
0.0
  9
$DIMTXT
 40
3.5
  9
$DIMCEN
 40
0.09
  9
$DIMTSZ
 40
0.0
  9
$DIMTOL
 70
     0
  9
$DIMLIM
 70
     0
  9
$DIMTIH
 70
     0
  9
$DIMTOH
 70
     0
  9
$DIMSE1
 70
     0
  9
$DIMSE2
 70
     0
  9
$DIMTAD
 70
     3
  9
$DIMZIN
 70
     8
  9
$DIMBLK
  1

  9
$DIMASO
 70
     1
  9
$DIMSHO
 70
     1
  9
$DIMPOST
  1

  9
$DIMAPOST
  1

  9
$DIMALT
 70
     0
  9
$DIMALTD
 70
     2
  9
$DIMALTF
 40
25.4
  9
$DIMLFAC
 40
1.0
  9
$DIMTOFL
 70
     1
  9
$DIMTVP
 40
0.7
  9
$DIMTIX
 70
     0
  9
$DIMSOXD
 70
     0
  9
$DIMSAH
 70
     0
  9
$DIMBLK1
  1

  9
$DIMBLK2
  1

  9
$DIMSTYLE
  2
Standard
  9
$DIMCLRD
 70
     0
  9
$DIMCLRE
 70
     0
  9
$DIMCLRT
 70
     0
  9
$DIMTFAC
 40
0.5
  9
$DIMGAP
 40
0.09
  9
$DIMJUST
 70
     0
  9
$DIMSD1
 70
     0
  9
$DIMSD2
 70
     0
  9
$DIMTOLJ
 70
     1
  9
$DIMTZIN
 70
     8
  9
$DIMALTZ
 70
     0
  9
$DIMALTTZ
 70
     0
  9
$DIMUPT
 70
     1
  9
$DIMDEC
 70
     2
  9
$DIMTDEC
 70
     4
  9
$DIMALTU
 70
     2
  9
$DIMALTTD
 70
     2
  9
$DIMTXSTY
  7
Standard
  9
$DIMAUNIT
 70
     0
  9
$DIMADEC
 70
     0
  9
$DIMALTRND
 40
0.0
  9
$DIMAZIN
 70
     0
  9
$DIMDSEP
 70
    46
  9
$DIMATFIT
 70
     2
  9
$DIMFRAC
 70
     0
  9
$DIMLDRBLK
  1

  9
$DIMLUNIT
 70
     2
  9
$DIMLWD
 70
    -2
  9
$DIMLWE
 70
    -2
  9
$DIMTMOVE
 70
     2
  9
$DIMFXL
 40
1.0
  9
$DIMFXLON
 70
     0
  9
$DIMJOGANG
 40
0.7853981633974483
  9
$DIMTFILL
 70
     0
  9
$DIMTFILLCLR
 70
     0
  9
$DIMARCSYM
 70
     0
  9
$DIMLTYPE
  6

  9
$DIMLTEX1
  6

  9
$DIMLTEX2
  6

  9
$DIMTXTDIRECTION
 70
     0
  9
$LUNITS
 70
     2
  9
$LUPREC
 70
     4
  9
$SKETCHINC
 40
0.1
  9
$FILLETRAD
 40
0.5
  9
$AUNITS
 70
     0
  9
$AUPREC
 70
     0
  9
$MENU
  1
.
  9
$ELEVATION
 40
0.0
  9
$PELEVATION
 40
0.0
  9
$THICKNESS
 40
0.0
  9
$LIMCHECK
 70
     0
  9
$CHAMFERA
 40
0.0
  9
$CHAMFERB
 40
0.0
  9
$CHAMFERC
 40
0.0
  9
$CHAMFERD
 40
0.0
  9
$SKPOLY
 70
     0
  9
$TDCREATE
 40
2459374.89556713
  9
$TDUCREATE
 40
2459374.52056713
  9
$TDUPDATE
 40
2459374.520576609
  9
$TDUUPDATE
 40
2459374.145576609
  9
$TDINDWG
 40
0.0000000116
  9
$TDUSRTIMER
 40
0.0000000116
  9
$USRTIMER
 70
     1
  9
$ANGBASE
 50
0.0
  9
$ANGDIR
 70
     0
  9
$PDMODE
 70
     0
  9
$PDSIZE
 40
0.0
  9
$PLINEWID
 40
0.0
  9
$SPLFRAME
 70
     0
  9
$SPLINETYPE
 70
     6
  9
$SPLINESEGS
 70
     8
  9
$HANDSEED
  5
4ED
  9
$SURFTAB1
 70
     6
  9
$SURFTAB2
 70
     6
  9
$SURFTYPE
 70
     6
  9
$SURFU
 70
     6
  9
$SURFV
 70
     6
  9
$UCSBASE
  2

  9
$UCSNAME
  2

  9
$UCSORG
 10
0.0
 20
0.0
 30
0.0
  9
$UCSXDIR
 10
1.0
 20
0.0
 30
0.0
  9
$UCSYDIR
 10
0.0
 20
1.0
 30
0.0
  9
$UCSORTHOREF
  2

  9
$UCSORTHOVIEW
 70
     0
  9
$UCSORGTOP
 10
0.0
 20
0.0
 30
0.0
  9
$UCSORGBOTTOM
 10
0.0
 20
0.0
 30
0.0
  9
$UCSORGLEFT
 10
0.0
 20
0.0
 30
0.0
  9
$UCSORGRIGHT
 10
0.0
 20
0.0
 30
0.0
  9
$UCSORGFRONT
 10
0.0
 20
0.0
 30
0.0
  9
$UCSORGBACK
 10
0.0
 20
0.0
 30
0.0
  9
$PUCSBASE
  2

  9
$PUCSNAME
  2

  9
$PUCSORG
 10
0.0
 20
0.0
 30
0.0
  9
$PUCSXDIR
 10
1.0
 20
0.0
 30
0.0
  9
$PUCSYDIR
 10
0.0
 20
1.0
 30
0.0
  9
$PUCSORTHOREF
  2

  9
$PUCSORTHOVIEW
 70
     0
  9
$PUCSORGTOP
 10
0.0
 20
0.0
 30
0.0
  9
$PUCSORGBOTTOM
 10
0.0
 20
0.0
 30
0.0
  9
$PUCSORGLEFT
 10
0.0
 20
0.0
 30
0.0
  9
$PUCSORGRIGHT
 10
0.0
 20
0.0
 30
0.0
  9
$PUCSORGFRONT
 10
0.0
 20
0.0
 30
0.0
  9
$PUCSORGBACK
 10
0.0
 20
0.0
 30
0.0
  9
$USERI1
 70
     0
  9
$USERI2
 70
     0
  9
$USERI3
 70
     0
  9
$USERI4
 70
     0
  9
$USERI5
 70
     0
  9
$USERR1
 40
0.0
  9
$USERR2
 40
0.0
  9
$USERR3
 40
0.0
  9
$USERR4
 40
0.0
  9
$USERR5
 40
0.0
  9
$WORLDVIEW
 70
     1
  9
$SHADEDGE
 70
     3
  9
$SHADEDIF
 70
    70
  9
$TILEMODE
 70
     1
  9
$MAXACTVP
 70
    64
  9
$PINSBASE
 10
0.0
 20
0.0
 30
0.0
  9
$PLIMCHECK
 70
     0
  9
$PEXTMIN
 10
0.0
 20
0.0
 30
0.0
  9
$PEXTMAX
 10
297.0
 20
210.0
 30
0.0
  9
$PLIMMIN
 10
0.0
 20
0.0
  9
$PLIMMAX
 10
297.0
 20
210.0
  9
$UNITMODE
 70
     0
  9
$VISRETAIN
 70
     1
  9
$PLINEGEN
 70
     0
  9
$PSLTSCALE
 70
     1
  9
$TREEDEPTH
 70
  3020
  9
$CMLSTYLE
  2
Standard
  9
$CMLJUST
 70
     0
  9
$CMLSCALE
 40
1.0
  9
$PROXYGRAPHICS
 70
     1
  9
$MEASUREMENT
 70
     1
  9
$CELWEIGHT
370
    -1
  9
$ENDCAPS
280
     0
  9
$JOINSTYLE
280
     0
  9
$LWDISPLAY
290
     0
  9
$INSUNITS
 70
     4
  9
$HYPERLINKBASE
  1

  9
$STYLESHEET
  1

  9
$XEDIT
290
     1
  9
$CEPSNTYPE
380
     0
  9
$PSTYLEMODE
290
     1
  9
$FINGERPRINTGUID
  2
{807d7a81-7c7e-419e-8053-6c78623ecec7}
  9
$VERSIONGUID
  2
{FAEB1C32-E019-11D5-929B-00C0DF256EC4}
  9
$EXTNAMES
290
     1
  9
$PSVPSCALE
 40
0.0
  9
$OLESTARTUP
290
     0
  9
$SORTENTS
280
   127
  9
$INDEXCTL
280
     0
  9
$HIDETEXT
280
     1
  9
$XCLIPFRAME
280
     2
  9
$HALOGAP
280
     0
  9
$OBSCOLOR
 70
   257
  9
$OBSLTYPE
280
     0
  9
$INTERSECTIONDISPLAY
280
     0
  9
$INTERSECTIONCOLOR
 70
   257
  9
$DIMASSOC
280
     1
  9
$PROJECTNAME
  1

  9
$CAMERADISPLAY
290
     0
  9
$LENSLENGTH
 40
50.0
  9
$CAMERAHEIGHT
 40
0.0
  9
$STEPSPERSEC
 40
2.0
  9
$STEPSIZE
 40
6.0
  9
$3DDWFPREC
 40
2.0
  9
$PSOLWIDTH
 40
0.25
  9
$PSOLHEIGHT
 40
4.0
  9
$LOFTANG1
 40
1.570796326794897
  9
$LOFTANG2
 40
1.570796326794897
  9
$LOFTMAG1
 40
0.0
  9
$LOFTMAG2
 40
0.0
  9
$LOFTPARAM
 70
     7
  9
$LOFTNORMALS
280
     1
  9
$LATITUDE
 40
37.795
  9
$LONGITUDE
 40
-122.394
  9
$NORTHDIRECTION
 40
0.0
  9
$TIMEZONE
 70
 -8000
  9
$LIGHTGLYPHDISPLAY
280
     1
  9
$TILEMODELIGHTSYNCH
280
     1
  9
$CMATERIAL
347
44
  9
$SOLIDHIST
280
     0
  9
$SHOWHIST
280
     1
  9
$DWFFRAME
280
     2
  9
$DGNFRAME
280
     2
  9
$REALWORLDSCALE
290
     1
  9
$INTERFERECOLOR
 62
   256
  9
$CSHADOW
280
     0
  9
$SHADOWPLANELOCATION
 40
0.0
  0
ENDSEC
  0
SECTION
  2
CLASSES
  0
CLASS
  1
ACDBDICTIONARYWDFLT
  2
AcDbDictionaryWithDefault
  3
ObjectDBX Classes
 90
        0
 91
        3
280
     0
281
     0
  0
CLASS
  1
VISUALSTYLE
  2
AcDbVisualStyle
  3
ObjectDBX Classes
 90
     4095
 91
        3
280
     0
281
     0
  0
CLASS
  1
MATERIAL
  2
AcDbMaterial
  3
ObjectDBX Classes
 90
     1153
 91
        3
280
     0
281
     0
  0
CLASS
  1
SCALE
  2
AcDbScale
  3
ObjectDBX Classes
 90
     1153
 91
        3
280
     0
281
     0
  0
CLASS
  1
TABLESTYLE
  2
AcDbTableStyle
  3
ObjectDBX Classes
 90
     4095
 91
        3
280
     0
281
     0
  0
CLASS
  1
MLEADERSTYLE
  2
AcDbMLeaderStyle
  3
ACDB_MLEADERSTYLE_CLASS
 90
     4095
 91
        3
280
     0
281
     0
  0
CLASS
  1
SUN
  2
AcDbSun
  3
SCENEOE
 90
     1153
 91
        3
280
     0
281
     0
  0
CLASS
  1
DICTIONARYVAR
  2
AcDbDictionaryVar
  3
ObjectDBX Classes
 90
        0
 91
        3
280
     0
281
     0
  0
CLASS
  1
CELLSTYLEMAP
  2
AcDbCellStyleMap
  3
ObjectDBX Classes
 90
     1152
 91
        3
280
     0
281
     0
  0
ENDSEC
  0
SECTION
  2
TABLES
  0
TABLE
  2
VPORT
  5
8
330
0
100
AcDbSymbolTable
 70
     1
  0
VPORT
  5
29
330
8
100
AcDbSymbolTableRecord
100
AcDbViewportTableRecord
  2
*Active
 70
     0
 10
0.0
 20
0.0
 11
1.0
 21
1.0
 12
10.42990654205607
 22
4.5
 13
0.0
 23
0.0
 14
0.5
 24
0.5
 15
0.5
 25
0.5
 16
0.0
 26
0.0
 36
1.0
 17
0.0
 27
0.0
 37
0.0
 40
9.0
 41
1.972972972850329
 42
50.0
 43
0.0
 44
0.0
 50
0.0
 51
0.0
 71
     0
 72
   100
 73
     1
 74
     3
 75
     0
 76
     0
 77
     0
 78
     0
281
     0
 65
     1
110
0.0
120
0.0
130
0.0
111
1.0
121
0.0
131
0.0
112
0.0
122
1.0
132
0.0
 79
     0
146
0.0
348
2F
 60
     3
 61
     5
292
     1
282
     1
141
0.0
142
0.0
 63
   250
361
6D
  0
ENDTAB
  0
TABLE
  2
LTYPE
  5
5
330
0
100
AcDbSymbolTable
 70
     9
  0
LTYPE
  5
14
330
5
100
AcDbSymbolTableRecord
100
AcDbLinetypeTableRecord
  2
ByBlock
 70
     0
  3

 72
    65
 73
     0
 40
0.0
  0
LTYPE
  5
15
330
5
100
AcDbSymbolTableRecord
100
AcDbLinetypeTableRecord
  2
ByLayer
 70
     0
  3

 72
    65
 73
     0
 40
0.0
  0
LTYPE
  5
16
330
5
100
AcDbSymbolTableRecord
100
AcDbLinetypeTableRecord
  2
Continuous
 70
     0
  3
Solid line
 72
    65
 73
     0
 40
0.0
  0
LTYPE
  5
BC
330
5
100
AcDbSymbolTableRecord
100
AcDbLinetypeTableRecord
  2
DOT
 70
     0
  3
DOT
 72
    65
 73
     2
 40
4.0
 49
6.0
 74
     0
 49
-2.0
 74
     0
  0
LTYPE
  5
BD
330
5
100
AcDbSymbolTableRecord
100
AcDbLinetypeTableRecord
  2
HIDDEN
 70
     0
  3
HIDDEN
 72
    65
 73
     2
 40
4.2
 49
8.4
 74
     0
 49
-4.2
 74
     0
  0
LTYPE
  5
BE
330
5
100
AcDbSymbolTableRecord
100
AcDbLinetypeTableRecord
  2
DASHDOT
 70
     0
  3
DASHDOT
 72
    65
 73
     4
 40
14.5
 49
30.0
 74
     0
 49
-9.0
 74
     0
 49
2.5
 74
     0
 49
-9.0
 74
     0
  0
LTYPE
  5
BF
330
5
100
AcDbSymbolTableRecord
100
AcDbLinetypeTableRecord
  2
PHANTOM
 70
     0
  3
PHANTOM
 72
    65
 73
     6
 40
12.0
 49
30.0
 74
     0
 49
-9.0
 74
     0
 49
2.5
 74
     0
 49
-5.0
 74
     0
 49
2.5
 74
     0
 49
-9.0
 74
     0
  0
LTYPE
  5
C0
330
5
100
AcDbSymbolTableRecord
100
AcDbLinetypeTableRecord
  2
ACAD_ISO14W100
 70
     0
  3
ACAD_ISO14W100
 72
    65
 73
     8
 40
1.5
 49
12.0
 74
     0
 49
-3.0
 74
     0
 49
0.5
 74
     0
 49
-3.0
 74
     0
 49
0.5
 74
     0
 49
-3.0
 74
     0
 49
0.5
 74
     0
 49
-3.0
 74
     0
  0
LTYPE
  5
C1
330
5
100
AcDbSymbolTableRecord
100
AcDbLinetypeTableRecord
  2
ACAD_ISO06W100
 70
     0
  3
ACAD_ISO06W100
 72
    65
 73
     8
 40
13.5
 49
24.0
 74
     0
 49
-3.0
 74
     0
 49
0.5
 74
     0
 49
-3.0
 74
     0
 49
0.5
 74
     0
 49
-3.0
 74
     0
 49
0.5
 74
     0
 49
-3.0
 74
     0
  0
LTYPE
  5
C2
330
5
100
AcDbSymbolTableRecord
100
AcDbLinetypeTableRecord
  2
ACAD_ISO11W100
 70
     0
  3
ACAD_ISO11W100
 72
    65
 73
     6
 40
15.5
 49
12.0
 74
     0
 49
-3.0
 74
     0
 49
12.0
 74
     0
 49
-3.0
 74
     0
 49
0.5
 74
     0
 49
-3.0
 74
     0
  0
LTYPE
  5
C3
330
5
100
AcDbSymbolTableRecord
100
AcDbLinetypeTableRecord
  2
ACAD_ISO13W100
 70
     0
  3
ACAD_ISO13W100
 72
    65
 73
     8
 40
13.0
 49
12.0
 74
     0
 49
-3.0
 74
     0
 49
12.0
 74
     0
 49
-3.0
 74
     0
 49
0.5
 74
     0
 49
-3.0
 74
     0
 49
0.5
 74
     0
 49
-3.0
 74
     0
  0
ENDTAB
  0
TABLE
  2
LAYER
  5
2
330
0
100
AcDbSymbolTable
 70
    24
  0
LAYER
  5
10
330
2
100
AcDbSymbolTableRecord
100
AcDbLayerTableRecord
  2
0
 70
     0
 62
     7
  6
Continuous
370
    -3
390
F
347
46
348
0
  0
LAYER
  5
C4
330
2
100
AcDbSymbolTableRecord
100
AcDbLayerTableRecord
  2
1
 70
     0
 62
     7
  6
Continuous
370
     9
390
F
347
46
348
0
  0
LAYER
  5
C5
330
2
100
AcDbSymbolTableRecord
100
AcDbLayerTableRecord
  2
2
 70
     0
 62
   136
420
    32896
  6
Continuous
370
     9
390
F
347
46
348
0
  0
LAYER
  5
C6
330
2
100
AcDbSymbolTableRecord
100
AcDbLayerTableRecord
  2
3
 70
     0
 62
   216
420
  8388736
  6
Continuous
370
     9
390
F
347
46
348
0
  0
LAYER
  5
C7
330
2
100
AcDbSymbolTableRecord
100
AcDbLayerTableRecord
  2
4
 70
     0
 62
    56
420
  8421376
  6
Continuous
370
     9
390
F
347
46
348
0
  0
LAYER
  5
C8
330
2
100
AcDbSymbolTableRecord
100
AcDbLayerTableRecord
  2
5
 70
     0
 62
    96
420
    32768
  6
Continuous
370
     9
390
F
347
46
348
0
  0
LAYER
  5
C9
330
2
100
AcDbSymbolTableRecord
100
AcDbLayerTableRecord
  2
6
 70
     0
 62
    16
420
  8388608
  6
Continuous
370
     9
390
F
347
46
348
0
  0
LAYER
  5
CA
330
2
100
AcDbSymbolTableRecord
100
AcDbLayerTableRecord
  2
7
 70
     0
 62
     4
  6
Continuous
370
     9
390
F
347
46
348
0
  0
LAYER
  5
CB
330
2
100
AcDbSymbolTableRecord
100
AcDbLayerTableRecord
  2
8
 70
     0
 62
     6
  6
Continuous
370
     9
390
F
347
46
348
0
  0
LAYER
  5
CC
330
2
100
AcDbSymbolTableRecord
100
AcDbLayerTableRecord
  2
9
 70
     0
 62
     2
  6
Continuous
370
     9
390
F
347
46
348
0
  0
LAYER
  5
CD
330
2
100
AcDbSymbolTableRecord
100
AcDbLayerTableRecord
  2
10
 70
     0
 62
     3
  6
Continuous
370
     9
390
F
347
46
348
0
  0
LAYER
  5
CE
330
2
100
AcDbSymbolTableRecord
100
AcDbLayerTableRecord
  2
11
 70
     0
 62
     8
420
  8421504
  6
Continuous
370
     9
390
F
347
46
348
0
  0
LAYER
  5
CF
330
2
100
AcDbSymbolTableRecord
100
AcDbLayerTableRecord
  2
12
 70
     0
 62
   138
420
    20560
  6
Continuous
370
     9
390
F
347
46
348
0
  0
LAYER
  5
D0
330
2
100
AcDbSymbolTableRecord
100
AcDbLayerTableRecord
  2
13
 70
     0
 62
   218
420
  5242960
  6
Continuous
370
     9
390
F
347
46
348
0
  0
LAYER
  5
D1
330
2
100
AcDbSymbolTableRecord
100
AcDbLayerTableRecord
  2
14
 70
     0
 62
    58
420
  5263360
  6
Continuous
370
     9
390
F
347
46
348
0
  0
LAYER
  5
D2
330
2
100
AcDbSymbolTableRecord
100
AcDbLayerTableRecord
  2
15
 70
     0
 62
    98
420
    20480
  6
Continuous
370
     9
390
F
347
46
348
0
  0
LAYER
  5
D3
330
2
100
AcDbSymbolTableRecord
100
AcDbLayerTableRecord
  2
16
 70
     0
 62
    18
420
  5242880
  6
Continuous
370
     9
390
F
347
46
348
0
  0
LAYER
  5
D4
330
2
100
AcDbSymbolTableRecord
100
AcDbLayerTableRecord
  2
17
 70
     0
 62
   132
420
    49344
  6
Continuous
370
     9
390
F
347
46
348
0
  0
LAYER
  5
D5
330
2
100
AcDbSymbolTableRecord
100
AcDbLayerTableRecord
  2
18
 70
     0
 62
   212
420
 12583104
  6
Continuous
370
     9
390
F
347
46
348
0
  0
LAYER
  5
D6
330
2
100
AcDbSymbolTableRecord
100
AcDbLayerTableRecord
  2
19
 70
     0
 62
    52
420
 12632064
  6
Continuous
370
     9
390
F
347
46
348
0
  0
LAYER
  5
D7
330
2
100
AcDbSymbolTableRecord
100
AcDbLayerTableRecord
  2
20
 70
     0
 62
   251
420
  5263440
  6
Continuous
370
     9
390
F
347
46
348
0
  0
LAYER
  5
D8
330
2
100
AcDbSymbolTableRecord
100
AcDbLayerTableRecord
  2
21
 70
     0
 62
     7
  6
Continuous
370
     9
390
F
347
46
348
0
  0
LAYER
  5
D9
330
2
100
AcDbSymbolTableRecord
100
AcDbLayerTableRecord
  2
100
 70
     0
 62
     7
  6
Continuous
370
     9
390
F
347
46
348
0
  0
LAYER
  5
DA
330
2
100
AcDbSymbolTableRecord
100
AcDbLayerTableRecord
  2
102
 70
     0
 62
     7
  6
Continuous
370
     9
390
F
347
46
348
0
  0
ENDTAB
  0
TABLE
  2
STYLE
  5
3
330
0
100
AcDbSymbolTable
 70
     2
  0
STYLE
  5
11
330
3
100
AcDbSymbolTableRecord
100
AcDbTextStyleTableRecord
  2
Standard
 70
     0
 40
0.0
 41
1.0
 50
0.0
 71
     0
 42
5.0
  3
txt
  4
bigfont
  0
STYLE
  5
6F
330
3
100
AcDbSymbolTableRecord
100
AcDbTextStyleTableRecord
  2
T_STANDARD
 70
     4
 40
10.0
 41
1.0
 50
0.0
 71
     0
 42
5.0
  3
txt
  4
bigfont
1001
ACAD
1000

1071
      256
  0
ENDTAB
  0
TABLE
  2
VIEW
  5
6
330
0
100
AcDbSymbolTable
 70
     0
  0
ENDTAB
  0
TABLE
  2
UCS
  5
7
330
0
100
AcDbSymbolTable
 70
     0
  0
ENDTAB
  0
TABLE
  2
APPID
  5
9
330
0
100
AcDbSymbolTable
 70
     2
  0
APPID
  5
12
330
9
100
AcDbSymbolTableRecord
100
AcDbRegAppTableRecord
  2
ACAD
 70
     0
  0
APPID
  5
6E
330
9
100
AcDbSymbolTableRecord
100
AcDbRegAppTableRecord
  2
ODA
 70
     0
  0
ENDTAB
  0
TABLE
  2
DIMSTYLE
  5
A
330
0
100
AcDbSymbolTable
 70
     1
100
AcDbDimStyleTable
  0
DIMSTYLE
105
27
330
A
100
AcDbSymbolTableRecord
100
AcDbDimStyleTableRecord
  2
Standard
 70
     0
178
     0
340
11
  0
ENDTAB
  0
TABLE
  2
BLOCK_RECORD
  5
1
330
0
100
AcDbSymbolTable
 70
    16
  0
BLOCK_RECORD
  5
1F
330
1
100
AcDbSymbolTableRecord
100
AcDbBlockTableRecord
  2
*Model_Space
340
22
 70
     0
280
     1
281
     0
  0
BLOCK_RECORD
  5
1B
330
1
100
AcDbSymbolTableRecord
100
AcDbBlockTableRecord
  2
*Paper_Space
340
1E
 70
     0
280
     1
281
     0
  0
BLOCK_RECORD
  5
23
330
1
100
AcDbSymbolTableRecord
100
AcDbBlockTableRecord
  2
*Paper_Space0
340
26
 70
     0
280
     1
281
     0
  0
BLOCK_RECORD
  5
70
330
1
100
AcDbSymbolTableRecord
100
AcDbBlockTableRecord
  2
_ORIGIN
340
0
 70
     0
280
     1
281
     0
  0
BLOCK_RECORD
  5
75
330
1
100
AcDbSymbolTableRecord
100
AcDbBlockTableRecord
  2
_DOTBLANK
340
0
 70
     0
280
     1
281
     0
  0
BLOCK_RECORD
  5
7A
330
1
100
AcDbSymbolTableRecord
100
AcDbBlockTableRecord
  2
_DOT
340
0
 70
     0
280
     1
281
     0
  0
BLOCK_RECORD
  5
7F
330
1
100
AcDbSymbolTableRecord
100
AcDbBlockTableRecord
  2
_OPEN
340
0
 70
     0
280
     1
281
     0
  0
BLOCK_RECORD
  5
85
330
1
100
AcDbSymbolTableRecord
100
AcDbBlockTableRecord
  2
_CLOSED
340
0
 70
     0
280
     1
281
     0
  0
BLOCK_RECORD
  5
8C
330
1
100
AcDbSymbolTableRecord
100
AcDbBlockTableRecord
  2
_CLOSEDBLANK
340
0
 70
     0
280
     1
281
     0
  0
BLOCK_RECORD
  5
92
330
1
100
AcDbSymbolTableRecord
100
AcDbBlockTableRecord
  2
_ARROWFILLED
340
0
 70
     0
280
     1
281
     0
  0
BLOCK_RECORD
  5
96
330
1
100
AcDbSymbolTableRecord
100
AcDbBlockTableRecord
  2
_BOXBLANK
340
0
 70
     0
280
     1
281
     0
  0
BLOCK_RECORD
  5
9E
330
1
100
AcDbSymbolTableRecord
100
AcDbBlockTableRecord
  2
_BOXFILLED
340
0
 70
     0
280
     1
281
     0
  0
BLOCK_RECORD
  5
A3
330
1
100
AcDbSymbolTableRecord
100
AcDbBlockTableRecord
  2
_INTEGRAL
340
0
 70
     0
280
     1
281
     0
  0
BLOCK_RECORD
  5
A8
330
1
100
AcDbSymbolTableRecord
100
AcDbBlockTableRecord
  2
_OBLIQUE
340
0
 70
     0
280
     1
281
     0
  0
BLOCK_RECORD
  5
AC
330
1
100
AcDbSymbolTableRecord
100
AcDbBlockTableRecord
  2
_NONE
340
0
 70
     0
280
     1
281
     0
  0
BLOCK_RECORD
  5
AF
330
1
100
AcDbSymbolTableRecord
100
AcDbBlockTableRecord
  2
MARK_OPEN
340
0
 70
     0
280
     1
281
     0
  0
BLOCK_RECORD
  5
B4
330
1
100
AcDbSymbolTableRecord
100
AcDbBlockTableRecord
  2
MARK_ORIGIN
340
0
 70
     0
280
     1
281
     0
  0
BLOCK_RECORD
  5
B8
330
1
100
AcDbSymbolTableRecord
100
AcDbBlockTableRecord
  2
MARK_DOT
340
0
 70
     0
280
     1
281
     0
  0
ENDTAB
  0
ENDSEC
  0
SECTION
  2
BLOCKS
  0
BLOCK
  5
20
330
1F
100
AcDbEntity
  8
0
100
AcDbBlockBegin
  2
*Model_Space
 70
     0
 10
0.0
 20
0.0
 30
0.0
  3
*Model_Space
  1

  0
ENDBLK
  5
21
330
1F
100
AcDbEntity
  8
0
100
AcDbBlockEnd
  0
BLOCK
  5
1C
330
1B
100
AcDbEntity
 67
     1
  8
0
100
AcDbBlockBegin
  2
*Paper_Space
 70
     0
 10
0.0
 20
0.0
 30
0.0
  3
*Paper_Space
  1

  0
ENDBLK
  5
1D
330
1B
100
AcDbEntity
 67
     1
  8
0
100
AcDbBlockEnd
  0
BLOCK
  5
24
330
23
100
AcDbEntity
  8
0
100
AcDbBlockBegin
  2
*Paper_Space0
 70
     0
 10
0.0
 20
0.0
 30
0.0
  3
*Paper_Space0
  1

  0
ENDBLK
  5
25
330
23
100
AcDbEntity
  8
0
100
AcDbBlockEnd
  0
BLOCK
  5
73
330
70
100
AcDbEntity
  8
0
100
AcDbBlockBegin
  2
_ORIGIN
 70
     0
 10
0.0
 20
0.0
 30
0.0
  3
_ORIGIN
  1

  0
CIRCLE
  5
71
330
70
100
AcDbEntity
  8
0
 62
     0
100
AcDbCircle
 10
0.0
 20
0.0
 30
0.0
 40
0.5
  0
LINE
  5
72
330
70
100
AcDbEntity
  8
0
 62
     0
100
AcDbLine
 10
0.0
 20
0.0
 30
0.0
 11
-1.0
 21
0.0
 31
0.0
  0
ENDBLK
  5
74
330
70
100
AcDbEntity
  8
0
100
AcDbBlockEnd
  0
BLOCK
  5
78
330
75
100
AcDbEntity
  8
0
100
AcDbBlockBegin
  2
_DOTBLANK
 70
     0
 10
0.0
 20
0.0
 30
0.0
  3
_DOTBLANK
  1

  0
CIRCLE
  5
76
330
75
100
AcDbEntity
  8
0
 62
     0
100
AcDbCircle
 10
0.0
 20
0.0
 30
0.0
 40
0.5
  0
LINE
  5
77
330
75
100
AcDbEntity
  8
0
 62
     0
100
AcDbLine
 10
-0.5
 20
0.0
 30
0.0
 11
-1.0
 21
0.0
 31
0.0
  0
ENDBLK
  5
79
330
75
100
AcDbEntity
  8
0
100
AcDbBlockEnd
  0
BLOCK
  5
7D
330
7A
100
AcDbEntity
  8
0
100
AcDbBlockBegin
  2
_DOT
 70
     0
 10
0.0
 20
0.0
 30
0.0
  3
_DOT
  1

  0
LWPOLYLINE
  5
7B
330
7A
100
AcDbEntity
  8
0
 62
     0
100
AcDbPolyline
 90
        2
 70
     1
 43
0.5
 10
-0.25
 20
0.0
 42
1.0
 10
0.25
 20
0.0
 42
1.0
  0
LINE
  5
7C
330
7A
100
AcDbEntity
  8
0
 62
     0
100
AcDbLine
 10
-0.5
 20
0.0
 30
0.0
 11
-1.0
 21
0.0
 31
0.0
  0
ENDBLK
  5
7E
330
7A
100
AcDbEntity
  8
0
100
AcDbBlockEnd
  0
BLOCK
  5
83
330
7F
100
AcDbEntity
  8
0
100
AcDbBlockBegin
  2
_OPEN
 70
     0
 10
0.0
 20
0.0
 30
0.0
  3
_OPEN
  1

  0
LINE
  5
80
330
7F
100
AcDbEntity
  8
0
 62
     0
100
AcDbLine
 10
0.0
 20
0.0
 30
0.0
 11
-1.0
 21
0.1666666666666667
 31
0.0
  0
LINE
  5
81
330
7F
100
AcDbEntity
  8
0
 62
     0
100
AcDbLine
 10
0.0
 20
0.0
 30
0.0
 11
-1.0
 21
-0.1666666666666667
 31
0.0
  0
LINE
  5
82
330
7F
100
AcDbEntity
  8
0
 62
     0
100
AcDbLine
 10
0.0
 20
0.0
 30
0.0
 11
-1.0
 21
0.0
 31
0.0
  0
ENDBLK
  5
84
330
7F
100
AcDbEntity
  8
0
100
AcDbBlockEnd
  0
BLOCK
  5
8A
330
85
100
AcDbEntity
  8
0
100
AcDbBlockBegin
  2
_CLOSED
 70
     0
 10
0.0
 20
0.0
 30
0.0
  3
_CLOSED
  1

  0
LINE
  5
86
330
85
100
AcDbEntity
  8
0
 62
     0
100
AcDbLine
 10
0.0
 20
0.0
 30
0.0
 11
-1.0
 21
0.1666666666666667
 31
0.0
  0
LINE
  5
87
330
85
100
AcDbEntity
  8
0
 62
     0
100
AcDbLine
 10
0.0
 20
0.0
 30
0.0
 11
-1.0
 21
-0.1666666666666667
 31
0.0
  0
LINE
  5
88
330
85
100
AcDbEntity
  8
0
 62
     0
100
AcDbLine
 10
-1.0
 20
0.1666666666666667
 30
0.0
 11
-1.0
 21
-0.1666666666666667
 31
0.0
  0
LINE
  5
89
330
85
100
AcDbEntity
  8
0
 62
     0
100
AcDbLine
 10
0.0
 20
0.0
 30
0.0
 11
-1.0
 21
0.0
 31
0.0
  0
ENDBLK
  5
8B
330
85
100
AcDbEntity
  8
0
100
AcDbBlockEnd
  0
BLOCK
  5
90
330
8C
100
AcDbEntity
  8
0
100
AcDbBlockBegin
  2
_CLOSEDBLANK
 70
     0
 10
0.0
 20
0.0
 30
0.0
  3
_CLOSEDBLANK
  1

  0
LINE
  5
8D
330
8C
100
AcDbEntity
  8
0
 62
     0
100
AcDbLine
 10
0.0
 20
0.0
 30
0.0
 11
-1.0
 21
0.1666666666666667
 31
0.0
  0
LINE
  5
8E
330
8C
100
AcDbEntity
  8
0
 62
     0
100
AcDbLine
 10
0.0
 20
0.0
 30
0.0
 11
-1.0
 21
-0.1666666666666667
 31
0.0
  0
LINE
  5
8F
330
8C
100
AcDbEntity
  8
0
 62
     0
100
AcDbLine
 10
-1.0
 20
0.1666666666666667
 30
0.0
 11
-1.0
 21
-0.1666666666666667
 31
0.0
  0
ENDBLK
  5
91
330
8C
100
AcDbEntity
  8
0
100
AcDbBlockEnd
  0
BLOCK
  5
94
330
92
100
AcDbEntity
  8
0
100
AcDbBlockBegin
  2
_ARROWFILLED
 70
     0
 10
0.0
 20
0.0
 30
0.0
  3
_ARROWFILLED
  1

  0
SOLID
  5
93
330
92
100
AcDbEntity
  8
0
 62
     0
100
AcDbTrace
 10
0.0
 20
0.0
 30
0.0
 11
-1.0
 21
-0.1666666666666667
 31
0.0
 12
-1.0
 22
0.1666666666666667
 32
0.0
 13
0.0
 23
0.0
 33
0.0
  0
ENDBLK
  5
95
330
92
100
AcDbEntity
  8
0
100
AcDbBlockEnd
  0
BLOCK
  5
9C
330
96
100
AcDbEntity
  8
0
100
AcDbBlockBegin
  2
_BOXBLANK
 70
     0
 10
0.0
 20
0.0
 30
0.0
  3
_BOXBLANK
  1

  0
LINE
  5
97
330
96
100
AcDbEntity
  8
0
 62
     0
100
AcDbLine
 10
-0.5
 20
-0.5
 30
0.0
 11
0.5
 21
-0.5
 31
0.0
  0
LINE
  5
98
330
96
100
AcDbEntity
  8
0
 62
     0
100
AcDbLine
 10
0.5
 20
-0.5
 30
0.0
 11
0.5
 21
0.5
 31
0.0
  0
LINE
  5
99
330
96
100
AcDbEntity
  8
0
 62
     0
100
AcDbLine
 10
0.5
 20
0.5
 30
0.0
 11
-0.5
 21
0.5
 31
0.0
  0
LINE
  5
9A
330
96
100
AcDbEntity
  8
0
 62
     0
100
AcDbLine
 10
-0.5
 20
0.5
 30
0.0
 11
-0.5
 21
-0.5
 31
0.0
  0
LINE
  5
9B
330
96
100
AcDbEntity
  8
0
 62
     0
100
AcDbLine
 10
-0.5
 20
0.0
 30
0.0
 11
-1.0
 21
0.0
 31
0.0
  0
ENDBLK
  5
9D
330
96
100
AcDbEntity
  8
0
100
AcDbBlockEnd
  0
BLOCK
  5
A1
330
9E
100
AcDbEntity
  8
0
100
AcDbBlockBegin
  2
_BOXFILLED
 70
     0
 10
0.0
 20
0.0
 30
0.0
  3
_BOXFILLED
  1

  0
SOLID
  5
9F
330
9E
100
AcDbEntity
  8
0
 62
     0
100
AcDbTrace
 10
-0.5
 20
0.5
 30
0.0
 11
0.5
 21
0.5
 31
0.0
 12
-0.5
 22
-0.5
 32
0.0
 13
0.5
 23
-0.5
 33
0.0
  0
LINE
  5
A0
330
9E
100
AcDbEntity
  8
0
 62
     0
100
AcDbLine
 10
-0.5
 20
0.0
 30
0.0
 11
-1.0
 21
0.0
 31
0.0
  0
ENDBLK
  5
A2
330
9E
100
AcDbEntity
  8
0
100
AcDbBlockEnd
  0
BLOCK
  5
A6
330
A3
100
AcDbEntity
  8
0
100
AcDbBlockBegin
  2
_INTEGRAL
 70
     0
 10
0.0
 20
0.0
 30
0.0
  3
_INTEGRAL
  1

  0
ARC
  5
A4
330
A3
100
AcDbEntity
  8
0
 62
     0
100
AcDbCircle
 10
0.444888
 20
-0.0913346
 30
0.0
 40
0.4541666
100
AcDbArc
 50
101.9999999999999
 51
167.9999999999998
  0
ARC
  5
A5
330
A3
100
AcDbEntity
  8
0
 62
     0
100
AcDbCircle
 10
-0.444888
 20
0.0913346
 30
0.0
 40
0.4541666
100
AcDbArc
 50
281.9999999999997
 51
347.9999999999997
  0
ENDBLK
  5
A7
330
A3
100
AcDbEntity
  8
0
100
AcDbBlockEnd
  0
BLOCK
  5
AA
330
A8
100
AcDbEntity
  8
0
100
AcDbBlockBegin
  2
_OBLIQUE
 70
     0
 10
0.0
 20
0.0
 30
0.0
  3
_OBLIQUE
  1

  0
LINE
  5
A9
330
A8
100
AcDbEntity
  8
0
 62
     0
100
AcDbLine
 10
-0.5
 20
-0.5
 30
0.0
 11
0.5
 21
0.5
 31
0.0
  0
ENDBLK
  5
AB
330
A8
100
AcDbEntity
  8
0
100
AcDbBlockEnd
  0
BLOCK
  5
AD
330
AC
100
AcDbEntity
  8
0
100
AcDbBlockBegin
  2
_NONE
 70
     0
 10
0.0
 20
0.0
 30
0.0
  3
_NONE
  1

  0
ENDBLK
  5
AE
330
AC
100
AcDbEntity
  8
0
100
AcDbBlockEnd
  0
BLOCK
  5
B2
330
AF
100
AcDbEntity
  8
0
100
AcDbBlockBegin
  2
MARK_OPEN
 70
     0
 10
0.0
 20
0.0
 30
0.0
  3
MARK_OPEN
  1

  0
LINE
  5
B0
330
AF
100
AcDbEntity
  8
0
 62
     0
100
AcDbLine
 10
0.0
 20
0.0
 30
0.0
 11
-1.0
 21
0.1666666666666667
 31
0.0
  0
LINE
  5
B1
330
AF
100
AcDbEntity
  8
0
 62
     0
100
AcDbLine
 10
0.0
 20
0.0
 30
0.0
 11
-1.0
 21
-0.1666666666666667
 31
0.0
  0
ENDBLK
  5
B3
330
AF
100
AcDbEntity
  8
0
100
AcDbBlockEnd
  0
BLOCK
  5
B6
330
B4
100
AcDbEntity
  8
0
100
AcDbBlockBegin
  2
MARK_ORIGIN
 70
     0
 10
0.0
 20
0.0
 30
0.0
  3
MARK_ORIGIN
  1

  0
CIRCLE
  5
B5
330
B4
100
AcDbEntity
  8
0
 62
     0
100
AcDbCircle
 10
0.0
 20
0.0
 30
0.0
 40
0.5
  0
ENDBLK
  5
B7
330
B4
100
AcDbEntity
  8
0
100
AcDbBlockEnd
  0
BLOCK
  5
BA
330
B8
100
AcDbEntity
  8
0
100
AcDbBlockBegin
  2
MARK_DOT
 70
     0
 10
0.0
 20
0.0
 30
0.0
  3
MARK_DOT
  1

  0
LWPOLYLINE
  5
B9
330
B8
100
AcDbEntity
  8
0
 62
     0
100
AcDbPolyline
 90
        2
 70
     1
 43
0.5
 10
-0.25
 20
0.0
 42
1.0
 10
0.25
 20
0.0
 42
1.0
  0
ENDBLK
  5
BB
330
B8
100
AcDbEntity
  8
0
100
AcDbBlockEnd
  0
ENDSEC
  0
SECTION
  2
ENTITIES
  0
LINE
  5
DB
330
1F
100
AcDbEntity
  8
100
  6
Continuous
 62
     7
370
    30
100
AcDbLine
 10
137.1793110658342
 20
-45.09291059515448
 30
0.0
 11
140.9879048158342
 21
-45.09291059515448
 31
0.0
  0
LINE
  5
DC
330
1F
100
AcDbEntity
  8
100
  6
Continuous
 62
     7
370
    30
100
AcDbLine
 10
140.8707173158342
 20
-45.41517622015448
 30
0.0
 11
140.8121235658342
 21
-49.22376997015448
 31
0.0
  0
LINE
  5
DD
330
1F
100
AcDbEntity
  8
100
  6
Continuous
 62
     7
370
    30
100
AcDbLine
 10
140.8121235658342
 20
-49.22376997015448
 30
0.0
 11
141.8082173158342
 21
-50.19056684515448
 31
0.0
  0
LINE
  5
DE
330
1F
100
AcDbEntity
  8
100
  6
Continuous
 62
     7
370
    30
100
AcDbLine
 10
136.5640766908342
 20
-49.51673872015448
 30
0.0
 11
140.8121235658342
 21
-49.22376997015448
 31
0.0
  0
LINE
  5
DF
330
1F
100
AcDbEntity
  8
100
  6
Continuous
 62
     7
370
    30
100
AcDbLine
 10
139.4058735658342
 20
-50.19056684515448
 30
0.0
 11
136.5640766908342
 21
-49.51673872015448
 31
0.0
  0
LINE
  5
E0
330
1F
100
AcDbEntity
  8
100
  6
Continuous
 62
     7
370
    30
100
AcDbLine
 10
141.8082173158342
 20
-50.19056684515448
 30
0.0
 11
139.4058735658342
 21
-50.19056684515448
 31
0.0
  0
LINE
  5
E1
330
1F
100
AcDbEntity
  8
100
  6
Continuous
 62
     7
370
    30
100
AcDbLine
 10
141.8375141908342
 20
-44.18470747015448
 30
0.0
 11
141.8082173158342
 21
-50.19056684515448
 31
0.0
  0
LINE
  5
E2
330
1F
100
AcDbEntity
  8
100
  6
Continuous
 62
     7
370
    30
100
AcDbLine
 10
140.7535298158342
 20
-44.21400434515448
 30
0.0
 11
141.8375141908342
 21
-44.18470747015448
 31
0.0
  0
LINE
  5
E3
330
1F
100
AcDbEntity
  8
100
  6
Continuous
 62
     7
370
    30
100
AcDbLine
 10
136.4761860658342
 20
-44.94642622015448
 30
0.0
 11
140.7535298158342
 21
-44.21400434515448
 31
0.0
  0
LINE
  5
E4
330
1F
100
AcDbEntity
  8
100
  6
Continuous
 62
     7
370
    30
100
AcDbLine
 10
154.5303852845842
 20
-42.18519575140448
 30
0.0
 11
154.0982563783342
 21
-42.08998090765448
 31
0.0
  0
LINE
  5
E5
330
1F
100
AcDbEntity
  8
100
  6
Continuous
 62
     7
370
    30
100
AcDbLine
 10
155.0357563783342
 20
-42.18519575140448
 30
0.0
 11
154.5303852845842
 21
-42.18519575140448
 31
0.0
  0
LINE
  5
E6
330
1F
100
AcDbEntity
  8
100
  6
Continuous
 62
     7
370
    30
100
AcDbLine
 10
155.4166157533342
 20
-42.11195356390448
 30
0.0
 11
155.0357563783342
 21
-42.18519575140448
 31
0.0
  0
LINE
  5
E7
330
1F
100
AcDbEntity
  8
100
  6
Continuous
 62
     7
370
    30
100
AcDbLine
 10
155.4825337220842
 20
-41.89955122015448
 30
0.0
 11
155.4166157533342
 21
-42.11195356390448
 31
0.0
  0
LINE
  5
E8
330
1F
100
AcDbEntity
  8
100
  6
Continuous
 62
     7
370
    30
100
AcDbLine
 10
155.4385884095842
 20
-41.69447309515448
 30
0.0
 11
155.4825337220842
 21
-41.89955122015448
 31
0.0
  0
LINE
  5
E9
330
1F
100
AcDbEntity
  8
100
  6
Continuous
 62
     7
370
    30
100
AcDbLine
 10
155.1602680970842
 20
-41.48939497015448
 30
0.0
 11
155.4385884095842
 21
-41.69447309515448
 31
0.0
  0
LINE
  5
EA
330
1F
100
AcDbEntity
  8
100
  6
Continuous
 62
     7
370
    30
100
AcDbLine
 10
154.6841938783342
 20
-41.43812543890448
 30
0.0
 11
155.1602680970842
 21
-41.48939497015448
 31
0.0
  0
LINE
  5
EB
330
1F
100
AcDbEntity
  8
100
  6
Continuous
 62
     7
370
    30
100
AcDbLine
 10
154.2227680970842
 20
-41.45277387640448
 30
0.0
 11
154.6841938783342
 21
-41.43812543890448
 31
0.0
  0
LINE
  5
EC
330
1F
100
AcDbEntity
  8
100
  6
Continuous
 62
     7
370
    30
100
AcDbLine
 10
153.9810688783342
 20
-41.60658247015448
 30
0.0
 11
154.2227680970842
 21
-41.45277387640448
 31
0.0
  0
LINE
  5
ED
330
1F
100
AcDbEntity
  8
100
  6
Continuous
 62
     7
370
    30
100
AcDbLine
 10
153.8785298158342
 20
-41.80433637640448
 30
0.0
 11
153.9810688783342
 21
-41.60658247015448
 31
0.0
  0
LINE
  5
EE
330
1F
100
AcDbEntity
  8
100
  6
Continuous
 62
     7
370
    30
100
AcDbLine
 10
153.8858540345842
 20
-41.99476606390448
 30
0.0
 11
153.8785298158342
 21
-41.80433637640448
 31
0.0
  0
LINE
  5
EF
330
1F
100
AcDbEntity
  8
100
  6
Continuous
 62
     7
370
    30
100
AcDbLine
 10
154.0982563783342
 20
-42.08998090765448
 30
0.0
 11
153.8858540345842
 21
-41.99476606390448
 31
0.0
  0
LINE
  5
F0
330
1F
100
AcDbEntity
  8
100
  6
Continuous
 62
     7
370
    30
100
AcDbLine
 10
154.9918110658342
 20
-50.29310590765448
 30
0.0
 11
153.9517720033342
 21
-50.14662153265448
 31
0.0
  0
LINE
  5
F1
330
1F
100
AcDbEntity
  8
100
  6
Continuous
 62
     7
370
    30
100
AcDbLine
 10
155.2994282533342
 20
-50.26380903265448
 30
0.0
 11
154.9918110658342
 21
-50.29310590765448
 31
0.0
  0
LINE
  5
F2
330
1F
100
AcDbEntity
  8
100
  6
Continuous
 62
     7
370
    30
100
AcDbLine
 10
155.5191548158342
 20
-49.85365278265448
 30
0.0
 11
155.2994282533342
 21
-50.26380903265448
 31
0.0
  0
LINE
  5
F3
330
1F
100
AcDbEntity
  8
100
  6
Continuous
 62
     7
370
    30
100
AcDbLine
 10
155.4019673158342
 20
-49.51673872015448
 30
0.0
 11
155.5191548158342
 21
-49.85365278265448
 31
0.0
  0
LINE
  5
F4
330
1F
100
AcDbEntity
  8
100
  6
Continuous
 62
     7
370
    30
100
AcDbLine
 10
154.6988423158342
 20
-49.35560590765448
 30
0.0
 11
155.4019673158342
 21
-49.51673872015448
 31
0.0
  0
LINE
  5
F5
330
1F
100
AcDbEntity
  8
100
  6
Continuous
 62
     7
370
    30
100
AcDbLine
 10
153.9224751283342
 20
-49.44349653265448
 30
0.0
 11
154.6988423158342
 21
-49.35560590765448
 31
0.0
  0
LINE
  5
F6
330
1F
100
AcDbEntity
  8
100
  6
Continuous
 62
     7
370
    30
100
AcDbLine
 10
153.6295063783342
 20
-49.76576215765448
 30
0.0
 11
153.9224751283342
 21
-49.44349653265448
 31
0.0
  0
LINE
  5
F7
330
1F
100
AcDbEntity
  8
100
  6
Continuous
 62
     7
370
    30
100
AcDbLine
 10
153.9517720033342
 20
-50.14662153265448
 30
0.0
 11
153.6295063783342
 21
-49.76576215765448
 31
0.0
  0
LINE
  5
F8
330
1F
100
AcDbEntity
  8
100
  6
Continuous
 62
     7
370
    30
100
AcDbLine
 10
147.8308954949397
 20
-50.35006419726624
 30
0.0
 11
157.6407475082469
 21
-50.58249250699946
 31
0.0
  0
LINE
  5
F9
330
1F
100
AcDbEntity
  8
100
  6
Continuous
 62
     7
370
    30
100
AcDbLine
 10
157.6724751283342
 20
-51.34779340765448
 30
0.0
 11
147.7994282533342
 21
-51.43568403265448
 31
0.0
  0
LINE
  5
FA
330
1F
100
AcDbEntity
  8
100
  6
Continuous
 62
     7
370
    30
100
AcDbLine
 10
157.6724751283342
 20
-50.82044965765448
 30
0.0
 11
157.6724751283342
 21
-51.34779340765448
 31
0.0
  0
LINE
  5
FB
330
1F
100
AcDbEntity
  8
100
  6
Continuous
 62
     7
370
    30
100
AcDbLine
 10
157.5552876283342
 20
-49.94154340765448
 30
0.0
 11
157.6724751283342
 21
-50.82044965765448
 31
0.0
  0
LINE
  5
FC
330
1F
100
AcDbEntity
  8
100
  6
Continuous
 62
     7
370
    30
100
AcDbLine
 10
156.9107563783342
 20
-49.17982465765448
 30
0.0
 11
157.5552876283342
 21
-49.94154340765448
 31
0.0
  0
LINE
  5
FD
330
1F
100
AcDbEntity
  8
100
  6
Continuous
 62
     7
370
    30
100
AcDbLine
 10
147.8733190914769
 20
-48.88645011673108
 30
0.0
 11
156.9107563783342
 21
-49.17982465765448
 31
0.0
  0
LINE
  5
FE
330
1F
100
AcDbEntity
  8
100
  6
Continuous
 62
     7
370
    30
100
AcDbLine
 10
148.0923970033342
 20
-42.35365278265448
 30
0.0
 11
158.0240376283342
 21
-42.44154340765448
 31
0.0
  0
LINE
  5
FF
330
1F
100
AcDbEntity
  8
100
  6
Continuous
 62
     7
370
    30
100
AcDbLine
 10
157.7896626283342
 20
-43.49623090765448
 30
0.0
 11
148.0586056988946
 21
-43.32233684325543
 31
0.0
  0
LINE
  5
100
330
1F
100
AcDbEntity
  8
100
  6
Continuous
 62
     7
370
    30
100
AcDbLine
 10
158.0240376283342
 20
-42.44154340765448
 30
0.0
 11
157.7896626283342
 21
-43.49623090765448
 31
0.0
  0
LINE
  5
101
330
1F
100
AcDbEntity
  8
100
  6
Continuous
 62
     7
370
    30
100
AcDbLine
 10
157.7310688783342
 20
-41.38685590765448
 30
0.0
 11
158.0240376283342
 21
-42.44154340765448
 31
0.0
  0
LINE
  5
102
330
1F
100
AcDbEntity
  8
100
  6
Continuous
 62
     7
370
    30
100
AcDbLine
 10
156.5006001283342
 20
-41.09388715765448
 30
0.0
 11
157.7310688783342
 21
-41.38685590765448
 31
0.0
  0
LINE
  5
103
330
1F
100
AcDbEntity
  8
100
  6
Continuous
 62
     7
370
    30
100
AcDbLine
 10
147.7068047324421
 20
-40.97802630271514
 30
0.0
 11
156.5006001283342
 21
-41.09388715765448
 31
0.0
  0
LINE
  5
104
330
1F
100
AcDbEntity
  8
100
  6
Continuous
 62
     7
370
    30
100
AcDbLine
 10
146.9287801828644
 20
-42.57623038332562
 30
0.0
 11
148.0923970033342
 21
-42.35365278265448
 31
0.0
  0
LINE
  5
105
330
1F
100
AcDbEntity
  8
100
  6
Continuous
 62
     7
370
    30
100
AcDbLine
 10
147.0084126283342
 20
-43.02748090765448
 30
0.0
 11
146.9425188000547
 21
-53.53240942611196
 31
0.0
  0
LINE
  5
106
330
1F
100
AcDbEntity
  8
100
  6
Continuous
 62
     7
370
    30
100
AcDbLine
 10
146.8326313783342
 20
-42.03138715765448
 30
0.0
 11
147.0084126283342
 21
-43.02748090765448
 31
0.0
  0
LINE
  5
107
330
1F
100
AcDbEntity
  8
100
  6
Continuous
 62
     7
370
    30
100
AcDbLine
 10
145.9830220033342
 20
-38.86732465765448
 30
0.0
 11
146.8326313783342
 21
-42.03138715765448
 31
0.0
  0
LINE
  5
108
330
1F
100
AcDbEntity
  8
100
  6
Continuous
 62
     7
370
    30
100
AcDbLine
 10
144.1959126283342
 20
-42.03138715765448
 30
0.0
 11
146.8326313783342
 21
-42.03138715765448
 31
0.0
  0
LINE
  5
109
330
1F
100
AcDbEntity
  8
100
  6
Continuous
 62
     7
370
    30
100
AcDbLine
 10
140.7974751283342
 20
-42.50013715765448
 30
0.0
 11
144.1959126283342
 21
-42.03138715765448
 31
0.0
  0
LINE
  5
10A
330
1F
100
AcDbEntity
  8
100
  6
Continuous
 62
     7
370
    30
100
AcDbLine
 10
137.5748188783342
 20
-43.37904340765448
 30
0.0
 11
140.7974751283342
 21
-42.50013715765448
 31
0.0
  0
LINE
  5
10B
330
1F
100
AcDbEntity
  8
100
  6
Continuous
 62
     7
370
    30
100
AcDbLine
 10
134.2935688783342
 20
-43.84779340765448
 30
0.0
 11
137.5748188783342
 21
-43.37904340765448
 31
0.0
  0
LINE
  5
10C
330
1F
100
AcDbEntity
  8
100
  6
Continuous
 62
     7
370
    30
100
AcDbLine
 10
131.9498188783342
 20
-43.20326215765448
 30
0.0
 11
134.2935688783342
 21
-43.84779340765448
 31
0.0
  0
LINE
  5
10D
330
1F
100
AcDbEntity
  8
100
  6
Continuous
 62
     7
370
    30
100
AcDbLine
 10
129.6060688783342
 20
-41.85560590765448
 30
0.0
 11
129.0494282533342
 21
-39.27748090765448
 31
0.0
  0
LINE
  5
10E
330
1F
100
AcDbEntity
  8
100
  6
Continuous
 62
     7
370
    30
100
AcDbLine
 10
129.7525532533342
 20
-42.82240278265448
 30
0.0
 11
129.6060688783342
 21
-41.85560590765448
 31
0.0
  0
LINE
  5
10F
330
1F
100
AcDbEntity
  8
100
  6
Continuous
 62
     7
370
    30
100
AcDbLine
 10
129.7232563783342
 20
-44.87318403265448
 30
0.0
 11
129.7525532533342
 21
-42.82240278265448
 31
0.0
  0
LINE
  5
110
330
1F
100
AcDbEntity
  8
100
  6
Continuous
 62
     7
370
    30
100
AcDbLine
 10
129.6060688783342
 20
-52.60755903265448
 30
0.0
 11
129.7232563783342
 21
-44.87318403265448
 31
0.0
  0
LINE
  5
111
330
1F
100
AcDbEntity
  8
100
  6
Continuous
 62
     7
370
    30
100
AcDbLine
 10
130.3384907533342
 20
-48.94544965765448
 30
0.0
 11
130.3742729161237
 21
-52.32573935421718
 31
0.0
  0
LINE
  5
112
330
1F
100
AcDbEntity
  8
100
  6
Continuous
 62
     7
370
    30
100
AcDbLine
 10
130.8072407533342
 20
-43.23255903265448
 30
0.0
 11
130.3384907533342
 21
-48.94544965765448
 31
0.0
  0
LINE
  5
113
330
1F
100
AcDbEntity
  8
100
  6
Continuous
 62
     7
370
    30
100
AcDbLine
 10
130.7779438783342
 20
-42.52943403265448
 30
0.0
 11
130.8072407533342
 21
-43.23255903265448
 31
0.0
  0
LINE
  5
114
330
1F
100
AcDbEntity
  8
100
  6
Continuous
 62
     7
370
    30
100
AcDbLine
 10
130.1041157533342
 20
-39.21888715765448
 30
0.0
 11
130.7779438783342
 21
-42.52943403265448
 31
0.0
  0
LINE
  5
115
330
1F
100
AcDbEntity
  8
100
  6
Continuous
 62
     7
370
    30
100
AcDbLine
 10
130.1041157533342
 20
-39.21888715765448
 30
0.0
 11
129.0494282533342
 21
-39.27748090765448
 31
0.0
  0
LINE
  5
116
330
1F
100
AcDbEntity
  8
100
  6
Continuous
 62
     7
370
    30
100
AcDbLine
 10
131.1002095033342
 20
-40.12709028265448
 30
0.0
 11
130.1041157533342
 21
-39.21888715765448
 31
0.0
  0
LINE
  5
117
330
1F
100
AcDbEntity
  8
100
  6
Continuous
 62
     7
370
    30
100
AcDbLine
 10
132.2720845033342
 20
-40.77162153265448
 30
0.0
 11
131.1002095033342
 21
-40.12709028265448
 31
0.0
  0
LINE
  5
118
330
1F
100
AcDbEntity
  8
100
  6
Continuous
 62
     7
370
    30
100
AcDbLine
 10
134.0006001283342
 20
-41.03529340765448
 30
0.0
 11
132.2720845033342
 21
-40.77162153265448
 31
0.0
  0
LINE
  5
119
330
1F
100
AcDbEntity
  8
100
  6
Continuous
 62
     7
370
    30
100
AcDbLine
 10
135.6119282533342
 20
-40.97669965765448
 30
0.0
 11
134.0006001283342
 21
-41.03529340765448
 31
0.0
  0
LINE
  5
11A
330
1F
100
AcDbEntity
  8
100
  6
Continuous
 62
     7
370
    30
100
AcDbLine
 10
137.6920063783342
 20
-40.33216840765448
 30
0.0
 11
135.6119282533342
 21
-40.97669965765448
 31
0.0
  0
LINE
  5
11B
330
1F
100
AcDbEntity
  8
100
  6
Continuous
 62
     7
370
    30
100
AcDbLine
 10
140.7681782533342
 20
-39.24818403265448
 30
0.0
 11
137.6920063783342
 21
-40.33216840765448
 31
0.0
  0
LINE
  5
11C
330
1F
100
AcDbEntity
  8
100
  6
Continuous
 62
     7
370
    30
100
AcDbLine
 10
142.7017720033342
 20
-38.98451215765448
 30
0.0
 11
140.7681782533342
 21
-39.24818403265448
 31
0.0
  0
LINE
  5
11D
330
1F
100
AcDbEntity
  8
100
  6
Continuous
 62
     7
370
    30
100
AcDbLine
 10
145.9830220033342
 20
-38.86732465765448
 30
0.0
 11
142.7017720033342
 21
-38.98451215765448
 31
0.0
  0
LINE
  5
11E
330
1F
100
AcDbEntity
  8
100
  6
Continuous
 62
     7
370
    30
100
AcDbLine
 10
146.3931782533342
 20
-38.48646528265448
 30
0.0
 11
145.9830220033342
 21
-38.86732465765448
 31
0.0
  0
LINE
  5
11F
330
1F
100
AcDbEntity
  8
100
  6
Continuous
 62
     7
370
    30
100
AcDbLine
 10
147.0084126283342
 20
-38.48646528265448
 30
0.0
 11
146.3931782533342
 21
-38.48646528265448
 31
0.0
  0
LINE
  5
120
330
1F
100
AcDbEntity
  8
100
  6
Continuous
 62
     7
370
    30
100
AcDbLine
 10
148.0923970033342
 20
-42.35365278265448
 30
0.0
 11
147.0084126283342
 21
-38.48646528265448
 31
0.0
  0
LINE
  5
121
330
1F
100
AcDbEntity
  8
100
  6
Continuous
 62
     7
370
    30
100
AcDbLine
 10
147.9166157533342
 20
-47.39271528265448
 30
0.0
 11
148.0923970033342
 21
-42.35365278265448
 31
0.0
  0
LINE
  5
122
330
1F
100
AcDbEntity
  8
100
  6
Continuous
 62
     7
370
    30
100
AcDbLine
 10
147.7994282533342
 20
-51.43568403265448
 30
0.0
 11
147.9166157533342
 21
-47.39271528265448
 31
0.0
  0
LINE
  5
123
330
1F
100
AcDbEntity
  8
100
  6
Continuous
 62
     7
370
    30
100
AcDbLine
 10
147.7115376283342
 20
-53.57435590765448
 30
0.0
 11
147.7994282533342
 21
-51.43568403265448
 31
0.0
  0
LINE
  5
124
330
1F
100
AcDbEntity
  8
100
  6
Continuous
 62
     7
370
    30
100
AcDbLine
 10
142.8775532533342
 20
-53.31068403265448
 30
0.0
 11
147.7115376283342
 21
-53.57435590765448
 31
0.0
  0
LINE
  5
125
330
1F
100
AcDbEntity
  8
100
  6
Continuous
 62
     7
370
    30
100
AcDbLine
 10
135.7584126283342
 20
-50.58607465765448
 30
0.0
 11
142.8775532533342
 21
-53.31068403265448
 31
0.0
  0
LINE
  5
126
330
1F
100
AcDbEntity
  8
100
  6
Continuous
 62
     7
370
    30
100
AcDbLine
 10
133.8541157533342
 20
-50.35169965765448
 30
0.0
 11
135.7584126283342
 21
-50.58607465765448
 31
0.0
  0
LINE
  5
127
330
1F
100
AcDbEntity
  8
100
  6
Continuous
 62
     7
370
    30
100
AcDbLine
 10
132.4185688783342
 20
-50.93763715765448
 30
0.0
 11
133.8541157533342
 21
-50.35169965765448
 31
0.0
  0
LINE
  5
128
330
1F
100
AcDbEntity
  8
100
  6
Continuous
 62
     7
370
    30
100
AcDbLine
 10
130.0455220033342
 20
-52.54896528265448
 30
0.0
 11
132.4185688783342
 21
-50.93763715765448
 31
0.0
  0
LINE
  5
129
330
1F
100
AcDbEntity
  8
100
  6
Continuous
 62
     7
370
    30
100
AcDbLine
 10
129.6060688783342
 20
-52.60755903265448
 30
0.0
 11
130.0455220033342
 21
-52.54896528265448
 31
0.0
  0
LINE
  5
12A
330
1F
100
AcDbEntity
  8
100
  6
Continuous
 62
     7
370
    30
100
AcDbLine
 10
128.9322407533342
 20
-51.08412153265448
 30
0.0
 11
129.6060688783342
 21
-52.60755903265448
 31
0.0
  0
LINE
  5
12B
330
1F
100
AcDbEntity
  8
100
  6
Continuous
 62
     7
370
    30
100
AcDbLine
 10
128.9029438783342
 20
-49.09193403265448
 30
0.0
 11
128.9322407533342
 21
-51.08412153265448
 31
0.0
  0
LINE
  5
12C
330
1F
100
AcDbEntity
  8
100
  6
Continuous
 62
     7
370
    30
100
AcDbLine
 10
128.9029438783342
 20
-41.82630903265448
 30
0.0
 11
128.9029438783342
 21
-49.09193403265448
 31
0.0
  0
LINE
  5
12D
330
1F
100
AcDbEntity
  8
100
  6
Continuous
 62
     7
370
    30
100
AcDbLine
 10
129.0201313783342
 20
-40.77162153265448
 30
0.0
 11
128.9029438783342
 21
-41.82630903265448
 31
0.0
  0
LINE
  5
12E
330
1F
100
AcDbEntity
  8
100
  6
Continuous
 62
     7
370
    30
100
AcDbLine
 10
129.0494282533342
 20
-39.27748090765448
 30
0.0
 11
129.0201313783342
 21
-40.77162153265448
 31
0.0
  0
LINE
  5
12F
330
1F
100
AcDbEntity
  8
100
  6
Continuous
 62
     7
370
    30
100
AcDbLine
 10
119.4693501283342
 20
-41.91419965765448
 30
0.0
 11
116.1002095033342
 21
-41.97279340765448
 31
0.0
  0
LINE
  5
130
330
1F
100
AcDbEntity
  8
100
  6
Continuous
 62
     7
370
    30
100
AcDbLine
 10
125.0357563783342
 20
-41.88490278265448
 30
0.0
 11
119.4693501283342
 21
-41.91419965765448
 31
0.0
  0
LINE
  5
131
330
1F
100
AcDbEntity
  8
100
  6
Continuous
 62
     7
370
    30
100
AcDbLine
 10
128.9029438783342
 20
-41.82630903265448
 30
0.0
 11
125.0357563783342
 21
-41.88490278265448
 31
0.0
  0
LINE
  5
132
330
1F
100
AcDbEntity
  8
100
  6
Continuous
 62
     7
370
    30
100
AcDbLine
 10
116.0123188783342
 20
-48.00794965765448
 30
0.0
 11
128.9029438783342
 21
-49.09193403265448
 31
0.0
  0
LINE
  5
133
330
1F
100
AcDbEntity
  8
100
  6
Continuous
 62
     7
370
    30
100
AcDbLine
 10
116.0123188783342
 20
-47.33412153265448
 30
0.0
 11
116.0123188783342
 21
-48.00794965765448
 31
0.0
  0
LINE
  5
134
330
1F
100
AcDbEntity
  8
100
  6
Continuous
 62
     7
370
    30
100
AcDbLine
 10
116.1295063783342
 20
-42.76380903265448
 30
0.0
 11
116.0123188783342
 21
-47.33412153265448
 31
0.0
  0
LINE
  5
135
330
1F
100
AcDbEntity
  8
100
  6
Continuous
 62
     7
370
    30
100
AcDbLine
 10
116.1002095033342
 20
-41.97279340765448
 30
0.0
 11
116.1295063783342
 21
-42.76380903265448
 31
0.0
  0
LINE
  5
136
330
1F
100
AcDbEntity
  8
100
  6
Continuous
 62
     7
370
    30
100
AcDbLine
 10
138.0435688783342
 20
-10.30287153265448
 30
0.0
 11
136.0513813783342
 21
-14.69740278265448
 31
0.0
  0
LINE
  5
137
330
1F
100
AcDbEntity
  8
100
  6
Continuous
 62
     7
370
    30
100
AcDbLine
 10
138.1021626283342
 20
-7.138809032654478
 30
0.0
 11
138.0435688783342
 21
-10.30287153265448
 31
0.0
  0
LINE
  5
138
330
1F
100
AcDbEntity
  8
100
  6
Continuous
 62
     7
370
    30
100
AcDbLine
 10
136.8131001283342
 20
-4.677871532654478
 30
0.0
 11
138.1021626283342
 21
-7.138809032654478
 31
0.0
  0
LINE
  5
139
330
1F
100
AcDbEntity
  8
100
  6
Continuous
 62
     7
370
    30
100
AcDbLine
 10
134.5865376283342
 20
-1.865371532654478
 30
0.0
 11
136.8131001283342
 21
-4.677871532654478
 31
0.0
  0
LINE
  5
13A
330
1F
100
AcDbEntity
  8
100
  6
Continuous
 62
     7
370
    30
100
AcDbLine
 10
131.3638813783342
 20
0.8299409673455216
 30
0.0
 11
134.5865376283342
 21
-1.865371532654478
 31
0.0
  0
LINE
  5
13B
330
1F
100
AcDbEntity
  8
100
  6
Continuous
 62
     7
370
    30
100
AcDbLine
 10
127.2037251283342
 20
3.759628467345522
 30
0.0
 11
131.3638813783342
 21
0.8299409673455216
 31
0.0
  0
LINE
  5
13C
330
1F
100
AcDbEntity
  8
100
  6
Continuous
 62
     7
370
    30
100
AcDbLine
 10
119.0591938783342
 20
7.744003467345522
 30
0.0
 11
127.2037251283342
 21
3.759628467345522
 31
0.0
  0
LINE
  5
13D
330
1F
100
AcDbEntity
  8
100
  6
Continuous
 62
     7
370
    30
100
AcDbLine
 10
110.1529438783342
 20
10.67369096734552
 30
0.0
 11
119.0591938783342
 21
7.744003467345522
 31
0.0
  0
LINE
  5
13E
330
1F
100
AcDbEntity
  8
100
  6
Continuous
 62
     7
370
    30
100
AcDbLine
 10
102.6500748478068
 20
12.24851422089698
 30
0.0
 11
110.1529438783342
 21
10.67369096734552
 31
0.0
  0
LINE
  5
13F
330
1F
100
AcDbEntity
  8
100
  6
Continuous
 62
     7
370
    30
100
AcDbLine
 10
108.7466938783342
 20
-46.33802778265448
 30
0.0
 11
116.0123188783342
 21
-47.33412153265448
 31
0.0
  0
LINE
  5
140
330
1F
100
AcDbEntity
  8
100
  6
Continuous
 62
     7
370
    30
100
AcDbLine
 10
99.31310012833421
 20
-44.87318403265448
 30
0.0
 11
108.7466938783342
 21
-46.33802778265448
 31
0.0
  0
LINE
  5
141
330
1F
100
AcDbEntity
  8
100
  6
Continuous
 62
     7
370
    30
100
AcDbLine
 10
93.98106887833421
 20
-43.40834028265448
 30
0.0
 11
99.31310012833421
 21
-44.87318403265448
 31
0.0
  0
LINE
  5
142
330
1F
100
AcDbEntity
  8
100
  6
Continuous
 62
     7
370
    30
100
AcDbLine
 10
89.11778762833421
 20
-42.35365278265448
 30
0.0
 11
93.98106887833421
 21
-43.40834028265448
 31
0.0
  0
LINE
  5
143
330
1F
100
AcDbEntity
  8
100
  6
Continuous
 62
     7
370
    30
100
AcDbLine
 10
87.12560012833421
 20
-41.76771528265448
 30
0.0
 11
89.11778762833421
 21
-42.35365278265448
 31
0.0
  0
LINE
  5
144
330
1F
100
AcDbEntity
  8
100
  6
Continuous
 62
     7
370
    30
100
AcDbLine
 10
108.3365376283342
 20
-42.17787153265448
 30
0.0
 11
116.1295063783342
 21
-42.76380903265448
 31
0.0
  0
LINE
  5
145
330
1F
100
AcDbEntity
  8
100
  6
Continuous
 62
     7
370
    30
100
AcDbLine
 10
104.2349751283342
 20
-41.59193403265448
 30
0.0
 11
108.3365376283342
 21
-42.17787153265448
 31
0.0
  0
LINE
  5
146
330
1F
100
AcDbEntity
  8
100
  6
Continuous
 62
     7
370
    30
100
AcDbLine
 10
95.15294387833421
 20
-39.24818403265448
 30
0.0
 11
104.2349751283342
 21
-41.59193403265448
 31
0.0
  0
LINE
  5
147
330
1F
100
AcDbEntity
  8
100
  6
Continuous
 62
     7
370
    30
100
AcDbLine
 10
89.46935012833421
 20
-37.90052778265448
 30
0.0
 11
95.15294387833421
 21
-39.24818403265448
 31
0.0
  0
LINE
  5
148
330
1F
100
AcDbEntity
  8
100
  6
Continuous
 62
     7
370
    30
100
AcDbLine
 10
84.93085119713112
 20
-36.30320357077483
 30
0.0
 11
89.46935012833421
 21
-37.90052778265448
 31
0.0
  0
LINE
  5
149
330
1F
100
AcDbEntity
  8
100
  6
Continuous
 62
     7
370
    30
100
AcDbLine
 10
86.48106887833421
 20
-36.08412153265448
 30
0.0
 11
84.21220780200741
 21
-34.87457513468554
 31
0.0
  0
LINE
  5
14A
330
1F
100
AcDbEntity
  8
100
  6
Continuous
 62
     7
370
    30
100
AcDbLine
 10
90.69981887833421
 20
-37.72474653265448
 30
0.0
 11
86.48106887833421
 21
-36.08412153265448
 31
0.0
  0
LINE
  5
14B
330
1F
100
AcDbEntity
  8
100
  6
Continuous
 62
     7
370
    30
100
AcDbLine
 10
95.15294387833421
 20
-39.24818403265448
 30
0.0
 11
90.69981887833421
 21
-37.72474653265448
 31
0.0
  0
LINE
  5
14C
330
1F
100
AcDbEntity
  8
100
  6
Continuous
 62
     7
370
    30
100
AcDbLine
 10
102.3013813783342
 20
-40.77162153265448
 30
0.0
 11
95.15294387833421
 21
-39.24818403265448
 31
0.0
  0
LINE
  5
14D
330
1F
100
AcDbEntity
  8
100
  6
Continuous
 62
     7
370
    30
100
AcDbLine
 10
108.7466938783342
 20
-41.29896528265448
 30
0.0
 11
102.3013813783342
 21
-40.77162153265448
 31
0.0
  0
LINE
  5
14E
330
1F
100
AcDbEntity
  8
100
  6
Continuous
 62
     7
370
    30
100
AcDbLine
 10
116.2466938783342
 20
-40.77162153265448
 30
0.0
 11
108.7466938783342
 21
-41.29896528265448
 31
0.0
  0
LINE
  5
14F
330
1F
100
AcDbEntity
  8
100
  6
Continuous
 62
     7
370
    30
100
AcDbLine
 10
122.1646626283342
 20
-39.65834028265448
 30
0.0
 11
116.2466938783342
 21
-40.77162153265448
 31
0.0
  0
LINE
  5
150
330
1F
100
AcDbEntity
  8
100
  6
Continuous
 62
     7
370
    30
100
AcDbLine
 10
129.3131001283342
 20
-37.37318403265448
 30
0.0
 11
122.1646626283342
 21
-39.65834028265448
 31
0.0
  0
LINE
  5
151
330
1F
100
AcDbEntity
  8
100
  6
Continuous
 62
     7
370
    30
100
AcDbLine
 10
136.1685688783342
 20
-33.85755903265448
 30
0.0
 11
129.3131001283342
 21
-37.37318403265448
 31
0.0
  0
LINE
  5
152
330
1F
100
AcDbEntity
  8
100
  6
Continuous
 62
     7
370
    30
100
AcDbLine
 10
141.9107563783342
 20
-28.46693403265448
 30
0.0
 11
136.1685688783342
 21
-33.85755903265448
 31
0.0
  0
LINE
  5
153
330
1F
100
AcDbEntity
  8
100
  6
Continuous
 62
     7
370
    30
100
AcDbLine
 10
145.1920063783342
 20
-23.72084028265448
 30
0.0
 11
141.9107563783342
 21
-28.46693403265448
 31
0.0
  0
LINE
  5
154
330
1F
100
AcDbEntity
  8
100
  6
Continuous
 62
     7
370
    30
100
AcDbLine
 10
146.1295063783342
 20
-20.38099653265448
 30
0.0
 11
145.1920063783342
 21
-23.72084028265448
 31
0.0
  0
LINE
  5
155
330
1F
100
AcDbEntity
  8
100
  6
Continuous
 62
     7
370
    30
100
AcDbLine
 10
146.6568501283342
 20
-16.58705122015448
 30
0.0
 11
146.1295063783342
 21
-20.38099653265448
 31
0.0
  0
LINE
  5
156
330
1F
100
AcDbEntity
  8
100
  6
Continuous
 62
     7
370
    30
100
AcDbLine
 10
141.8521626283342
 20
-19.79505903265448
 30
0.0
 11
143.9074510898727
 21
-16.43267922496217
 31
0.0
  0
LINE
  5
157
330
1F
100
AcDbEntity
  8
100
  6
Continuous
 62
     7
370
    30
100
AcDbLine
 10
138.8638813783342
 20
-22.37318403265448
 30
0.0
 11
141.8521626283342
 21
-19.79505903265448
 31
0.0
  0
LINE
  5
158
330
1F
100
AcDbEntity
  8
100
  6
Continuous
 62
     7
370
    30
100
AcDbLine
 10
135.1724751283342
 20
-24.89271528265448
 30
0.0
 11
138.8638813783342
 21
-22.37318403265448
 31
0.0
  0
LINE
  5
159
330
1F
100
AcDbEntity
  8
100
  6
Continuous
 62
     7
370
    30
100
AcDbLine
 10
129.8990376283342
 20
-27.70521528265448
 30
0.0
 11
135.1724751283342
 21
-24.89271528265448
 31
0.0
  0
LINE
  5
15A
330
1F
100
AcDbEntity
  8
100
  6
Continuous
 62
     7
370
    30
100
AcDbLine
 10
122.1646626283342
 20
-30.51771528265448
 30
0.0
 11
129.8990376283342
 21
-27.70521528265448
 31
0.0
  0
LINE
  5
15B
330
1F
100
AcDbEntity
  8
100
  6
Continuous
 62
     7
370
    30
100
AcDbLine
 10
114.7232563783342
 20
-32.39271528265448
 30
0.0
 11
122.1646626283342
 21
-30.51771528265448
 31
0.0
  0
LINE
  5
15C
330
1F
100
AcDbEntity
  8
100
  6
Continuous
 62
     7
370
    30
100
AcDbLine
 10
104.9966938783342
 20
-32.50990278265448
 30
0.0
 11
114.7232563783342
 21
-32.39271528265448
 31
0.0
  0
LINE
  5
15D
330
1F
100
AcDbEntity
  8
100
  6
Continuous
 62
     7
370
    30
100
AcDbLine
 10
98.14122512833421
 20
-32.39271528265448
 30
0.0
 11
104.9966938783342
 21
-32.50990278265448
 31
0.0
  0
LINE
  5
15E
330
1F
100
AcDbEntity
  8
100
  6
Continuous
 62
     7
370
    30
100
AcDbLine
 10
90.58263137833421
 20
-30.92787153265448
 30
0.0
 11
98.14122512833421
 21
-32.39271528265448
 31
0.0
  0
LINE
  5
15F
330
1F
100
AcDbEntity
  8
100
  6
Continuous
 62
     7
370
    30
100
AcDbLine
 10
85.13341262833421
 20
-29.40443403265448
 30
0.0
 11
90.58263137833421
 21
-30.92787153265448
 31
0.0
  0
LINE
  5
160
330
1F
100
AcDbEntity
  8
100
  6
Continuous
 62
     7
370
    30
100
AcDbLine
 10
85.89513137833421
 20
-31.22084028265448
 30
0.0
 11
81.86413147360861
 21
-29.26741755018497
 31
0.0
  0
LINE
  5
161
330
1F
100
AcDbEntity
  8
100
  6
Continuous
 62
     7
370
    30
100
AcDbLine
 10
90.75841262833421
 20
-33.27162153265448
 30
0.0
 11
85.89513137833421
 21
-31.22084028265448
 31
0.0
  0
LINE
  5
162
330
1F
100
AcDbEntity
  8
100
  6
Continuous
 62
     7
370
    30
100
AcDbLine
 10
97.32091262833421
 20
-35.38099653265448
 30
0.0
 11
90.75841262833421
 21
-33.27162153265448
 31
0.0
  0
LINE
  5
163
330
1F
100
AcDbEntity
  8
100
  6
Continuous
 62
     7
370
    30
100
AcDbLine
 10
108.3365376283342
 20
-36.84584028265448
 30
0.0
 11
97.32091262833421
 21
-35.38099653265448
 31
0.0
  0
LINE
  5
164
330
1F
100
AcDbEntity
  8
100
  6
Continuous
 62
     7
370
    30
100
AcDbLine
 10
116.7154438783342
 20
-36.20130903265448
 30
0.0
 11
108.3365376283342
 21
-36.84584028265448
 31
0.0
  0
LINE
  5
165
330
1F
100
AcDbEntity
  8
100
  6
Continuous
 62
     7
370
    30
100
AcDbLine
 10
123.8638813783342
 20
-34.26771528265448
 30
0.0
 11
116.7154438783342
 21
-36.20130903265448
 31
0.0
  0
LINE
  5
166
330
1F
100
AcDbEntity
  8
100
  6
Continuous
 62
     7
370
    30
100
AcDbLine
 10
132.0670063783342
 20
-30.69349653265448
 30
0.0
 11
123.8638813783342
 21
-34.26771528265448
 31
0.0
  0
LINE
  5
167
330
1F
100
AcDbEntity
  8
100
  6
Continuous
 62
     7
370
    30
100
AcDbLine
 10
136.8131001283342
 20
-27.93959028265448
 30
0.0
 11
132.0670063783342
 21
-30.69349653265448
 31
0.0
  0
LINE
  5
168
330
1F
100
AcDbEntity
  8
100
  6
Continuous
 62
     7
370
    30
100
AcDbLine
 10
140.5045063783342
 20
-23.54505903265448
 30
0.0
 11
136.8131001283342
 21
-27.93959028265448
 31
0.0
  0
LINE
  5
169
330
1F
100
AcDbEntity
  8
100
  6
Continuous
 62
     7
370
    30
100
AcDbLine
 10
142.7896626283342
 20
-19.73646528265448
 30
0.0
 11
140.5045063783342
 21
-23.54505903265448
 31
0.0
  0
LINE
  5
16A
330
1F
100
AcDbEntity
  8
100
  6
Continuous
 62
     7
370
    30
100
AcDbLine
 10
143.7857563783342
 20
-17.04115278265448
 30
0.0
 11
142.7896626283342
 21
-19.73646528265448
 31
0.0
  0
LINE
  5
16B
330
1F
100
AcDbEntity
  8
100
  6
Continuous
 62
     7
370
    30
100
AcDbLine
 10
144.3716938783342
 20
-14.11146528265448
 30
0.0
 11
143.7857563783342
 21
-17.04115278265448
 31
0.0
  0
LINE
  5
16C
330
1F
100
AcDbEntity
  8
100
  6
Continuous
 62
     7
370
    30
100
AcDbLine
 10
145.8951313783342
 20
-7.900527782654478
 30
0.0
 11
145.44121558747
 21
-5.816314518651424
 31
0.0
  0
LINE
  5
16D
330
1F
100
AcDbEntity
  8
100
  6
Continuous
 62
     7
370
    30
100
AcDbLine
 10
145.2506001283342
 20
-11.95814497015448
 30
0.0
 11
145.8951313783342
 21
-7.900527782654478
 31
0.0
  0
LINE
  5
16E
330
1F
100
AcDbEntity
  8
100
  6
Continuous
 62
     7
370
    30
100
AcDbLine
 10
144.3716938783342
 20
-14.11146528265448
 30
0.0
 11
145.2506001283342
 21
-11.95814497015448
 31
0.0
  0
LINE
  5
16F
330
1F
100
AcDbEntity
  8
100
  6
Continuous
 62
     7
370
    30
100
AcDbLine
 10
142.3795063783342
 20
-17.45130903265448
 30
0.0
 11
144.3716938783342
 21
-14.11146528265448
 31
0.0
  0
LINE
  5
170
330
1F
100
AcDbEntity
  8
100
  6
Continuous
 62
     7
370
    30
100
AcDbLine
 10
138.2779438783342
 20
-21.08412153265448
 30
0.0
 11
142.3795063783342
 21
-17.45130903265448
 31
0.0
  0
LINE
  5
171
330
1F
100
AcDbEntity
  8
100
  6
Continuous
 62
     7
370
    30
100
AcDbLine
 10
134.2349751283342
 20
-23.72084028265448
 30
0.0
 11
138.2779438783342
 21
-21.08412153265448
 31
0.0
  0
LINE
  5
172
330
1F
100
AcDbEntity
  8
100
  6
Continuous
 62
     7
370
    30
100
AcDbLine
 10
131.1295063783342
 20
-25.36146528265448
 30
0.0
 11
134.2349751283342
 21
-23.72084028265448
 31
0.0
  0
LINE
  5
173
330
1F
100
AcDbEntity
  8
100
  6
Continuous
 62
     7
370
    30
100
AcDbLine
 10
125.5045063783342
 20
-27.17787153265448
 30
0.0
 11
131.1295063783342
 21
-25.36146528265448
 31
0.0
  0
LINE
  5
174
330
1F
100
AcDbEntity
  8
100
  6
Continuous
 62
     7
370
    30
100
AcDbLine
 10
118.2388813783342
 20
-29.11146528265448
 30
0.0
 11
125.5045063783342
 21
-27.17787153265448
 31
0.0
  0
LINE
  5
175
330
1F
100
AcDbEntity
  8
100
  6
Continuous
 62
     7
370
    30
100
AcDbLine
 10
110.0357563783342
 20
-29.87318403265448
 30
0.0
 11
118.2388813783342
 21
-29.11146528265448
 31
0.0
  0
LINE
  5
176
330
1F
100
AcDbEntity
  8
100
  6
Continuous
 62
     7
370
    30
100
AcDbLine
 10
103.4732563783342
 20
-29.46302778265448
 30
0.0
 11
110.0357563783342
 21
-29.87318403265448
 31
0.0
  0
LINE
  5
177
330
1F
100
AcDbEntity
  8
100
  6
Continuous
 62
     7
370
    30
100
AcDbLine
 10
96.61778762833421
 20
-29.11146528265448
 30
0.0
 11
103.4732563783342
 21
-29.46302778265448
 31
0.0
  0
LINE
  5
178
330
1F
100
AcDbEntity
  8
100
  6
Continuous
 62
     7
370
    30
100
AcDbLine
 10
90.93419387833421
 20
-27.64662153265448
 30
0.0
 11
96.61778762833421
 21
-29.11146528265448
 31
0.0
  0
LINE
  5
179
330
1F
100
AcDbEntity
  8
100
  6
Continuous
 62
     7
370
    30
100
AcDbLine
 10
86.59825637833421
 20
-26.29896528265448
 30
0.0
 11
90.93419387833421
 21
-27.64662153265448
 31
0.0
  0
LINE
  5
17A
330
1F
100
AcDbEntity
  8
100
  6
Continuous
 62
     7
370
    30
100
AcDbLine
 10
81.82820376729956
 20
-24.71563576924866
 30
0.0
 11
86.59825637833421
 21
-26.29896528265448
 31
0.0
  0
LINE
  5
17B
330
1F
100
AcDbEntity
  8
100
  6
Continuous
 62
     7
370
    30
100
AcDbLine
 10
96.03185012833421
 20
-24.30677778265448
 30
0.0
 11
101.5396626283342
 21
-24.71693403265448
 31
0.0
  0
LINE
  5
17C
330
1F
100
AcDbEntity
  8
100
  6
Continuous
 62
     7
370
    30
100
AcDbLine
 10
92.10606887833421
 20
-23.60365278265448
 30
0.0
 11
96.03185012833421
 21
-24.30677778265448
 31
0.0
  0
LINE
  5
17D
330
1F
100
AcDbEntity
  8
100
  6
Continuous
 62
     7
370
    30
100
AcDbLine
 10
87.47716262833421
 20
-22.31459028265448
 30
0.0
 11
92.10606887833421
 21
-23.60365278265448
 31
0.0
  0
LINE
  5
17E
330
1F
100
AcDbEntity
  8
100
  6
Continuous
 62
     7
370
    30
100
AcDbLine
 10
82.09233214332787
 20
-19.84126664799896
 30
0.0
 11
87.47716262833421
 21
-22.31459028265448
 31
0.0
  0
LINE
  5
17F
330
1F
100
AcDbEntity
  8
100
  6
Continuous
 62
     7
370
    30
100
AcDbLine
 10
132.7115376283342
 20
-17.04115278265448
 30
0.0
 11
136.0513813783342
 21
-14.69740278265448
 31
0.0
  0
LINE
  5
180
330
1F
100
AcDbEntity
  8
100
  6
Continuous
 62
     7
370
    30
100
AcDbLine
 10
129.6060688783342
 20
-18.68177778265448
 30
0.0
 11
132.7115376283342
 21
-17.04115278265448
 31
0.0
  0
LINE
  5
181
330
1F
100
AcDbEntity
  8
100
  6
Continuous
 62
     7
370
    30
100
AcDbLine
 10
124.9185688783342
 20
-20.26380903265448
 30
0.0
 11
129.6060688783342
 21
-18.68177778265448
 31
0.0
  0
LINE
  5
182
330
1F
100
AcDbEntity
  8
100
  6
Continuous
 62
     7
370
    30
100
AcDbLine
 10
120.3482563783342
 20
-21.20130903265448
 30
0.0
 11
124.9185688783342
 21
-20.26380903265448
 31
0.0
  0
LINE
  5
183
330
1F
100
AcDbEntity
  8
100
  6
Continuous
 62
     7
370
    30
100
AcDbLine
 10
115.4263813783342
 20
-21.84584028265448
 30
0.0
 11
120.3482563783342
 21
-21.20130903265448
 31
0.0
  0
LINE
  5
184
330
1F
100
AcDbEntity
  8
100
  6
Continuous
 62
     7
370
    30
100
AcDbLine
 10
110.7388813783342
 20
-22.02162153265448
 30
0.0
 11
115.4263813783342
 21
-21.84584028265448
 31
0.0
  0
LINE
  5
185
330
1F
100
AcDbEntity
  8
100
  6
Continuous
 62
     7
370
    30
100
AcDbLine
 10
107.1060688783342
 20
-21.72865278265448
 30
0.0
 11
110.7388813783342
 21
-22.02162153265448
 31
0.0
  0
LINE
  5
186
330
1F
100
AcDbEntity
  8
100
  6
Continuous
 62
     7
370
    30
100
AcDbLine
 10
101.6568501283342
 20
-20.73255903265448
 30
0.0
 11
107.1060688783342
 21
-21.72865278265448
 31
0.0
  0
LINE
  5
187
330
1F
100
AcDbEntity
  8
100
  6
Continuous
 62
     7
370
    30
100
AcDbLine
 10
93.74669387833421
 20
-18.44740278265448
 30
0.0
 11
101.6568501283342
 21
-20.73255903265448
 31
0.0
  0
LINE
  5
188
330
1F
100
AcDbEntity
  8
100
  6
Continuous
 62
     7
370
    30
100
AcDbLine
 10
86.59825637833421
 20
-15.22474653265448
 30
0.0
 11
93.74669387833421
 21
-18.44740278265448
 31
0.0
  0
LINE
  5
189
330
1F
100
AcDbEntity
  8
100
  6
Continuous
 62
     7
370
    30
100
AcDbLine
 10
82.64400722397198
 20
-13.34163117327597
 30
0.0
 11
86.59825637833421
 21
-15.22474653265448
 31
0.0
  0
LINE
  5
18A
330
1F
100
AcDbEntity
  8
100
  6
Continuous
 62
     7
370
    30
100
AcDbLine
 10
87.88731887833421
 20
-19.97084028265448
 30
0.0
 11
82.26231887833421
 21
-16.70423872015448
 31
0.0
  0
LINE
  5
18B
330
1F
100
AcDbEntity
  8
100
  6
Continuous
 62
     7
370
    30
100
AcDbLine
 10
93.39513137833421
 20
-22.60755903265448
 30
0.0
 11
87.88731887833421
 21
-19.97084028265448
 31
0.0
  0
LINE
  5
18C
330
1F
100
AcDbEntity
  8
100
  6
Continuous
 62
     7
370
    30
100
AcDbLine
 10
101.5396626283342
 20
-24.71693403265448
 30
0.0
 11
93.39513137833421
 21
-22.60755903265448
 31
0.0
  0
LINE
  5
18D
330
1F
100
AcDbEntity
  8
100
  6
Continuous
 62
     7
370
    30
100
AcDbLine
 10
110.5631001283342
 20
-24.89271528265448
 30
0.0
 11
101.5396626283342
 21
-24.71693403265448
 31
0.0
  0
LINE
  5
18E
330
1F
100
AcDbEntity
  8
100
  6
Continuous
 62
     7
370
    30
100
AcDbLine
 10
118.7076313783342
 20
-24.30677778265448
 30
0.0
 11
110.5631001283342
 21
-24.89271528265448
 31
0.0
  0
LINE
  5
18F
330
1F
100
AcDbEntity
  8
100
  6
Continuous
 62
     7
370
    30
100
AcDbLine
 10
125.1529438783342
 20
-22.78334028265448
 30
0.0
 11
118.7076313783342
 21
-24.30677778265448
 31
0.0
  0
LINE
  5
190
330
1F
100
AcDbEntity
  8
100
  6
Continuous
 62
     7
370
    30
100
AcDbLine
 10
131.0709126283342
 20
-20.26380903265448
 30
0.0
 11
125.1529438783342
 21
-22.78334028265448
 31
0.0
  0
LINE
  5
191
330
1F
100
AcDbEntity
  8
100
  6
Continuous
 62
     7
370
    30
100
AcDbLine
 10
136.7545063783342
 20
-17.21693403265448
 30
0.0
 11
131.0709126283342
 21
-20.26380903265448
 31
0.0
  0
LINE
  5
192
330
1F
100
AcDbEntity
  8
100
  6
Continuous
 62
     7
370
    30
100
AcDbLine
 10
140.0357563783342
 20
-14.05287153265448
 30
0.0
 11
136.7545063783342
 21
-17.21693403265448
 31
0.0
  0
LINE
  5
193
330
1F
100
AcDbEntity
  8
100
  6
Continuous
 62
     7
370
    30
100
AcDbLine
 10
140.8560688783342
 20
-11.82630903265448
 30
0.0
 11
140.0357563783342
 21
-14.05287153265448
 31
0.0
  0
LINE
  5
194
330
1F
100
AcDbEntity
  8
100
  6
Continuous
 62
     7
370
    30
100
AcDbLine
 10
141.5591938783342
 20
-8.017715282654478
 30
0.0
 11
140.8560688783342
 21
-11.82630903265448
 31
0.0
  0
LINE
  5
195
330
1F
100
AcDbEntity
  8
100
  6
Continuous
 62
     7
370
    30
100
AcDbLine
 10
141.3834126283342
 20
-5.849746532654478
 30
0.0
 11
141.5591938783342
 21
-8.017715282654478
 31
0.0
  0
LINE
  5
196
330
1F
100
AcDbEntity
  8
100
  6
Continuous
 62
     7
370
    30
100
AcDbLine
 10
139.9771626283342
 20
-3.213027782654478
 30
0.0
 11
141.3834126283342
 21
-5.849746532654478
 31
0.0
  0
LINE
  5
197
330
1F
100
AcDbEntity
  8
100
  6
Continuous
 62
     7
370
    30
100
AcDbLine
 10
138.2193501283342
 20
-0.5177152826544784
 30
0.0
 11
139.9771626283342
 21
-3.213027782654478
 31
0.0
  0
LINE
  5
198
330
1F
100
AcDbEntity
  8
100
  6
Continuous
 62
     7
370
    30
100
AcDbLine
 10
135.5826313783342
 20
2.060409717345522
 30
0.0
 11
138.2193501283342
 21
-0.5177152826544784
 31
0.0
  0
LINE
  5
199
330
1F
100
AcDbEntity
  8
100
  6
Continuous
 62
     7
370
    30
100
AcDbLine
 10
128.9615376283342
 20
6.103378467345522
 30
0.0
 11
135.5826313783342
 21
2.060409717345522
 31
0.0
  0
LINE
  5
19A
330
1F
100
AcDbEntity
  8
100
  6
Continuous
 62
     7
370
    30
100
AcDbLine
 10
121.6959126283342
 20
9.208847217345522
 30
0.0
 11
128.9615376283342
 21
6.103378467345522
 31
0.0
  0
LINE
  5
19B
330
1F
100
AcDbEntity
  8
100
  6
Continuous
 62
     7
370
    30
100
AcDbLine
 10
112.7310688783342
 20
11.49400346734552
 30
0.0
 11
121.6959126283342
 21
9.208847217345522
 31
0.0
  0
LINE
  5
19C
330
1F
100
AcDbEntity
  8
100
  6
Continuous
 62
     7
370
    30
100
AcDbLine
 10
105.1724751283342
 20
12.31431596734552
 30
0.0
 11
112.7310688783342
 21
11.49400346734552
 31
0.0
  0
LINE
  5
19D
330
1F
100
AcDbEntity
  8
100
  6
Continuous
 62
     7
370
    30
100
AcDbLine
 10
98.43419387833421
 20
12.13853471734552
 30
0.0
 11
105.1724751283342
 21
12.31431596734552
 31
0.0
  0
LINE
  5
19E
330
1F
100
AcDbEntity
  8
100
  6
Continuous
 62
     7
370
    30
100
AcDbLine
 10
92.04747512833421
 20
11.25962846734552
 30
0.0
 11
98.43419387833421
 21
12.13853471734552
 31
0.0
  0
LINE
  5
19F
330
1F
100
AcDbEntity
  8
100
  6
Continuous
 62
     7
370
    30
100
AcDbLine
 10
84.37169387833421
 20
9.501815967345522
 30
0.0
 11
92.04747512833421
 21
11.25962846734552
 31
0.0
  0
LINE
  5
1A0
330
1F
100
AcDbEntity
  8
100
  6
Continuous
 62
     7
370
    30
100
AcDbLine
 10
130.1920063783342
 20
-5.498184032654478
 30
0.0
 11
133.3423513973697
 21
-7.438666266157014
 31
0.0
  0
LINE
  5
1A1
330
1F
100
AcDbEntity
  8
100
  6
Continuous
 62
     7
370
    30
100
AcDbLine
 10
124.0982563783342
 20
-2.744277782654478
 30
0.0
 11
130.1920063783342
 21
-5.498184032654478
 31
0.0
  0
LINE
  5
1A2
330
1F
100
AcDbEntity
  8
100
  6
Continuous
 62
     7
370
    30
100
AcDbLine
 10
119.7037251283342
 20
-1.162246532654478
 30
0.0
 11
124.0982563783342
 21
-2.744277782654478
 31
0.0
  0
LINE
  5
1A3
330
1F
100
AcDbEntity
  8
100
  6
Continuous
 62
     7
370
    30
100
AcDbLine
 10
113.7857563783342
 20
0.5369722173455216
 30
0.0
 11
119.7037251283342
 21
-1.162246532654478
 31
0.0
  0
LINE
  5
1A4
330
1F
100
AcDbEntity
  8
100
  6
Continuous
 62
     7
370
    30
100
AcDbLine
 10
107.5162251283342
 20
2.177597217345522
 30
0.0
 11
113.7857563783342
 21
0.5369722173455216
 31
0.0
  0
LINE
  5
1A5
330
1F
100
AcDbEntity
  8
100
  6
Continuous
 62
     7
370
    30
100
AcDbLine
 10
102.4185688783342
 20
3.115097217345522
 30
0.0
 11
107.5162251283342
 21
2.177597217345522
 31
0.0
  0
LINE
  5
1A6
330
1F
100
AcDbEntity
  8
100
  6
Continuous
 62
     7
370
    30
100
AcDbLine
 10
97.14513137833421
 20
3.701034717345522
 30
0.0
 11
102.4185688783342
 21
3.115097217345522
 31
0.0
  0
LINE
  5
1A7
330
1F
100
AcDbEntity
  8
100
  6
Continuous
 62
     7
370
    30
100
AcDbLine
 10
92.57481887833421
 20
3.818222217345522
 30
0.0
 11
97.14513137833421
 21
3.701034717345522
 31
0.0
  0
LINE
  5
1A8
330
1F
100
AcDbEntity
  8
100
  6
Continuous
 62
     7
370
    30
100
AcDbLine
 10
88.64903762833421
 20
3.525253467345522
 30
0.0
 11
92.57481887833421
 21
3.818222217345522
 31
0.0
  0
LINE
  5
1A9
330
1F
100
AcDbEntity
  8
100
  6
Continuous
 62
     7
370
    30
100
AcDbLine
 10
85.42638137833421
 20
3.290878467345522
 30
0.0
 11
88.64903762833421
 21
3.525253467345522
 31
0.0
  0
LINE
  5
1AA
330
1F
100
AcDbEntity
  8
100
  6
Continuous
 62
     7
370
    30
100
AcDbLine
 10
83.3934686423703
 20
2.887753649980141
 30
0.0
 11
85.42638137833421
 21
3.290878467345522
 31
0.0
  0
LINE
  5
1AB
330
1F
100
AcDbEntity
  8
100
  6
Continuous
 62
     7
370
    30
100
AcDbLine
 10
87.94591262833421
 20
6.923690967345522
 30
0.0
 11
83.61664814053907
 21
6.040164061614206
 31
0.0
  0
LINE
  5
1AC
330
1F
100
AcDbEntity
  8
100
  6
Continuous
 62
     7
370
    30
100
AcDbLine
 10
91.57872512833421
 20
7.275253467345522
 30
0.0
 11
87.94591262833421
 21
6.923690967345522
 31
0.0
  0
LINE
  5
1AD
330
1F
100
AcDbEntity
  8
100
  6
Continuous
 62
     7
370
    30
100
AcDbLine
 10
97.61388137833421
 20
7.040878467345522
 30
0.0
 11
91.57872512833421
 21
7.275253467345522
 31
0.0
  0
LINE
  5
1AE
330
1F
100
AcDbEntity
  8
100
  6
Continuous
 62
     7
370
    30
100
AcDbLine
 10
101.4810688783342
 20
6.454940967345522
 30
0.0
 11
97.61388137833421
 21
7.040878467345522
 31
0.0
  0
LINE
  5
1AF
330
1F
100
AcDbEntity
  8
100
  6
Continuous
 62
     7
370
    30
100
AcDbLine
 10
107.0474751283342
 20
5.517440967345522
 30
0.0
 11
101.4810688783342
 21
6.454940967345522
 31
0.0
  0
LINE
  5
1B0
330
1F
100
AcDbEntity
  8
100
  6
Continuous
 62
     7
370
    30
100
AcDbLine
 10
113.5513813783342
 20
3.759628467345522
 30
0.0
 11
107.0474751283342
 21
5.517440967345522
 31
0.0
  0
LINE
  5
1B1
330
1F
100
AcDbEntity
  8
100
  6
Continuous
 62
     7
370
    30
100
AcDbLine
 10
120.1724751283342
 20
1.415878467345522
 30
0.0
 11
113.5513813783342
 21
3.759628467345522
 31
0.0
  0
LINE
  5
1B2
330
1F
100
AcDbEntity
  8
100
  6
Continuous
 62
     7
370
    30
100
AcDbLine
 10
126.3834126283342
 20
-1.689590282654478
 30
0.0
 11
120.1724751283342
 21
1.415878467345522
 31
0.0
  0
LINE
  5
1B3
330
1F
100
AcDbEntity
  8
100
  6
Continuous
 62
     7
370
    30
100
AcDbLine
 10
130.8365376283342
 20
-5.263809032654478
 30
0.0
 11
126.3834126283342
 21
-1.689590282654478
 31
0.0
  0
LINE
  5
1B4
330
1F
100
AcDbEntity
  8
100
  6
Continuous
 62
     7
370
    30
100
AcDbLine
 10
133.9420063783342
 20
-7.959121532654478
 30
0.0
 11
130.8365376283342
 21
-5.263809032654478
 31
0.0
  0
LINE
  5
1B5
330
1F
100
AcDbEntity
  8
100
  6
Continuous
 62
     7
370
    30
100
AcDbLine
 10
134.9381001283342
 20
-9.248184032654478
 30
0.0
 11
133.9420063783342
 21
-7.959121532654478
 31
0.0
  0
LINE
  5
1B6
330
1F
100
AcDbEntity
  8
100
  6
Continuous
 62
     7
370
    30
100
AcDbLine
 10
136.1790801053392
 20
-12.76063875641304
 30
0.0
 11
134.9381001283342
 21
-9.248184032654478
 31
0.0
  0
LINE
  5
1B7
330
1F
100
AcDbEntity
  8
100
  6
Continuous
 62
     7
370
    30
100
AcDbLine
 10
136.4029438783342
 20
-9.365371532654478
 30
0.0
 11
136.0513813783342
 21
-14.69740278265448
 31
0.0
  0
LINE
  5
1B8
330
1F
100
AcDbEntity
  8
100
  6
Continuous
 62
     7
370
    30
100
AcDbLine
 10
134.6451313783342
 20
-6.728652782654478
 30
0.0
 11
136.4029438783342
 21
-9.365371532654478
 31
0.0
  0
LINE
  5
1B9
330
1F
100
AcDbEntity
  8
100
  6
Continuous
 62
     7
370
    30
100
AcDbLine
 10
131.1295063783342
 20
-3.447402782654478
 30
0.0
 11
134.6451313783342
 21
-6.728652782654478
 31
0.0
  0
LINE
  5
1BA
330
1F
100
AcDbEntity
  8
100
  6
Continuous
 62
     7
370
    30
100
AcDbLine
 10
127.3209126283342
 20
-0.6349027826544784
 30
0.0
 11
131.1295063783342
 21
-3.447402782654478
 31
0.0
  0
LINE
  5
1BB
330
1F
100
AcDbEntity
  8
100
  6
Continuous
 62
     7
370
    30
100
AcDbLine
 10
123.0435688783342
 20
1.884628467345522
 30
0.0
 11
127.3209126283342
 21
-0.6349027826544784
 31
0.0
  0
LINE
  5
1BC
330
1F
100
AcDbEntity
  8
100
  6
Continuous
 62
     7
370
    30
100
AcDbLine
 10
117.1256001283342
 20
4.872909717345522
 30
0.0
 11
123.0435688783342
 21
1.884628467345522
 31
0.0
  0
LINE
  5
1BD
330
1F
100
AcDbEntity
  8
100
  6
Continuous
 62
     7
370
    30
100
AcDbLine
 10
108.9224751283342
 20
7.802597217345522
 30
0.0
 11
117.1256001283342
 21
4.872909717345522
 31
0.0
  0
LINE
  5
1BE
330
1F
100
AcDbEntity
  8
100
  6
Continuous
 62
     7
370
    30
100
AcDbLine
 10
98.19981887833421
 20
9.794784717345522
 30
0.0
 11
108.9224751283342
 21
7.802597217345522
 31
0.0
  0
LINE
  5
1BF
330
1F
100
AcDbEntity
  8
100
  6
Continuous
 62
     7
370
    30
100
AcDbLine
 10
90.40685012833421
 20
9.853378467345522
 30
0.0
 11
98.19981887833421
 21
9.794784717345522
 31
0.0
  0
LINE
  5
1C0
330
1F
100
AcDbEntity
  8
100
  6
Continuous
 62
     7
370
    30
100
AcDbLine
 10
83.81505325333421
 20
8.842636279845522
 30
0.0
 11
90.40685012833421
 21
9.853378467345522
 31
0.0
  0
LINE
  5
1C1
330
1F
100
AcDbEntity
  8
100
  6
Continuous
 62
     7
370
    30
100
AcDbLine
 10
107.9263813783342
 20
15.30259721734552
 30
0.0
 11
117.1256001283342
 21
13.72056596734552
 31
0.0
  0
LINE
  5
1C2
330
1F
100
AcDbEntity
  8
100
  6
Continuous
 62
     7
370
    30
100
AcDbLine
 10
103.6636860658342
 20
15.82994096734552
 30
0.0
 11
107.9263813783342
 21
15.30259721734552
 31
0.0
  0
LINE
  5
1C3
330
1F
100
AcDbEntity
  8
100
  6
Continuous
 62
     7
370
    30
100
AcDbLine
 10
99.88438919083421
 20
15.47837846734552
 30
0.0
 11
103.6636860658342
 21
15.82994096734552
 31
0.0
  0
LINE
  5
1C4
330
1F
100
AcDbEntity
  8
100
  6
Continuous
 62
     7
370
    30
100
AcDbLine
 10
94.69884231583421
 20
15.06822221734552
 30
0.0
 11
99.88438919083421
 21
15.47837846734552
 31
0.0
  0
LINE
  5
1C5
330
1F
100
AcDbEntity
  8
100
  6
Continuous
 62
     7
370
    30
100
AcDbLine
 10
89.13243606583421
 20
13.95494096734552
 30
0.0
 11
94.69884231583421
 21
15.06822221734552
 31
0.0
  0
LINE
  5
1C6
330
1F
100
AcDbEntity
  8
100
  6
Continuous
 62
     7
370
    30
100
AcDbLine
 10
83.98160322385309
 20
12.67328560177948
 30
0.0
 11
89.13243606583421
 21
13.95494096734552
 31
0.0
  0
LINE
  5
1C7
330
1F
100
AcDbEntity
  8
100
  6
Continuous
 62
     7
370
    30
100
AcDbLine
 10
100.8511860658342
 20
15.94712846734552
 30
0.0
 11
103.6636860658342
 21
15.82994096734552
 31
0.0
  0
LINE
  5
1C8
330
1F
100
AcDbEntity
  8
100
  6
Continuous
 62
     7
370
    30
100
AcDbLine
 10
90.59727981583421
 20
15.94712846734552
 30
0.0
 11
100.8511860658342
 21
15.94712846734552
 31
0.0
  0
LINE
  5
1C9
330
1F
100
AcDbEntity
  8
100
  6
Continuous
 62
     7
370
    30
100
AcDbLine
 10
84.10122291724929
 20
15.42453854989269
 30
0.0
 11
90.59727981583421
 21
15.94712846734552
 31
0.0
  0
LINE
  5
1CA
330
1F
100
AcDbEntity
  8
100
  6
Continuous
 62
     7
370
    30
100
AcDbLine
 10
78.54161575333421
 20
122.8221284673455
 30
0.0
 11
76.8826693530849
 21
122.9891935533428
 31
0.0
  0
LINE
  5
1CB
330
1F
100
AcDbEntity
  8
100
  6
Continuous
 62
     7
370
    30
100
AcDbLine
 10
79.84532669083421
 20
122.6609956548455
 30
0.0
 11
78.54161575333421
 21
122.8221284673455
 31
0.0
  0
LINE
  5
1CC
330
1F
100
AcDbEntity
  8
100
  6
Continuous
 62
     7
370
    30
100
AcDbLine
 10
81.85216262833421
 20
122.3094331548455
 30
0.0
 11
79.84532669083421
 21
122.6609956548455
 31
0.0
  0
LINE
  5
1CD
330
1F
100
AcDbEntity
  8
100
  6
Continuous
 62
     7
370
    30
100
AcDbLine
 10
84.60606887833421
 20
121.7088472173455
 30
0.0
 11
81.85216262833421
 21
122.3094331548455
 31
0.0
  0
LINE
  5
1CE
330
1F
100
AcDbEntity
  8
100
  6
Continuous
 62
     7
370
    30
100
AcDbLine
 10
87.12560012833421
 20
121.0496675298455
 30
0.0
 11
84.60606887833421
 21
121.7088472173455
 31
0.0
  0
LINE
  5
1CF
330
1F
100
AcDbEntity
  8
100
  6
Continuous
 62
     7
370
    30
100
AcDbLine
 10
89.52794387833421
 20
120.3758394048455
 30
0.0
 11
87.12560012833421
 21
121.0496675298455
 31
0.0
  0
LINE
  5
1D0
330
1F
100
AcDbEntity
  8
100
  6
Continuous
 62
     7
370
    30
100
AcDbLine
 10
95.09435012833421
 20
118.2078706548455
 30
0.0
 11
89.52794387833421
 21
120.3758394048455
 31
0.0
  0
LINE
  5
1D1
330
1F
100
AcDbEntity
  8
100
  6
Continuous
 62
     7
370
    30
100
AcDbLine
 10
100.6021626283342
 20
115.1609956548455
 30
0.0
 11
95.09435012833421
 21
118.2078706548455
 31
0.0
  0
LINE
  5
1D2
330
1F
100
AcDbEntity
  8
100
  6
Continuous
 62
     7
370
    30
100
AcDbLine
 10
106.4615376283342
 20
111.2352144048455
 30
0.0
 11
100.6021626283342
 21
115.1609956548455
 31
0.0
  0
LINE
  5
1D3
330
1F
100
AcDbEntity
  8
100
  6
Continuous
 62
     7
370
    30
100
AcDbLine
 10
112.3795063783342
 20
105.7859956548455
 30
0.0
 11
106.4615376283342
 21
111.2352144048455
 31
0.0
  0
LINE
  5
1D4
330
1F
100
AcDbEntity
  8
100
  6
Continuous
 62
     7
370
    30
100
AcDbLine
 10
118.5904438783342
 20
98.40318315484552
 30
0.0
 11
112.3795063783342
 21
105.7859956548455
 31
0.0
  0
LINE
  5
1D5
330
1F
100
AcDbEntity
  8
100
  6
Continuous
 62
     7
370
    30
100
AcDbLine
 10
125.3287251283342
 20
88.14927690484552
 30
0.0
 11
118.5904438783342
 21
98.40318315484552
 31
0.0
  0
LINE
  5
1D6
330
1F
100
AcDbEntity
  8
100
  6
Continuous
 62
     7
370
    30
100
AcDbLine
 10
130.1334126283342
 20
78.48130815484552
 30
0.0
 11
125.3287251283342
 21
88.14927690484552
 31
0.0
  0
LINE
  5
1D7
330
1F
100
AcDbEntity
  8
100
  6
Continuous
 62
     7
370
    30
100
AcDbLine
 10
134.0591938783342
 20
69.22349565484552
 30
0.0
 11
130.1334126283342
 21
78.48130815484552
 31
0.0
  0
LINE
  5
1D8
330
1F
100
AcDbEntity
  8
100
  6
Continuous
 62
     7
370
    30
100
AcDbLine
 10
138.6295063783342
 20
55.74693315484552
 30
0.0
 11
134.0591938783342
 21
69.22349565484552
 31
0.0
  0
LINE
  5
1D9
330
1F
100
AcDbEntity
  8
100
  6
Continuous
 62
     7
370
    30
100
AcDbLine
 10
145.0162251283342
 20
34.88755815484552
 30
0.0
 11
138.6295063783342
 21
55.74693315484552
 31
0.0
  0
LINE
  5
1DA
330
1F
100
AcDbEntity
  8
100
  6
Continuous
 62
     7
370
    30
100
AcDbLine
 10
149.5279438783342
 20
15.90318315484552
 30
0.0
 11
145.0162251283342
 21
34.88755815484552
 31
0.0
  0
LINE
  5
1DB
330
1F
100
AcDbEntity
  8
100
  6
Continuous
 62
     7
370
    30
100
AcDbLine
 10
151.7545063783342
 20
4.448105029845522
 30
0.0
 11
149.5279438783342
 21
15.90318315484552
 31
0.0
  0
LINE
  5
1DC
330
1F
100
AcDbEntity
  8
100
  6
Continuous
 62
     7
370
    30
100
AcDbLine
 10
153.3658345033342
 20
-6.215957470154478
 30
0.0
 11
151.7545063783342
 21
4.448105029845522
 31
0.0
  0
LINE
  5
1DD
330
1F
100
AcDbEntity
  8
100
  6
Continuous
 62
     7
370
    30
100
AcDbLine
 10
153.8052876283342
 20
-13.33509809515448
 30
0.0
 11
153.3658345033342
 21
-6.215957470154478
 31
0.0
  0
LINE
  5
1DE
330
1F
100
AcDbEntity
  8
100
  6
Continuous
 62
     7
370
    30
100
AcDbLine
 10
154.0396626283342
 20
-17.37806684515448
 30
0.0
 11
153.8052876283342
 21
-13.33509809515448
 31
0.0
  0
LINE
  5
1DF
330
1F
100
AcDbEntity
  8
100
  6
Continuous
 62
     7
370
    30
100
AcDbLine
 10
153.9810688783342
 20
-19.60462934515448
 30
0.0
 11
154.0396626283342
 21
-17.37806684515448
 31
0.0
  0
LINE
  5
1E0
330
1F
100
AcDbEntity
  8
100
  6
Continuous
 62
     7
370
    30
100
AcDbLine
 10
153.8052876283342
 20
-24.08705122015448
 30
0.0
 11
153.9810688783342
 21
-19.60462934515448
 31
0.0
  0
LINE
  5
1E1
330
1F
100
AcDbEntity
  8
100
  6
Continuous
 62
     7
370
    30
100
AcDbLine
 10
153.4244282533342
 20
-27.89564497015448
 30
0.0
 11
153.8052876283342
 21
-24.08705122015448
 31
0.0
  0
LINE
  5
1E2
330
1F
100
AcDbEntity
  8
100
  6
Continuous
 62
     7
370
    30
100
AcDbLine
 10
153.2193501283342
 20
-28.74525434515448
 30
0.0
 11
153.4244282533342
 21
-27.89564497015448
 31
0.0
  0
LINE
  5
1E3
330
1F
100
AcDbEntity
  8
100
  6
Continuous
 62
     7
370
    30
100
AcDbLine
 10
152.9263813783342
 20
-28.36439497015448
 30
0.0
 11
153.2193501283342
 21
-28.74525434515448
 31
0.0
  0
LINE
  5
1E4
330
1F
100
AcDbEntity
  8
100
  6
Continuous
 62
     7
370
    30
100
AcDbLine
 10
152.5748188783342
 20
-27.01673872015448
 30
0.0
 11
152.9263813783342
 21
-28.36439497015448
 31
0.0
  0
LINE
  5
1E5
330
1F
100
AcDbEntity
  8
100
  6
Continuous
 62
     7
370
    30
100
AcDbLine
 10
151.5201313783342
 20
-21.50892622015448
 30
0.0
 11
152.5748188783342
 21
-27.01673872015448
 31
0.0
  0
LINE
  5
1E6
330
1F
100
AcDbEntity
  8
100
  6
Continuous
 62
     7
370
    30
100
AcDbLine
 10
149.7623188783342
 20
-14.82923872015448
 30
0.0
 11
151.5201313783342
 21
-21.50892622015448
 31
0.0
  0
LINE
  5
1E7
330
1F
100
AcDbEntity
  8
100
  6
Continuous
 62
     7
370
    30
100
AcDbLine
 10
146.7154438783342
 20
-8.032363720154478
 30
0.0
 11
149.7623188783342
 21
-14.82923872015448
 31
0.0
  0
LINE
  5
1E8
330
1F
100
AcDbEntity
  8
100
  6
Continuous
 62
     7
370
    30
100
AcDbLine
 10
144.0201313783342
 20
-3.344863720154478
 30
0.0
 11
146.7154438783342
 21
-8.032363720154478
 31
0.0
  0
LINE
  5
1E9
330
1F
100
AcDbEntity
  8
100
  6
Continuous
 62
     7
370
    30
100
AcDbLine
 10
140.3873188783342
 20
2.045761279845522
 30
0.0
 11
144.0201313783342
 21
-3.344863720154478
 31
0.0
  0
LINE
  5
1EA
330
1F
100
AcDbEntity
  8
100
  6
Continuous
 62
     7
370
    30
100
AcDbLine
 10
134.8795063783342
 20
6.381698779845522
 30
0.0
 11
140.3873188783342
 21
2.045761279845522
 31
0.0
  0
LINE
  5
1EB
330
1F
100
AcDbEntity
  8
100
  6
Continuous
 62
     7
370
    30
100
AcDbLine
 10
126.4420063783342
 20
10.60044877984552
 30
0.0
 11
134.8795063783342
 21
6.381698779845522
 31
0.0
  0
LINE
  5
1EC
330
1F
100
AcDbEntity
  8
100
  6
Continuous
 62
     7
370
    30
100
AcDbLine
 10
117.8873188783342
 20
14.70201127984552
 30
0.0
 11
126.4420063783342
 21
10.60044877984552
 31
0.0
  0
LINE
  5
1ED
330
1F
100
AcDbEntity
  8
100
  6
Continuous
 62
     7
370
    30
100
AcDbLine
 10
104.8795063783342
 20
18.45201127984552
 30
0.0
 11
117.8873188783342
 21
14.70201127984552
 31
0.0
  0
LINE
  5
1EE
330
1F
100
AcDbEntity
  8
100
  6
Continuous
 62
     7
370
    30
100
AcDbLine
 10
98.55138137833421
 20
19.03794877984552
 30
0.0
 11
104.8795063783342
 21
18.45201127984552
 31
0.0
  0
LINE
  5
1EF
330
1F
100
AcDbEntity
  8
100
  6
Continuous
 62
     7
370
    30
100
AcDbLine
 10
91.98888137833421
 20
19.03794877984552
 30
0.0
 11
98.55138137833421
 21
19.03794877984552
 31
0.0
  0
LINE
  5
1F0
330
1F
100
AcDbEntity
  8
100
  6
Continuous
 62
     7
370
    30
100
AcDbLine
 10
84.22520950333421
 20
18.27623002984552
 30
0.0
 11
91.98888137833421
 21
19.03794877984552
 31
0.0
  0
LINE
  5
1F1
330
1F
100
AcDbEntity
  8
100
  6
Continuous
 62
     7
370
    30
100
AcDbLine
 10
146.1295063783342
 20
-14.88783247015448
 30
0.0
 11
145.2506001283342
 21
-11.95814497015448
 31
0.0
  0
LINE
  5
1F2
330
1F
100
AcDbEntity
  8
100
  6
Continuous
 62
     7
370
    30
100
AcDbLine
 10
146.6568501283342
 20
-16.58705122015448
 30
0.0
 11
146.1295063783342
 21
-14.88783247015448
 31
0.0
  0
LINE
  5
1F3
330
1F
100
AcDbEntity
  8
100
  6
Continuous
 62
     7
370
    30
100
AcDbLine
 10
147.7701313783342
 20
-21.21595747015448
 30
0.0
 11
146.6568501283342
 21
-16.58705122015448
 31
0.0
  0
LINE
  5
1F4
330
1F
100
AcDbEntity
  8
100
  6
Continuous
 62
     7
370
    30
100
AcDbLine
 10
149.1763813783342
 20
-29.53626997015448
 30
0.0
 11
147.7701313783342
 21
-21.21595747015448
 31
0.0
  0
LINE
  5
1F5
330
1F
100
AcDbEntity
  8
100
  6
Continuous
 62
     7
370
    30
100
AcDbLine
 10
150.0552876283342
 20
-33.75501997015448
 30
0.0
 11
149.1763813783342
 21
-29.53626997015448
 31
0.0
  0
LINE
  5
1F6
330
1F
100
AcDbEntity
  8
100
  6
Continuous
 62
     7
370
    30
100
AcDbLine
 10
150.8170063783342
 20
-36.39173872015448
 30
0.0
 11
150.0552876283342
 21
-33.75501997015448
 31
0.0
  0
LINE
  5
1F7
330
1F
100
AcDbEntity
  8
100
  6
Continuous
 62
     7
370
    30
100
AcDbLine
 10
152.1060688783342
 20
-37.62220747015448
 30
0.0
 11
150.8170063783342
 21
-36.39173872015448
 31
0.0
  0
LINE
  5
1F8
330
1F
100
AcDbEntity
  8
100
  6
Continuous
 62
     7
370
    30
100
AcDbLine
 10
153.4537251283342
 20
-37.97376997015448
 30
0.0
 11
152.1060688783342
 21
-37.62220747015448
 31
0.0
  0
LINE
  5
1F9
330
1F
100
AcDbEntity
  8
100
  6
Continuous
 62
     7
370
    30
100
AcDbLine
 10
154.8013813783342
 20
-37.62220747015448
 30
0.0
 11
153.4537251283342
 21
-37.97376997015448
 31
0.0
  0
LINE
  5
1FA
330
1F
100
AcDbEntity
  8
100
  6
Continuous
 62
     7
370
    30
100
AcDbLine
 10
156.3248188783342
 20
-35.51283247015448
 30
0.0
 11
154.8013813783342
 21
-37.62220747015448
 31
0.0
  0
LINE
  5
1FB
330
1F
100
AcDbEntity
  8
100
  6
Continuous
 62
     7
370
    30
100
AcDbLine
 10
157.4381001283342
 20
-32.40736372015448
 30
0.0
 11
156.3248188783342
 21
-35.51283247015448
 31
0.0
  0
LINE
  5
1FC
330
1F
100
AcDbEntity
  8
100
  6
Continuous
 62
     7
370
    30
100
AcDbLine
 10
158.4341938783342
 20
-27.25111372015448
 30
0.0
 11
157.4381001283342
 21
-32.40736372015448
 31
0.0
  0
LINE
  5
1FD
330
1F
100
AcDbEntity
  8
100
  6
Continuous
 62
     7
370
    30
100
AcDbLine
 10
158.9029438783342
 20
-22.79798872015448
 30
0.0
 11
158.4341938783342
 21
-27.25111372015448
 31
0.0
  0
LINE
  5
1FE
330
1F
100
AcDbEntity
  8
100
  6
Continuous
 62
     7
370
    30
100
AcDbLine
 10
158.9615376283342
 20
-17.93470747015448
 30
0.0
 11
158.9029438783342
 21
-22.79798872015448
 31
0.0
  0
LINE
  5
1FF
330
1F
100
AcDbEntity
  8
100
  6
Continuous
 62
     7
370
    30
100
AcDbLine
 10
158.6685688783342
 20
-9.848769970154478
 30
0.0
 11
158.9615376283342
 21
-17.93470747015448
 31
0.0
  0
LINE
  5
200
330
1F
100
AcDbEntity
  8
100
  6
Continuous
 62
     7
370
    30
100
AcDbLine
 10
158.0240376283342
 20
-2.758926220154478
 30
0.0
 11
158.6685688783342
 21
-9.848769970154478
 31
0.0
  0
LINE
  5
201
330
1F
100
AcDbEntity
  8
100
  6
Continuous
 62
     7
370
    30
100
AcDbLine
 10
156.7935688783342
 20
5.327011279845522
 30
0.0
 11
158.0240376283342
 21
-2.758926220154478
 31
0.0
  0
LINE
  5
202
330
1F
100
AcDbEntity
  8
100
  6
Continuous
 62
     7
370
    30
100
AcDbLine
 10
155.4459126283342
 20
11.71373002984552
 30
0.0
 11
156.7935688783342
 21
5.327011279845522
 31
0.0
  0
LINE
  5
203
330
1F
100
AcDbEntity
  8
100
  6
Continuous
 62
     7
370
    30
100
AcDbLine
 10
153.3365376283342
 20
22.02623002984552
 30
0.0
 11
155.4459126283342
 21
11.71373002984552
 31
0.0
  0
LINE
  5
204
330
1F
100
AcDbEntity
  8
100
  6
Continuous
 62
     7
370
    30
100
AcDbLine
 10
149.5865376283342
 20
36.79185502984552
 30
0.0
 11
153.3365376283342
 21
22.02623002984552
 31
0.0
  0
LINE
  5
205
330
1F
100
AcDbEntity
  8
100
  6
Continuous
 62
     7
370
    30
100
AcDbLine
 10
146.3052876283342
 20
47.74888627984552
 30
0.0
 11
149.5865376283342
 21
36.79185502984552
 31
0.0
  0
LINE
  5
206
330
1F
100
AcDbEntity
  8
100
  6
Continuous
 62
     7
370
    30
100
AcDbLine
 10
142.9654438783342
 20
58.58873002984552
 30
0.0
 11
146.3052876283342
 21
47.74888627984552
 31
0.0
  0
LINE
  5
207
330
1F
100
AcDbEntity
  8
100
  6
Continuous
 62
     7
370
    30
100
AcDbLine
 10
139.8599751283342
 20
67.49498002984552
 30
0.0
 11
142.9654438783342
 21
58.58873002984552
 31
0.0
  0
LINE
  5
208
330
1F
100
AcDbEntity
  8
100
  6
Continuous
 62
     7
370
    30
100
AcDbLine
 10
136.1685688783342
 20
76.45982377984552
 30
0.0
 11
139.8599751283342
 21
67.49498002984552
 31
0.0
  0
LINE
  5
209
330
1F
100
AcDbEntity
  8
100
  6
Continuous
 62
     7
370
    30
100
AcDbLine
 10
132.8287251283342
 20
83.95982377984552
 30
0.0
 11
136.1685688783342
 21
76.45982377984552
 31
0.0
  0
LINE
  5
20A
330
1F
100
AcDbEntity
  8
100
  6
Continuous
 62
     7
370
    30
100
AcDbLine
 10
129.0787251283342
 20
91.22544877984552
 30
0.0
 11
132.8287251283342
 21
83.95982377984552
 31
0.0
  0
LINE
  5
20B
330
1F
100
AcDbEntity
  8
100
  6
Continuous
 62
     7
370
    30
100
AcDbLine
 10
125.6216938783342
 20
96.61607377984552
 30
0.0
 11
129.0787251283342
 21
91.22544877984552
 31
0.0
  0
LINE
  5
20C
330
1F
100
AcDbEntity
  8
100
  6
Continuous
 62
     7
370
    30
100
AcDbLine
 10
121.7545063783342
 20
101.9481050298455
 30
0.0
 11
125.6216938783342
 21
96.61607377984552
 31
0.0
  0
LINE
  5
20D
330
1F
100
AcDbEntity
  8
100
  6
Continuous
 62
     7
370
    30
100
AcDbLine
 10
116.9498188783342
 20
107.6316987798455
 30
0.0
 11
121.7545063783342
 21
101.9481050298455
 31
0.0
  0
LINE
  5
20E
330
1F
100
AcDbEntity
  8
100
  6
Continuous
 62
     7
370
    30
100
AcDbLine
 10
110.6802876283342
 20
113.3152925298455
 30
0.0
 11
116.9498188783342
 21
107.6316987798455
 31
0.0
  0
LINE
  5
20F
330
1F
100
AcDbEntity
  8
100
  6
Continuous
 62
     7
370
    30
100
AcDbLine
 10
105.5826313783342
 20
117.3582612798455
 30
0.0
 11
110.6802876283342
 21
113.3152925298455
 31
0.0
  0
LINE
  5
210
330
1F
100
AcDbEntity
  8
100
  6
Continuous
 62
     7
370
    30
100
AcDbLine
 10
99.19591262833421
 20
120.8738862798455
 30
0.0
 11
105.5826313783342
 21
117.3582612798455
 31
0.0
  0
LINE
  5
211
330
1F
100
AcDbEntity
  8
100
  6
Continuous
 62
     7
370
    30
100
AcDbLine
 10
92.80919387833421
 20
123.8621675298455
 30
0.0
 11
99.19591262833421
 21
120.8738862798455
 31
0.0
  0
LINE
  5
212
330
1F
100
AcDbEntity
  8
100
  6
Continuous
 62
     7
370
    30
100
AcDbLine
 10
85.89513137833421
 20
126.1473237798455
 30
0.0
 11
92.80919387833421
 21
123.8621675298455
 31
0.0
  0
LINE
  5
213
330
1F
100
AcDbEntity
  8
100
  6
Continuous
 62
     7
370
    30
100
AcDbLine
 10
80.03575637833421
 20
127.1434175298455
 30
0.0
 11
85.89513137833421
 21
126.1473237798455
 31
0.0
  0
LINE
  5
214
330
1F
100
AcDbEntity
  8
100
  6
Continuous
 62
     7
370
    30
100
AcDbLine
 10
74.82091262833421
 20
127.1800386235955
 30
0.0
 11
80.03575637833421
 21
127.1434175298455
 31
0.0
  0
LINE
  5
215
330
1F
100
AcDbEntity
  8
100
  6
Continuous
 62
     7
370
    30
100
AcDbLine
 10
19.85997512833421
 20
-21.56751997015448
 30
0.0
 11
20.41661575333421
 21
-20.16126997015448
 31
0.0
  0
LINE
  5
216
330
1F
100
AcDbEntity
  8
100
  6
Continuous
 62
     7
370
    30
100
AcDbLine
 10
19.15685012833421
 20
-22.97376997015448
 30
0.0
 11
19.85997512833421
 21
-21.56751997015448
 31
0.0
  0
LINE
  5
217
330
1F
100
AcDbEntity
  8
100
  6
Continuous
 62
     7
370
    30
100
AcDbLine
 10
15.58263137833421
 20
-28.83314497015448
 30
0.0
 11
19.15685012833421
 21
-22.97376997015448
 31
0.0
  0
LINE
  5
218
330
1F
100
AcDbEntity
  8
100
  6
Continuous
 62
     7
370
    30
100
AcDbLine
 10
15.40685012833421
 20
-30.12220747015448
 30
0.0
 11
15.58263137833421
 21
-28.83314497015448
 31
0.0
  0
LINE
  5
219
330
1F
100
AcDbEntity
  8
100
  6
Continuous
 62
     7
370
    30
100
AcDbLine
 10
15.93419387833421
 20
-30.94251997015448
 30
0.0
 11
15.40685012833421
 21
-30.12220747015448
 31
0.0
  0
LINE
  5
21A
330
1F
100
AcDbEntity
  8
100
  6
Continuous
 62
     7
370
    30
100
AcDbLine
 10
17.51622512833421
 20
-31.70423872015448
 30
0.0
 11
15.93419387833421
 21
-30.94251997015448
 31
0.0
  0
LINE
  5
21B
330
1F
100
AcDbEntity
  8
100
  6
Continuous
 62
     7
370
    30
100
AcDbLine
 10
37.49669387833421
 20
-35.04408247015448
 30
0.0
 11
17.51622512833421
 21
-31.70423872015448
 31
0.0
  0
LINE
  5
21C
330
1F
100
AcDbEntity
  8
100
  6
Continuous
 62
     7
370
    30
100
AcDbLine
 10
21.44200637833421
 20
-34.69251997015448
 30
0.0
 11
37.45536969946532
 21
-37.56485738115663
 31
0.0
  0
LINE
  5
21D
330
1F
100
AcDbEntity
  8
100
  6
Continuous
 62
     7
370
    30
100
AcDbLine
 10
15.93419387833421
 20
-33.75501997015448
 30
0.0
 11
21.44200637833421
 21
-34.69251997015448
 31
0.0
  0
LINE
  5
21E
330
1F
100
AcDbEntity
  8
100
  6
Continuous
 62
     7
370
    30
100
AcDbLine
 10
14.46935012833421
 20
-32.87611372015448
 30
0.0
 11
15.93419387833421
 21
-33.75501997015448
 31
0.0
  0
LINE
  5
21F
330
1F
100
AcDbEntity
  8
100
  6
Continuous
 62
     7
370
    30
100
AcDbLine
 10
13.64903762833421
 20
-31.64564497015448
 30
0.0
 11
14.46935012833421
 21
-32.87611372015448
 31
0.0
  0
LINE
  5
220
330
1F
100
AcDbEntity
  8
100
  6
Continuous
 62
     7
370
    30
100
AcDbLine
 10
13.18028762833421
 20
-29.53626997015448
 30
0.0
 11
13.64903762833421
 21
-31.64564497015448
 31
0.0
  0
LINE
  5
221
330
1F
100
AcDbEntity
  8
100
  6
Continuous
 62
     7
370
    30
100
AcDbLine
 10
13.53185012833421
 20
-28.18861372015448
 30
0.0
 11
13.18028762833421
 21
-29.53626997015448
 31
0.0
  0
LINE
  5
222
330
1F
100
AcDbEntity
  8
100
  6
Continuous
 62
     7
370
    30
100
AcDbLine
 10
16.40294387833421
 20
-23.44251997015448
 30
0.0
 11
13.53185012833421
 21
-28.18861372015448
 31
0.0
  0
LINE
  5
223
330
1F
100
AcDbEntity
  8
100
  6
Continuous
 62
     7
370
    30
100
AcDbLine
 10
17.75060012833421
 20
-21.21595747015448
 30
0.0
 11
16.40294387833421
 21
-23.44251997015448
 31
0.0
  0
LINE
  5
224
330
1F
100
AcDbEntity
  8
100
  6
Continuous
 62
     7
370
    30
100
AcDbLine
 10
18.16075637833421
 20
-20.33705122015448
 30
0.0
 11
17.75060012833421
 21
-21.21595747015448
 31
0.0
  0
LINE
  5
225
330
1F
100
AcDbEntity
  8
100
  6
Continuous
 62
     7
370
    30
100
AcDbLine
 10
18.01427200333421
 20
-17.99330122015448
 30
0.0
 11
18.16075637833421
 21
-20.33705122015448
 31
0.0
  0
LINE
  5
226
330
1F
100
AcDbEntity
  8
100
  6
Continuous
 62
     7
370
    30
100
AcDbLine
 10
82.26231887833421
 20
-16.70423872015448
 30
0.0
 11
82.11273573214064
 21
-14.27538106800986
 31
0.0
  0
LINE
  5
227
330
1F
100
AcDbEntity
  8
100
  6
Continuous
 62
     7
370
    30
100
AcDbLine
 10
81.61778762833421
 20
-28.59876997015448
 30
0.0
 11
82.26231887833421
 21
-16.70423872015448
 31
0.0
  0
LINE
  5
228
330
1F
100
AcDbEntity
  8
100
  6
Continuous
 62
     7
370
    30
100
AcDbLine
 10
82.02794387833421
 20
-29.71205122015448
 30
0.0
 11
81.61778762833421
 21
-28.59876997015448
 31
0.0
  0
LINE
  5
229
330
1F
100
AcDbEntity
  8
100
  6
Continuous
 62
     7
370
    30
100
AcDbLine
 10
82.02794387833421
 20
-30.53236372015448
 30
0.0
 11
82.02794387833421
 21
-29.71205122015448
 31
0.0
  0
LINE
  5
22A
330
1F
100
AcDbEntity
  8
100
  6
Continuous
 62
     7
370
    30
100
AcDbLine
 10
86.89122512833421
 20
-40.20033247015448
 30
0.0
 11
82.02794387833421
 21
-30.53236372015448
 31
0.0
  0
LINE
  5
22B
330
1F
100
AcDbEntity
  8
100
  6
Continuous
 62
     7
370
    30
100
AcDbLine
 10
87.12560012833421
 20
-41.19642622015448
 30
0.0
 11
86.89122512833421
 21
-40.20033247015448
 31
0.0
  0
LINE
  5
22C
330
1F
100
AcDbEntity
  8
100
  6
Continuous
 62
     7
370
    30
100
AcDbLine
 10
87.12560012833421
 20
-42.48548872015448
 30
0.0
 11
87.12560012833421
 21
-41.19642622015448
 31
0.0
  0
LINE
  5
22D
330
1F
100
AcDbEntity
  8
100
  6
Continuous
 62
     7
370
    30
100
AcDbLine
 10
86.42247512833421
 20
-43.71595747015448
 30
0.0
 11
87.12560012833421
 21
-42.48548872015448
 31
0.0
  0
LINE
  5
22E
330
1F
100
AcDbEntity
  8
100
  6
Continuous
 62
     7
370
    30
100
AcDbLine
 10
85.30919387833421
 20
-44.88783247015448
 30
0.0
 11
86.42247512833421
 21
-43.71595747015448
 31
0.0
  0
LINE
  5
22F
330
1F
100
AcDbEntity
  8
100
  6
Continuous
 62
     7
370
    30
100
AcDbLine
 10
83.78575637833421
 20
-45.12220747015448
 30
0.0
 11
85.30919387833421
 21
-44.88783247015448
 31
0.0
  0
LINE
  5
230
330
1F
100
AcDbEntity
  8
100
  6
Continuous
 62
     7
370
    30
100
AcDbLine
 10
77.92638137833421
 20
-44.18470747015448
 30
0.0
 11
83.78575637833421
 21
-45.12220747015448
 31
0.0
  0
LINE
  5
231
330
1F
100
AcDbEntity
  8
100
  6
Continuous
 62
     7
370
    30
100
AcDbLine
 10
59.87950637833421
 20
-41.25501997015448
 30
0.0
 11
77.92638137833421
 21
-44.18470747015448
 31
0.0
  0
LINE
  5
232
330
1F
100
AcDbEntity
  8
100
  6
Continuous
 62
     7
370
    30
100
AcDbLine
 10
57.41856887833421
 20
-40.90345747015448
 30
0.0
 11
59.87950637833421
 21
-41.25501997015448
 31
0.0
  0
LINE
  5
233
330
1F
100
AcDbEntity
  8
100
  6
Continuous
 62
     7
370
    30
100
AcDbLine
 10
56.07091262833421
 20
-40.43470747015448
 30
0.0
 11
57.41856887833421
 21
-40.90345747015448
 31
0.0
  0
LINE
  5
234
330
1F
100
AcDbEntity
  8
100
  6
Continuous
 62
     7
370
    30
100
AcDbLine
 10
50.97325637833421
 20
-37.68080122015448
 30
0.0
 11
56.07091262833421
 21
-40.43470747015448
 31
0.0
  0
LINE
  5
235
330
1F
100
AcDbEntity
  8
100
  6
Continuous
 62
     7
370
    30
100
AcDbLine
 10
49.68419387833421
 20
-37.15345747015448
 30
0.0
 11
50.97325637833421
 21
-37.68080122015448
 31
0.0
  0
LINE
  5
236
330
1F
100
AcDbEntity
  8
100
  6
Continuous
 62
     7
370
    30
100
AcDbLine
 10
48.51231887833421
 20
-36.62611372015448
 30
0.0
 11
49.68419387833421
 21
-37.15345747015448
 31
0.0
  0
LINE
  5
237
330
1F
100
AcDbEntity
  8
100
  6
Continuous
 62
     7
370
    30
100
AcDbLine
 10
46.46153762833421
 20
-36.86048872015448
 30
0.0
 11
48.51231887833421
 21
-36.62611372015448
 31
0.0
  0
LINE
  5
238
330
1F
100
AcDbEntity
  8
100
  6
Continuous
 62
     7
370
    30
100
AcDbLine
 10
44.23497512833421
 20
-37.32923872015448
 30
0.0
 11
46.46153762833421
 21
-36.86048872015448
 31
0.0
  0
LINE
  5
239
330
1F
100
AcDbEntity
  8
100
  6
Continuous
 62
     7
370
    30
100
AcDbLine
 10
41.89122512833421
 20
-37.73939497015448
 30
0.0
 11
44.23497512833421
 21
-37.32923872015448
 31
0.0
  0
LINE
  5
23A
330
1F
100
AcDbEntity
  8
100
  6
Continuous
 62
     7
370
    30
100
AcDbLine
 10
39.84044387833421
 20
-37.79798872015448
 30
0.0
 11
41.89122512833421
 21
-37.73939497015448
 31
0.0
  0
LINE
  5
23B
330
1F
100
AcDbEntity
  8
100
  6
Continuous
 62
     7
370
    30
100
AcDbLine
 10
49.50841262833421
 20
-40.43470747015448
 30
0.0
 11
50.97325637833421
 21
-37.68080122015448
 31
0.0
  0
LINE
  5
23C
330
1F
100
AcDbEntity
  8
100
  6
Continuous
 62
     7
370
    30
100
AcDbLine
 10
39.48888137833421
 20
-61.58705122015448
 30
0.0
 11
49.50841262833421
 21
-40.43470747015448
 31
0.0
  0
LINE
  5
23D
330
1F
100
AcDbEntity
  8
100
  6
Continuous
 62
     7
370
    30
100
AcDbLine
 10
38.02403762833421
 20
-63.75501997015448
 30
0.0
 11
39.48888137833421
 21
-61.58705122015448
 31
0.0
  0
LINE
  5
23E
330
1F
100
AcDbEntity
  8
100
  6
Continuous
 62
     7
370
    30
100
AcDbLine
 10
36.67638137833421
 20
-63.87220747015448
 30
0.0
 11
38.02403762833421
 21
-63.75501997015448
 31
0.0
  0
LINE
  5
23F
330
1F
100
AcDbEntity
  8
100
  6
Continuous
 62
     7
370
    30
100
AcDbLine
 10
35.85606887833421
 20
-62.81751997015448
 30
0.0
 11
36.67638137833421
 21
-63.87220747015448
 31
0.0
  0
LINE
  5
240
330
1F
100
AcDbEntity
  8
100
  6
Continuous
 62
     7
370
    30
100
AcDbLine
 10
35.50450637833421
 20
-61.00111372015448
 30
0.0
 11
35.85606887833421
 21
-62.81751997015448
 31
0.0
  0
LINE
  5
241
330
1F
100
AcDbEntity
  8
100
  6
Continuous
 62
     7
370
    30
100
AcDbLine
 10
35.62169387833421
 20
-58.18861372015448
 30
0.0
 11
35.50450637833421
 21
-61.00111372015448
 31
0.0
  0
LINE
  5
242
330
1F
100
AcDbEntity
  8
100
  6
Continuous
 62
     7
370
    30
100
AcDbLine
 10
35.91466262833421
 20
-54.96595747015448
 30
0.0
 11
35.62169387833421
 21
-58.18861372015448
 31
0.0
  0
LINE
  5
243
330
1F
100
AcDbEntity
  8
100
  6
Continuous
 62
     7
370
    30
100
AcDbLine
 10
36.73497512833421
 20
-50.10267622015448
 30
0.0
 11
35.91466262833421
 21
-54.96595747015448
 31
0.0
  0
LINE
  5
244
330
1F
100
AcDbEntity
  8
100
  6
Continuous
 62
     7
370
    30
100
AcDbLine
 10
37.14513137833421
 20
-46.29408247015448
 30
0.0
 11
36.73497512833421
 21
-50.10267622015448
 31
0.0
  0
LINE
  5
245
330
1F
100
AcDbEntity
  8
100
  6
Continuous
 62
     7
370
    30
100
AcDbLine
 10
37.37950637833421
 20
-42.19251997015448
 30
0.0
 11
37.14513137833421
 21
-46.29408247015448
 31
0.0
  0
LINE
  5
246
330
1F
100
AcDbEntity
  8
100
  6
Continuous
 62
     7
370
    30
100
AcDbLine
 10
37.49669387833421
 20
-35.04408247015448
 30
0.0
 11
37.37950637833421
 21
-42.19251997015448
 31
0.0
  0
LINE
  5
247
330
1F
100
AcDbEntity
  8
100
  6
Continuous
 62
     7
370
    30
100
AcDbLine
 10
37.56675035604771
 20
-25.89600407475765
 30
0.0
 11
37.49669387833421
 21
-35.04408247015448
 31
0.0
  0
LINE
  5
248
330
1F
100
AcDbEntity
  8
100
  6
Continuous
 62
     7
370
    30
100
AcDbLine
 10
40.01622512833421
 20
-35.45423872015448
 30
0.0
 11
40.19658748258428
 21
-26.28425026855292
 31
0.0
  0
LINE
  5
249
330
1F
100
AcDbEntity
  8
100
  6
Continuous
 62
     7
370
    30
100
AcDbLine
 10
39.84044387833421
 20
-37.79798872015448
 30
0.0
 11
40.01622512833421
 21
-35.45423872015448
 31
0.0
  0
LINE
  5
24A
330
1F
100
AcDbEntity
  8
100
  6
Continuous
 62
     7
370
    30
100
AcDbLine
 10
39.89903762833421
 20
-45.23939497015448
 30
0.0
 11
39.84044387833421
 21
-37.79798872015448
 31
0.0
  0
LINE
  5
24B
330
1F
100
AcDbEntity
  8
100
  6
Continuous
 62
     7
370
    30
100
AcDbLine
 10
39.31310012833421
 20
-49.51673872015448
 30
0.0
 11
39.89903762833421
 21
-45.23939497015448
 31
0.0
  0
LINE
  5
24C
330
1F
100
AcDbEntity
  8
100
  6
Continuous
 62
     7
370
    30
100
AcDbLine
 10
38.49278762833421
 20
-56.72376997015448
 30
0.0
 11
39.31310012833421
 21
-49.51673872015448
 31
0.0
  0
LINE
  5
24D
330
1F
100
AcDbEntity
  8
100
  6
Continuous
 62
     7
370
    30
100
AcDbLine
 10
38.96153762833421
 20
-56.60658247015448
 30
0.0
 11
38.49278762833421
 21
-56.72376997015448
 31
0.0
  0
LINE
  5
24E
330
1F
100
AcDbEntity
  8
100
  6
Continuous
 62
     7
370
    30
100
AcDbLine
 10
41.36388137833421
 20
-51.68470747015448
 30
0.0
 11
38.96153762833421
 21
-56.60658247015448
 31
0.0
  0
LINE
  5
24F
330
1F
100
AcDbEntity
  8
100
  6
Continuous
 62
     7
370
    30
100
AcDbLine
 10
45.40685012833421
 20
-42.95423872015448
 30
0.0
 11
41.36388137833421
 21
-51.68470747015448
 31
0.0
  0
LINE
  5
250
330
1F
100
AcDbEntity
  8
100
  6
Continuous
 62
     7
370
    30
100
AcDbLine
 10
48.62950637833421
 20
-37.44642622015448
 30
0.0
 11
45.40685012833421
 21
-42.95423872015448
 31
0.0
  0
LINE
  5
251
330
1F
100
AcDbEntity
  8
100
  6
Continuous
 62
     7
370
    30
100
AcDbLine
 10
48.51231887833421
 20
-36.62611372015448
 30
0.0
 11
48.62950637833421
 21
-37.44642622015448
 31
0.0
  0
LINE
  5
252
330
1F
100
AcDbEntity
  8
100
  6
Continuous
 62
     7
370
    30
100
AcDbLine
 10
56.6503001790209
 20
-26.14100357211878
 30
0.0
 11
51.79356887833421
 21
-35.57142622015448
 31
0.0
  0
LINE
  5
253
330
1F
100
AcDbEntity
  8
100
  6
Continuous
 62
     7
370
    30
100
AcDbLine
 10
53.60816850653995
 20
-26.39243960052953
 30
0.0
 11
49.33263137833421
 21
-34.51673872015448
 31
0.0
  0
LINE
  5
254
330
1F
100
AcDbEntity
  8
100
  6
Continuous
 62
     7
370
    30
100
AcDbLine
 10
41.83263137833421
 20
-35.45423872015448
 30
0.0
 11
40.01622512833421
 21
-35.45423872015448
 31
0.0
  0
LINE
  5
255
330
1F
100
AcDbEntity
  8
100
  6
Continuous
 62
     7
370
    30
100
AcDbLine
 10
43.76622512833421
 20
-34.98548872015448
 30
0.0
 11
41.83263137833421
 21
-35.45423872015448
 31
0.0
  0
LINE
  5
256
330
1F
100
AcDbEntity
  8
100
  6
Continuous
 62
     7
370
    30
100
AcDbLine
 10
45.40685012833421
 20
-34.63392622015448
 30
0.0
 11
43.76622512833421
 21
-34.98548872015448
 31
0.0
  0
LINE
  5
257
330
1F
100
AcDbEntity
  8
100
  6
Continuous
 62
     7
370
    30
100
AcDbLine
 10
47.57481887833421
 20
-34.51673872015448
 30
0.0
 11
45.40685012833421
 21
-34.63392622015448
 31
0.0
  0
LINE
  5
258
330
1F
100
AcDbEntity
  8
100
  6
Continuous
 62
     7
370
    30
100
AcDbLine
 10
49.33263137833421
 20
-34.51673872015448
 30
0.0
 11
47.57481887833421
 21
-34.51673872015448
 31
0.0
  0
LINE
  5
259
330
1F
100
AcDbEntity
  8
100
  6
Continuous
 62
     7
370
    30
100
AcDbLine
 10
50.38731887833421
 20
-34.86830122015448
 30
0.0
 11
49.33263137833421
 21
-34.51673872015448
 31
0.0
  0
LINE
  5
25A
330
1F
100
AcDbEntity
  8
100
  6
Continuous
 62
     7
370
    30
100
AcDbLine
 10
51.79356887833421
 20
-35.57142622015448
 30
0.0
 11
50.38731887833421
 21
-34.86830122015448
 31
0.0
  0
LINE
  5
25B
330
1F
100
AcDbEntity
  8
100
  6
Continuous
 62
     7
370
    30
100
AcDbLine
 10
53.02403762833421
 20
-36.09876997015448
 30
0.0
 11
51.79356887833421
 21
-35.57142622015448
 31
0.0
  0
LINE
  5
25C
330
1F
100
AcDbEntity
  8
100
  6
Continuous
 62
     7
370
    30
100
AcDbLine
 10
54.72325637833421
 20
-36.97767622015448
 30
0.0
 11
53.02403762833421
 21
-36.09876997015448
 31
0.0
  0
LINE
  5
25D
330
1F
100
AcDbEntity
  8
100
  6
Continuous
 62
     7
370
    30
100
AcDbLine
 10
56.71544387833421
 20
-37.91517622015448
 30
0.0
 11
54.72325637833421
 21
-36.97767622015448
 31
0.0
  0
LINE
  5
25E
330
1F
100
AcDbEntity
  8
100
  6
Continuous
 62
     7
370
    30
100
AcDbLine
 10
58.12169387833421
 20
-38.38392622015448
 30
0.0
 11
56.71544387833421
 21
-37.91517622015448
 31
0.0
  0
LINE
  5
25F
330
1F
100
AcDbEntity
  8
100
  6
Continuous
 62
     7
370
    30
100
AcDbLine
 10
64.56700637833421
 20
-39.43861372015448
 30
0.0
 11
58.12169387833421
 21
-38.38392622015448
 31
0.0
  0
LINE
  5
260
330
1F
100
AcDbEntity
  8
100
  6
Continuous
 62
     7
370
    30
100
AcDbLine
 10
83.78575637833421
 20
-42.48548872015448
 30
0.0
 11
64.56700637833421
 21
-39.43861372015448
 31
0.0
  0
LINE
  5
261
330
1F
100
AcDbEntity
  8
100
  6
Continuous
 62
     7
370
    30
100
AcDbLine
 10
84.78185012833421
 20
-41.95814497015448
 30
0.0
 11
83.78575637833421
 21
-42.48548872015448
 31
0.0
  0
LINE
  5
262
330
1F
100
AcDbEntity
  8
100
  6
Continuous
 62
     7
370
    30
100
AcDbLine
 10
84.72325637833421
 20
-40.84486372015448
 30
0.0
 11
84.78185012833421
 21
-41.95814497015448
 31
0.0
  0
LINE
  5
263
330
1F
100
AcDbEntity
  8
100
  6
Continuous
 62
     7
370
    30
100
AcDbLine
 10
83.55138137833421
 20
-38.73548872015448
 30
0.0
 11
84.72325637833421
 21
-40.84486372015448
 31
0.0
  0
LINE
  5
264
330
1F
100
AcDbEntity
  8
100
  6
Continuous
 62
     7
370
    30
100
AcDbLine
 10
81.44200637833421
 20
-34.75111372015448
 30
0.0
 11
83.55138137833421
 21
-38.73548872015448
 31
0.0
  0
LINE
  5
265
330
1F
100
AcDbEntity
  8
100
  6
Continuous
 62
     7
370
    30
100
AcDbLine
 10
80.32872512833421
 20
-32.87611372015448
 30
0.0
 11
81.44200637833421
 21
-34.75111372015448
 31
0.0
  0
LINE
  5
266
330
1F
100
AcDbEntity
  8
100
  6
Continuous
 62
     7
370
    30
100
AcDbLine
 10
79.15685012833421
 20
-30.70814497015448
 30
0.0
 11
80.32872512833421
 21
-32.87611372015448
 31
0.0
  0
LINE
  5
267
330
1F
100
AcDbEntity
  8
100
  6
Continuous
 62
     7
370
    30
100
AcDbLine
 10
79.27403762833421
 20
-28.07142622015448
 30
0.0
 11
79.15685012833421
 21
-30.70814497015448
 31
0.0
  0
LINE
  5
268
330
1F
100
AcDbEntity
  8
100
  6
Continuous
 62
     7
370
    30
100
AcDbLine
 10
79.33263137833421
 20
-23.67689497015448
 30
0.0
 11
79.27403762833421
 21
-28.07142622015448
 31
0.0
  0
LINE
  5
269
330
1F
100
AcDbEntity
  8
100
  6
Continuous
 62
     7
370
    30
100
AcDbLine
 10
79.51846652340899
 20
-17.06234253801859
 30
0.0
 11
79.33263137833421
 21
-23.67689497015448
 31
0.0
  0
LINE
  5
26A
330
1F
100
AcDbEntity
  8
100
  6
Continuous
 62
     7
370
    30
100
AcDbLine
 10
79.39122512833421
 20
-18.63783247015448
 30
0.0
 11
78.38848338784331
 21
-18.15645319309011
 31
0.0
  0
LINE
  5
26B
330
1F
100
AcDbEntity
  8
100
  6
Continuous
 62
     7
370
    30
100
AcDbLine
 10
76.40294387833421
 20
-22.21205122015448
 30
0.0
 11
79.33263137833421
 21
-23.67689497015448
 31
0.0
  0
LINE
  5
26C
330
1F
100
AcDbEntity
  8
100
  6
Continuous
 62
     7
370
    30
100
AcDbLine
 10
74.47012792147581
 20
-20.96395249227837
 30
0.0
 11
76.40294387833421
 21
-22.21205122015448
 31
0.0
  0
LINE
  5
26D
330
1F
100
AcDbEntity
  8
100
  6
Continuous
 62
     7
370
    30
100
AcDbLine
 10
71.89122512833421
 20
-24.32142622015448
 30
0.0
 11
70.33419572151155
 21
-22.87170509717083
 31
0.0
  0
LINE
  5
26E
330
1F
100
AcDbEntity
  8
100
  6
Continuous
 62
     7
370
    30
100
AcDbLine
 10
74.23497512833421
 20
-25.61048872015448
 30
0.0
 11
71.89122512833421
 21
-24.32142622015448
 31
0.0
  0
LINE
  5
26F
330
1F
100
AcDbEntity
  8
100
  6
Continuous
 62
     7
370
    30
100
AcDbLine
 10
79.27403762833421
 20
-28.07142622015448
 30
0.0
 11
74.23497512833421
 21
-25.61048872015448
 31
0.0
  0
LINE
  5
270
330
1F
100
AcDbEntity
  8
100
  6
Continuous
 62
     7
370
    30
100
AcDbLine
 10
77.98497512833421
 20
-31.52845747015448
 30
0.0
 11
80.32872512833421
 21
-32.87611372015448
 31
0.0
  0
LINE
  5
271
330
1F
100
AcDbEntity
  8
100
  6
Continuous
 62
     7
370
    30
100
AcDbLine
 10
73.64903762833421
 20
-28.95033247015448
 30
0.0
 11
77.98497512833421
 21
-31.52845747015448
 31
0.0
  0
LINE
  5
272
330
1F
100
AcDbEntity
  8
100
  6
Continuous
 62
     7
370
    30
100
AcDbLine
 10
70.69005325333421
 20
-26.81166059515448
 30
0.0
 11
73.64903762833421
 21
-28.95033247015448
 31
0.0
  0
LINE
  5
273
330
1F
100
AcDbEntity
  8
100
  6
Continuous
 62
     7
370
    30
100
AcDbLine
 10
67.9268181148379
 20
-23.76890644183953
 30
0.0
 11
70.69005325333421
 21
-26.81166059515448
 31
0.0
  0
LINE
  5
274
330
1F
100
AcDbEntity
  8
100
  6
Continuous
 62
     7
370
    30
100
AcDbLine
 10
69.13731887833421
 20
-27.36830122015448
 30
0.0
 11
67.05909865993753
 21
-24.00433420092101
 31
0.0
  0
LINE
  5
275
330
1F
100
AcDbEntity
  8
100
  6
Continuous
 62
     7
370
    30
100
AcDbLine
 10
72.30138137833421
 20
-30.06361372015448
 30
0.0
 11
69.13731887833421
 21
-27.36830122015448
 31
0.0
  0
LINE
  5
276
330
1F
100
AcDbEntity
  8
100
  6
Continuous
 62
     7
370
    30
100
AcDbLine
 10
76.52013137833421
 20
-32.64173872015448
 30
0.0
 11
72.30138137833421
 21
-30.06361372015448
 31
0.0
  0
LINE
  5
277
330
1F
100
AcDbEntity
  8
100
  6
Continuous
 62
     7
370
    30
100
AcDbLine
 10
81.44200637833421
 20
-34.75111372015448
 30
0.0
 11
76.52013137833421
 21
-32.64173872015448
 31
0.0
  0
LINE
  5
278
330
1F
100
AcDbEntity
  8
100
  6
Continuous
 62
     7
370
    30
100
AcDbLine
 10
76.40294387833421
 20
-37.32923872015448
 30
0.0
 11
84.72325637833421
 21
-40.84486372015448
 31
0.0
  0
LINE
  5
279
330
1F
100
AcDbEntity
  8
100
  6
Continuous
 62
     7
370
    30
100
AcDbLine
 10
71.12950637833421
 20
-34.16517622015448
 30
0.0
 11
76.40294387833421
 21
-37.32923872015448
 31
0.0
  0
LINE
  5
27A
330
1F
100
AcDbEntity
  8
100
  6
Continuous
 62
     7
370
    30
100
AcDbLine
 10
66.09044387833421
 20
-29.82923872015448
 30
0.0
 11
71.12950637833421
 21
-34.16517622015448
 31
0.0
  0
LINE
  5
27B
330
1F
100
AcDbEntity
  8
100
  6
Continuous
 62
     7
370
    30
100
AcDbLine
 10
62.64477160365745
 20
-25.20201983634585
 30
0.0
 11
66.09044387833421
 21
-29.82923872015448
 31
0.0
  0
LINE
  5
27C
330
1F
100
AcDbEntity
  8
100
  6
Continuous
 62
     7
370
    30
100
AcDbLine
 10
78.18187643014397
 20
1.771818448705659
 30
0.0
 11
80.7169351106071
 21
2.420772509004209
 31
0.0
  0
LINE
  5
27D
330
1F
100
AcDbEntity
  8
100
  6
Continuous
 62
     7
370
    30
100
AcDbLine
 10
78.13476887132387
 20
4.566894499455742
 30
0.0
 11
80.8919864652928
 21
5.271608856742802
 31
0.0
  0
LINE
  5
27E
330
1F
100
AcDbEntity
  8
100
  6
Continuous
 62
     7
370
    30
100
AcDbLine
 10
78.31692513884971
 20
7.521873950430177
 30
0.0
 11
81.0806048894975
 21
8.343394622361814
 31
0.0
  0
LINE
  5
27F
330
1F
100
AcDbEntity
  8
100
  6
Continuous
 62
     7
370
    30
100
AcDbLine
 10
78.501247945447
 20
11.27746157606322
 30
0.0
 11
81.2579887536111
 21
12.09250695699572
 31
0.0
  0
LINE
  5
280
330
1F
100
AcDbEntity
  8
100
  6
Continuous
 62
     7
370
    30
100
AcDbLine
 10
78.60181023099733
 20
14.20414569716478
 30
0.0
 11
81.37071829409143
 21
14.8185122086112
 31
0.0
  0
LINE
  5
281
330
1F
100
AcDbEntity
  8
100
  6
Continuous
 62
     7
370
    30
100
AcDbLine
 10
78.60808809882826
 20
17.19222910216793
 30
0.0
 11
81.48507993016347
 21
17.6916930633821
 31
0.0
  0
LINE
  5
282
330
1F
100
AcDbEntity
  8
100
  6
Continuous
 62
     7
370
    30
100
AcDbLine
 10
74.7151665114703
 20
-8.774666789681106
 30
0.0
 11
78.80528762833421
 21
-11.07923872015448
 31
0.0
  0
LINE
  5
283
330
1F
100
AcDbEntity
  8
100
  6
Continuous
 62
     7
370
    30
100
AcDbLine
 10
73.39176526050773
 20
-11.24232686407676
 30
0.0
 11
77.74299086598094
 21
-14.2054922889627
 31
0.0
  0
LINE
  5
284
330
1F
100
AcDbEntity
  8
100
  6
Continuous
 62
     7
370
    30
100
AcDbLine
 10
71.21739700333421
 20
-14.24330122015448
 30
0.0
 11
74.90533901033686
 21
-16.46340610214003
 31
0.0
  0
LINE
  5
285
330
1F
100
AcDbEntity
  8
100
  6
Continuous
 62
     7
370
    30
100
AcDbLine
 10
68.69786575333421
 20
-17.05580122015448
 30
0.0
 11
70.6213907660717
 21
-18.76156583734478
 31
0.0
  0
LINE
  5
286
330
1F
100
AcDbEntity
  8
100
  6
Continuous
 62
     7
370
    30
100
AcDbLine
 10
65.3577106247338
 20
-19.48271649661466
 30
0.0
 11
66.35927424525423
 21
-20.26503803132392
 31
0.0
  0
LINE
  5
287
330
1F
100
AcDbEntity
  8
100
  6
Continuous
 62
     7
370
    30
100
AcDbLine
 10
66.35411575333421
 20
-18.90150434515448
 30
0.0
 11
61.69061104657761
 21
-21.62176895054237
 31
0.0
  0
LINE
  5
288
330
1F
100
AcDbEntity
  8
100
  6
Continuous
 62
     7
370
    30
100
AcDbLine
 10
68.69786575333421
 20
-17.05580122015448
 30
0.0
 11
66.35411575333421
 21
-18.90150434515448
 31
0.0
  0
LINE
  5
289
330
1F
100
AcDbEntity
  8
100
  6
Continuous
 62
     7
370
    30
100
AcDbLine
 10
71.21739700333421
 20
-14.24330122015448
 30
0.0
 11
68.69786575333421
 21
-17.05580122015448
 31
0.0
  0
LINE
  5
28A
330
1F
100
AcDbEntity
  8
100
  6
Continuous
 62
     7
370
    30
100
AcDbLine
 10
73.09239700333421
 20
-11.78236372015448
 30
0.0
 11
71.21739700333421
 21
-14.24330122015448
 31
0.0
  0
LINE
  5
28B
330
1F
100
AcDbEntity
  8
100
  6
Continuous
 62
     7
370
    30
100
AcDbLine
 10
74.58653762833421
 20
-9.087051220154478
 30
0.0
 11
73.09239700333421
 21
-11.78236372015448
 31
0.0
  0
LINE
  5
28C
330
1F
100
AcDbEntity
  8
100
  6
Continuous
 62
     7
370
    30
100
AcDbLine
 10
75.81700637833421
 20
-6.098769970154478
 30
0.0
 11
74.58653762833421
 21
-9.087051220154478
 31
0.0
  0
LINE
  5
28D
330
1F
100
AcDbEntity
  8
100
  6
Continuous
 62
     7
370
    30
100
AcDbLine
 10
76.54942825333421
 20
-3.549941845154478
 30
0.0
 11
75.81700637833421
 21
-6.098769970154478
 31
0.0
  0
LINE
  5
28E
330
1F
100
AcDbEntity
  8
100
  6
Continuous
 62
     7
370
    30
100
AcDbLine
 10
77.39903762833421
 20
-1.323379345154478
 30
0.0
 11
76.54942825333421
 21
-3.549941845154478
 31
0.0
  0
LINE
  5
28F
330
1F
100
AcDbEntity
  8
100
  6
Continuous
 62
     7
370
    30
100
AcDbLine
 10
77.98497512833421
 20
1.928573779845522
 30
0.0
 11
77.39903762833421
 21
-1.323379345154478
 31
0.0
  0
LINE
  5
290
330
1F
100
AcDbEntity
  8
100
  6
Continuous
 62
     7
370
    30
100
AcDbLine
 10
78.10216262833421
 20
4.037948779845522
 30
0.0
 11
77.98497512833421
 21
1.928573779845522
 31
0.0
  0
LINE
  5
291
330
1F
100
AcDbEntity
  8
100
  6
Continuous
 62
     7
370
    30
100
AcDbLine
 10
78.36583450333421
 20
8.315292529845522
 30
0.0
 11
78.10216262833421
 21
4.037948779845522
 31
0.0
  0
LINE
  5
292
330
1F
100
AcDbEntity
  8
100
  6
Continuous
 62
     7
370
    30
100
AcDbLine
 10
78.60020950333421
 20
13.44224565484552
 30
0.0
 11
78.36583450333421
 21
8.315292529845522
 31
0.0
  0
LINE
  5
293
330
1F
100
AcDbEntity
  8
100
  6
Continuous
 62
     7
370
    30
100
AcDbLine
 10
78.61271778674964
 20
19.39582656881279
 30
0.0
 11
78.60020950333421
 21
13.44224565484552
 31
0.0
  0
LINE
  5
294
330
1F
100
AcDbEntity
  8
100
  6
Continuous
 62
     7
370
    30
100
AcDbLine
 10
80.56079590497276
 20
-0.122065982755089
 30
0.0
 11
77.98497512833421
 21
1.928573779845522
 31
0.0
  0
LINE
  5
295
330
1F
100
AcDbEntity
  8
100
  6
Continuous
 62
     7
370
    30
100
AcDbLine
 10
79.24474075333421
 20
-2.905410595154478
 30
0.0
 11
80.30179120352403
 21
-4.575469056870659
 31
0.0
  0
LINE
  5
296
330
1F
100
AcDbEntity
  8
100
  6
Continuous
 62
     7
370
    30
100
AcDbLine
 10
77.39903762833421
 20
-1.323379345154478
 30
0.0
 11
79.24474075333421
 21
-2.905410595154478
 31
0.0
  0
LINE
  5
297
330
1F
100
AcDbEntity
  8
100
  6
Continuous
 62
     7
370
    30
100
AcDbLine
 10
78.80528762833421
 20
-11.07923872015448
 30
0.0
 11
79.13773445010114
 21
-12.95867605467343
 31
0.0
  0
LINE
  5
298
330
1F
100
AcDbEntity
  8
100
  6
Continuous
 62
     7
370
    30
100
AcDbLine
 10
78.71739700333421
 20
-9.643691845154478
 30
0.0
 11
78.80528762833421
 21
-11.07923872015448
 31
0.0
  0
LINE
  5
299
330
1F
100
AcDbEntity
  8
100
  6
Continuous
 62
     7
370
    30
100
AcDbLine
 10
79.09825637833421
 20
-8.178848095154478
 30
0.0
 11
78.71739700333421
 21
-9.643691845154478
 31
0.0
  0
LINE
  5
29A
330
1F
100
AcDbEntity
  8
100
  6
Continuous
 62
     7
370
    30
100
AcDbLine
 10
79.74278762833421
 20
-7.094863720154478
 30
0.0
 11
79.09825637833421
 21
-8.178848095154478
 31
0.0
  0
LINE
  5
29B
330
1F
100
AcDbEntity
  8
100
  6
Continuous
 62
     7
370
    30
100
AcDbLine
 10
80.24083450333421
 20
-5.630019970154478
 30
0.0
 11
79.74278762833421
 21
-7.094863720154478
 31
0.0
  0
LINE
  5
29C
330
1F
100
AcDbEntity
  8
100
  6
Continuous
 62
     7
370
    30
100
AcDbLine
 10
80.53380325333421
 20
-0.5616605951544784
 30
0.0
 11
80.24083450333421
 21
-5.630019970154478
 31
0.0
  0
LINE
  5
29D
330
1F
100
AcDbEntity
  8
100
  6
Continuous
 62
     7
370
    30
100
AcDbLine
 10
81.14903762833421
 20
9.457870654845522
 30
0.0
 11
80.53380325333421
 21
-0.5616605951544784
 31
0.0
  0
LINE
  5
29E
330
1F
100
AcDbEntity
  8
100
  6
Continuous
 62
     7
370
    30
100
AcDbLine
 10
81.47130325333421
 20
17.25083940484552
 30
0.0
 11
81.14903762833421
 21
9.457870654845522
 31
0.0
  0
LINE
  5
29F
330
1F
100
AcDbEntity
  8
100
  6
Continuous
 62
     7
370
    30
100
AcDbLine
 10
81.55919387833421
 20
20.06333940484552
 30
0.0
 11
81.47130325333421
 21
17.25083940484552
 31
0.0
  0
LINE
  5
2A0
330
1F
100
AcDbEntity
  8
100
  6
Continuous
 62
     7
370
    30
100
AcDbLine
 10
81.45665481583421
 20
21.04478471734552
 30
0.0
 11
81.55919387833421
 21
20.06333940484552
 31
0.0
  0
LINE
  5
2A1
330
1F
100
AcDbEntity
  8
100
  6
Continuous
 62
     7
370
    30
100
AcDbLine
 10
83.96153762833421
 20
22.20201127984552
 30
0.0
 11
83.69721759238288
 21
22.61709355307561
 31
0.0
  0
LINE
  5
2A2
330
1F
100
AcDbEntity
  8
100
  6
Continuous
 62
     7
370
    30
100
AcDbLine
 10
84.13731887833421
 20
20.94224565484552
 30
0.0
 11
83.96153762833421
 21
22.20201127984552
 31
0.0
  0
LINE
  5
2A3
330
1F
100
AcDbEntity
  8
100
  6
Continuous
 62
     7
370
    30
100
AcDbLine
 10
84.22520950333421
 20
18.27623002984552
 30
0.0
 11
84.13731887833421
 21
20.94224565484552
 31
0.0
  0
LINE
  5
2A4
330
1F
100
AcDbEntity
  8
100
  6
Continuous
 62
     7
370
    30
100
AcDbLine
 10
83.81505325333421
 20
8.842636279845522
 30
0.0
 11
84.22520950333421
 21
18.27623002984552
 31
0.0
  0
LINE
  5
2A5
330
1F
100
AcDbEntity
  8
100
  6
Continuous
 62
     7
370
    30
100
AcDbLine
 10
83.34630325333421
 20
2.221542529845522
 30
0.0
 11
83.81505325333421
 21
8.842636279845522
 31
0.0
  0
LINE
  5
2A6
330
1F
100
AcDbEntity
  8
100
  6
Continuous
 62
     7
370
    30
100
AcDbLine
 10
82.87755325333421
 20
-3.344863720154478
 30
0.0
 11
83.34630325333421
 21
2.221542529845522
 31
0.0
  0
LINE
  5
2A7
330
1F
100
AcDbEntity
  8
100
  6
Continuous
 62
     7
370
    30
100
AcDbLine
 10
82.67247512833421
 20
-4.780410595154478
 30
0.0
 11
82.87755325333421
 21
-3.344863720154478
 31
0.0
  0
LINE
  5
2A8
330
1F
100
AcDbEntity
  8
100
  6
Continuous
 62
     7
370
    30
100
AcDbLine
 10
82.11583450333421
 20
-7.036269970154478
 30
0.0
 11
82.67247512833421
 21
-4.780410595154478
 31
0.0
  0
LINE
  5
2A9
330
1F
100
AcDbEntity
  8
100
  6
Continuous
 62
     7
370
    30
100
AcDbLine
 10
81.72032669083421
 20
-8.691543407654478
 30
0.0
 11
82.11583450333421
 21
-7.036269970154478
 31
0.0
  0
LINE
  5
2AA
330
1F
100
AcDbEntity
  8
100
  6
Continuous
 62
     7
370
    30
100
AcDbLine
 10
83.96153762833421
 20
-5.395644970154478
 30
0.0
 11
82.87755325333421
 21
-3.344863720154478
 31
0.0
  0
LINE
  5
2AB
330
1F
100
AcDbEntity
  8
100
  6
Continuous
 62
     7
370
    30
100
AcDbLine
 10
84.25450637833421
 20
-7.153457470154478
 30
0.0
 11
83.96153762833421
 21
-5.395644970154478
 31
0.0
  0
LINE
  5
2AC
330
1F
100
AcDbEntity
  8
100
  6
Continuous
 62
     7
370
    30
100
AcDbLine
 10
84.16661575333421
 20
-8.911269970154478
 30
0.0
 11
84.25450637833421
 21
-7.153457470154478
 31
0.0
  0
LINE
  5
2AD
330
1F
100
AcDbEntity
  8
100
  6
Continuous
 62
     7
370
    30
100
AcDbLine
 10
83.69786575333421
 20
-11.48939497015448
 30
0.0
 11
84.16661575333421
 21
-8.911269970154478
 31
0.0
  0
LINE
  5
2AE
330
1F
100
AcDbEntity
  8
100
  6
Continuous
 62
     7
370
    30
100
AcDbLine
 10
81.76427200333421
 20
-14.88783247015448
 30
0.0
 11
83.69786575333421
 21
-11.48939497015448
 31
0.0
  0
LINE
  5
2AF
330
1F
100
AcDbEntity
  8
100
  6
Continuous
 62
     7
370
    30
100
AcDbLine
 10
78.07286575333421
 20
-18.46205122015448
 30
0.0
 11
81.76427200333421
 21
-14.88783247015448
 31
0.0
  0
LINE
  5
2B0
330
1F
100
AcDbEntity
  8
100
  6
Continuous
 62
     7
370
    30
100
AcDbLine
 10
73.85411575333421
 20
-21.39173872015448
 30
0.0
 11
78.07286575333421
 21
-18.46205122015448
 31
0.0
  0
LINE
  5
2B1
330
1F
100
AcDbEntity
  8
100
  6
Continuous
 62
     7
370
    30
100
AcDbLine
 10
68.69786575333421
 20
-23.55970747015448
 30
0.0
 11
73.85411575333421
 21
-21.39173872015448
 31
0.0
  0
LINE
  5
2B2
330
1F
100
AcDbEntity
  8
100
  6
Continuous
 62
     7
370
    30
100
AcDbLine
 10
61.13927200333421
 20
-25.61048872015448
 30
0.0
 11
68.69786575333421
 21
-23.55970747015448
 31
0.0
  0
LINE
  5
2B3
330
1F
100
AcDbEntity
  8
100
  6
Continuous
 62
     7
370
    30
100
AcDbLine
 10
54.69395950333421
 20
-26.37220747015448
 30
0.0
 11
61.13927200333421
 21
-25.61048872015448
 31
0.0
  0
LINE
  5
2B4
330
1F
100
AcDbEntity
  8
100
  6
Continuous
 62
     7
370
    30
100
AcDbLine
 10
45.26036575333421
 20
-26.54798872015448
 30
0.0
 11
54.69395950333421
 21
-26.37220747015448
 31
0.0
  0
LINE
  5
2B5
330
1F
100
AcDbEntity
  8
100
  6
Continuous
 62
     7
370
    30
100
AcDbLine
 10
39.63536575333421
 20
-26.25501997015448
 30
0.0
 11
45.26036575333421
 21
-26.54798872015448
 31
0.0
  0
LINE
  5
2B6
330
1F
100
AcDbEntity
  8
100
  6
Continuous
 62
     7
370
    30
100
AcDbLine
 10
32.54552200333421
 20
-25.02455122015448
 30
0.0
 11
39.63536575333421
 21
-26.25501997015448
 31
0.0
  0
LINE
  5
2B7
330
1F
100
AcDbEntity
  8
100
  6
Continuous
 62
     7
370
    30
100
AcDbLine
 10
26.39317825333421
 20
-23.03236372015448
 30
0.0
 11
32.54552200333421
 21
-25.02455122015448
 31
0.0
  0
LINE
  5
2B8
330
1F
100
AcDbEntity
  8
100
  6
Continuous
 62
     7
370
    30
100
AcDbLine
 10
20.41661575333421
 20
-20.16126997015448
 30
0.0
 11
26.39317825333421
 21
-23.03236372015448
 31
0.0
  0
LINE
  5
2B9
330
1F
100
AcDbEntity
  8
100
  6
Continuous
 62
     7
370
    30
100
AcDbLine
 10
18.01427200333421
 20
-17.99330122015448
 30
0.0
 11
20.41661575333421
 21
-20.16126997015448
 31
0.0
  0
LINE
  5
2BA
330
1F
100
AcDbEntity
  8
100
  6
Continuous
 62
     7
370
    30
100
AcDbLine
 10
15.27501419083421
 20
-15.13685590765448
 30
0.0
 11
18.01427200333421
 21
-17.99330122015448
 31
0.0
  0
LINE
  5
2BB
330
1F
100
AcDbEntity
  8
100
  6
Continuous
 62
     7
370
    30
100
AcDbLine
 10
14.46935012833421
 20
-13.95033247015448
 30
0.0
 11
15.27501419083421
 21
-15.13685590765448
 31
0.0
  0
LINE
  5
2BC
330
1F
100
AcDbEntity
  8
100
  6
Continuous
 62
     7
370
    30
100
AcDbLine
 10
13.50255325333421
 20
-11.82630903265448
 30
0.0
 11
14.46935012833421
 21
-13.95033247015448
 31
0.0
  0
LINE
  5
2BD
330
1F
100
AcDbEntity
  8
100
  6
Continuous
 62
     7
370
    30
100
AcDbLine
 10
13.07774856583421
 20
-9.775527782654478
 30
0.0
 11
13.50255325333421
 21
-11.82630903265448
 31
0.0
  0
LINE
  5
2BE
330
1F
100
AcDbEntity
  8
100
  6
Continuous
 62
     7
370
    30
100
AcDbLine
 10
13.06310012833421
 20
-7.944473095154478
 30
0.0
 11
13.07774856583421
 21
-9.775527782654478
 31
0.0
  0
LINE
  5
2BF
330
1F
100
AcDbEntity
  8
100
  6
Continuous
 62
     7
370
    30
100
AcDbLine
 10
13.28282669083421
 20
-6.245254345154478
 30
0.0
 11
13.06310012833421
 21
-7.944473095154478
 31
0.0
  0
LINE
  5
2C0
330
1F
100
AcDbEntity
  8
100
  6
Continuous
 62
     7
370
    30
100
AcDbLine
 10
14.08849075333421
 20
-4.253066845154478
 30
0.0
 11
13.28282669083421
 21
-6.245254345154478
 31
0.0
  0
LINE
  5
2C1
330
1F
100
AcDbEntity
  8
100
  6
Continuous
 62
     7
370
    30
100
AcDbLine
 10
15.36290481583421
 20
-2.114394970154478
 30
0.0
 11
14.08849075333421
 21
-4.253066845154478
 31
0.0
  0
LINE
  5
2C2
330
1F
100
AcDbEntity
  8
100
  6
Continuous
 62
     7
370
    30
100
AcDbLine
 10
17.13536575333421
 20
-0.1808012201544784
 30
0.0
 11
15.36290481583421
 21
-2.114394970154478
 31
0.0
  0
LINE
  5
2C3
330
1F
100
AcDbEntity
  8
100
  6
Continuous
 62
     7
370
    30
100
AcDbLine
 10
18.34273738196491
 20
0.989797359980372
 30
0.0
 11
17.13536575333421
 21
-0.1808012201544784
 31
0.0
  0
LINE
  5
2C4
330
1F
100
AcDbEntity
  8
100
  6
Continuous
 62
     7
370
    30
100
AcDbLine
 10
21.27902437545649
 20
-2.477464988115273
 30
0.0
 11
20.77448756879321
 21
-2.874675940492239
 31
0.0
  0
LINE
  5
2C5
330
1F
100
AcDbEntity
  8
100
  6
Continuous
 62
     7
370
    30
100
AcDbLine
 10
20.44602934107053
 20
2.647884264737485
 30
0.0
 11
20.17309018697816
 21
2.541435785790256
 31
0.0
  0
LINE
  5
2C6
330
1F
100
AcDbEntity
  8
100
  6
Continuous
 62
     7
370
    30
100
AcDbLine
 10
81.04649856583421
 20
-9.951309032654478
 30
0.0
 11
81.72032669083421
 21
-8.691543407654478
 31
0.0
  0
LINE
  5
2C7
330
1F
100
AcDbEntity
  8
100
  6
Continuous
 62
     7
370
    30
100
AcDbLine
 10
79.55235794083421
 20
-12.58802778265448
 30
0.0
 11
81.04649856583421
 21
-9.951309032654478
 31
0.0
  0
LINE
  5
2C8
330
1F
100
AcDbEntity
  8
100
  6
Continuous
 62
     7
370
    30
100
AcDbLine
 10
75.68517044083421
 20
-16.04505903265448
 30
0.0
 11
79.55235794083421
 21
-12.58802778265448
 31
0.0
  0
LINE
  5
2C9
330
1F
100
AcDbEntity
  8
100
  6
Continuous
 62
     7
370
    30
100
AcDbLine
 10
70.06017044083421
 20
-19.06263715765448
 30
0.0
 11
75.68517044083421
 21
-16.04505903265448
 31
0.0
  0
LINE
  5
2CA
330
1F
100
AcDbEntity
  8
100
  6
Continuous
 62
     7
370
    30
100
AcDbLine
 10
63.11681106583421
 20
-21.31849653265448
 30
0.0
 11
70.06017044083421
 21
-19.06263715765448
 31
0.0
  0
LINE
  5
2CB
330
1F
100
AcDbEntity
  8
100
  6
Continuous
 62
     7
370
    30
100
AcDbLine
 10
58.01915481583421
 20
-22.40248090765448
 30
0.0
 11
63.11681106583421
 21
-21.31849653265448
 31
0.0
  0
LINE
  5
2CC
330
1F
100
AcDbEntity
  8
100
  6
Continuous
 62
     7
370
    30
100
AcDbLine
 10
52.59923294083421
 20
-23.01771528265448
 30
0.0
 11
58.01915481583421
 21
-22.40248090765448
 31
0.0
  0
LINE
  5
2CD
330
1F
100
AcDbEntity
  8
100
  6
Continuous
 62
     7
370
    30
100
AcDbLine
 10
47.67735794083421
 20
-23.19349653265448
 30
0.0
 11
52.59923294083421
 21
-23.01771528265448
 31
0.0
  0
LINE
  5
2CE
330
1F
100
AcDbEntity
  8
100
  6
Continuous
 62
     7
370
    30
100
AcDbLine
 10
40.41173294083421
 20
-22.81263715765448
 30
0.0
 11
47.67735794083421
 21
-23.19349653265448
 31
0.0
  0
LINE
  5
2CF
330
1F
100
AcDbEntity
  8
100
  6
Continuous
 62
     7
370
    30
100
AcDbLine
 10
37.42345169083421
 20
-22.34388715765448
 30
0.0
 11
40.41173294083421
 21
-22.81263715765448
 31
0.0
  0
LINE
  5
2D0
330
1F
100
AcDbEntity
  8
100
  6
Continuous
 62
     7
370
    30
100
AcDbLine
 10
34.43517044083421
 20
-21.81654340765448
 30
0.0
 11
37.42345169083421
 21
-22.34388715765448
 31
0.0
  0
LINE
  5
2D1
330
1F
100
AcDbEntity
  8
100
  6
Continuous
 62
     7
370
    30
100
AcDbLine
 10
29.57188919083421
 20
-20.49818403265448
 30
0.0
 11
34.43517044083421
 21
-21.81654340765448
 31
0.0
  0
LINE
  5
2D2
330
1F
100
AcDbEntity
  8
100
  6
Continuous
 62
     7
370
    30
100
AcDbLine
 10
25.58751419083421
 20
-19.12123090765448
 30
0.0
 11
29.57188919083421
 21
-20.49818403265448
 31
0.0
  0
LINE
  5
2D3
330
1F
100
AcDbEntity
  8
100
  6
Continuous
 62
     7
370
    30
100
AcDbLine
 10
22.21837356583421
 20
-17.15834028265448
 30
0.0
 11
25.58751419083421
 21
-19.12123090765448
 31
0.0
  0
LINE
  5
2D4
330
1F
100
AcDbEntity
  8
100
  6
Continuous
 62
     7
370
    30
100
AcDbLine
 10
20.47520950333421
 20
-15.76673872015448
 30
0.0
 11
22.21837356583421
 21
-17.15834028265448
 31
0.0
  0
LINE
  5
2D5
330
1F
100
AcDbEntity
  8
100
  6
Continuous
 62
     7
370
    30
100
AcDbLine
 10
17.89708450333421
 20
-13.54017622015448
 30
0.0
 11
20.47520950333421
 21
-15.76673872015448
 31
0.0
  0
LINE
  5
2D6
330
1F
100
AcDbEntity
  8
100
  6
Continuous
 62
     7
370
    30
100
AcDbLine
 10
17.20860794083421
 20
-12.76380903265448
 30
0.0
 11
17.89708450333421
 21
-13.54017622015448
 31
0.0
  0
LINE
  5
2D7
330
1F
100
AcDbEntity
  8
100
  6
Continuous
 62
     7
370
    30
100
AcDbLine
 10
16.27110794083421
 20
-10.68373090765448
 30
0.0
 11
17.20860794083421
 21
-12.76380903265448
 31
0.0
  0
LINE
  5
2D8
330
1F
100
AcDbEntity
  8
100
  6
Continuous
 62
     7
370
    30
100
AcDbLine
 10
15.91954544083421
 20
-8.574355907654478
 30
0.0
 11
16.27110794083421
 21
-10.68373090765448
 31
0.0
  0
LINE
  5
2D9
330
1F
100
AcDbEntity
  8
100
  6
Continuous
 62
     7
370
    30
100
AcDbLine
 10
16.12462356583421
 20
-6.435684032654478
 30
0.0
 11
15.91954544083421
 21
-8.574355907654478
 31
0.0
  0
LINE
  5
2DA
330
1F
100
AcDbEntity
  8
100
  6
Continuous
 62
     7
370
    30
100
AcDbLine
 10
16.76915481583421
 20
-4.765762157654478
 30
0.0
 11
16.12462356583421
 21
-6.435684032654478
 31
0.0
  0
LINE
  5
2DB
330
1F
100
AcDbEntity
  8
100
  6
Continuous
 62
     7
370
    30
100
AcDbLine
 10
17.99962356583421
 20
-2.978652782654478
 30
0.0
 11
16.76915481583421
 21
-4.765762157654478
 31
0.0
  0
LINE
  5
2DC
330
1F
100
AcDbEntity
  8
100
  6
Continuous
 62
     7
370
    30
100
AcDbLine
 10
18.63550237088602
 20
-2.976375823457587
 30
0.0
 11
17.99962356583421
 21
-2.978652782654478
 31
0.0
  0
LINE
  5
2DD
330
1F
100
AcDbEntity
  8
100
  6
Continuous
 62
     7
370
    30
100
AcDbLine
 10
40.23595169083421
 20
-20.35169965765448
 30
0.0
 11
40.41173294083421
 21
-22.81263715765448
 31
0.0
  0
LINE
  5
2DE
330
1F
100
AcDbEntity
  8
100
  6
Continuous
 62
     7
370
    30
100
AcDbLine
 10
40.00157669083421
 20
-18.18373090765448
 30
0.0
 11
40.23595169083421
 21
-20.35169965765448
 31
0.0
  0
LINE
  5
2DF
330
1F
100
AcDbEntity
  8
100
  6
Continuous
 62
     7
370
    30
100
AcDbLine
 10
39.76720169083421
 20
-14.90248090765448
 30
0.0
 11
40.00157669083421
 21
-18.18373090765448
 31
0.0
  0
LINE
  5
2E0
330
1F
100
AcDbEntity
  8
100
  6
Continuous
 62
     7
370
    30
100
AcDbLine
 10
39.70860794083421
 20
-2.480605907654478
 30
0.0
 11
39.76720169083421
 21
-14.90248090765448
 31
0.0
  0
LINE
  5
2E1
330
1F
100
AcDbEntity
  8
100
  6
Continuous
 62
     7
370
    30
100
AcDbLine
 10
39.76720169083421
 20
8.242050342345522
 30
0.0
 11
39.70860794083421
 21
-2.480605907654478
 31
0.0
  0
LINE
  5
2E2
330
1F
100
AcDbEntity
  8
100
  6
Continuous
 62
     7
370
    30
100
AcDbLine
 10
39.82579544083421
 20
12.57798784234552
 30
0.0
 11
39.76720169083421
 21
8.242050342345522
 31
0.0
  0
LINE
  5
2E3
330
1F
100
AcDbEntity
  8
100
  6
Continuous
 62
     7
370
    30
100
AcDbLine
 10
40.2015453152839
 20
14.36618766503578
 30
0.0
 11
39.82579544083421
 21
12.57798784234552
 31
0.0
  0
LINE
  5
2E4
330
1F
100
AcDbEntity
  8
100
  6
Continuous
 62
     7
370
    30
100
AcDbLine
 10
36.83751419083421
 20
13.39830034234552
 30
0.0
 11
37.09077314723698
 21
14.73113858977871
 31
0.0
  0
LINE
  5
2E5
330
1F
100
AcDbEntity
  8
100
  6
Continuous
 62
     7
370
    30
100
AcDbLine
 10
36.83751419083421
 20
12.16783159234552
 30
0.0
 11
36.83751419083421
 21
13.39830034234552
 31
0.0
  0
LINE
  5
2E6
330
1F
100
AcDbEntity
  8
100
  6
Continuous
 62
     7
370
    30
100
AcDbLine
 10
36.72032669083421
 20
4.199081592345522
 30
0.0
 11
36.83751419083421
 21
12.16783159234552
 31
0.0
  0
LINE
  5
2E7
330
1F
100
AcDbEntity
  8
100
  6
Continuous
 62
     7
370
    30
100
AcDbLine
 10
36.77892044083421
 20
-5.761855907654478
 30
0.0
 11
36.72032669083421
 21
4.199081592345522
 31
0.0
  0
LINE
  5
2E8
330
1F
100
AcDbEntity
  8
100
  6
Continuous
 62
     7
370
    30
100
AcDbLine
 10
36.95470169083421
 20
-17.18763715765448
 30
0.0
 11
36.77892044083421
 21
-5.761855907654478
 31
0.0
  0
LINE
  5
2E9
330
1F
100
AcDbEntity
  8
100
  6
Continuous
 62
     7
370
    30
100
AcDbLine
 10
37.42345169083421
 20
-22.34388715765448
 30
0.0
 11
36.95470169083421
 21
-17.18763715765448
 31
0.0
  0
LINE
  5
2EA
330
1F
100
AcDbEntity
  8
100
  6
Continuous
 62
     7
370
    30
100
AcDbLine
 10
33.55626419083421
 20
-20.52748090765448
 30
0.0
 11
37.42345169083421
 21
-22.34388715765448
 31
0.0
  0
LINE
  5
2EB
330
1F
100
AcDbEntity
  8
100
  6
Continuous
 62
     7
370
    30
100
AcDbLine
 10
30.04063919083421
 20
-17.77357465765448
 30
0.0
 11
33.55626419083421
 21
-20.52748090765448
 31
0.0
  0
LINE
  5
2EC
330
1F
100
AcDbEntity
  8
100
  6
Continuous
 62
     7
370
    30
100
AcDbLine
 10
26.40782669083421
 20
-13.61341840765448
 30
0.0
 11
30.04063919083421
 21
-17.77357465765448
 31
0.0
  0
LINE
  5
2ED
330
1F
100
AcDbEntity
  8
100
  6
Continuous
 62
     7
370
    30
100
AcDbLine
 10
23.88829544083421
 20
-9.570449657654478
 30
0.0
 11
26.40782669083421
 21
-13.61341840765448
 31
0.0
  0
LINE
  5
2EE
330
1F
100
AcDbEntity
  8
100
  6
Continuous
 62
     7
370
    30
100
AcDbLine
 10
22.33556106583421
 20
-6.552871532654478
 30
0.0
 11
23.88829544083421
 21
-9.570449657654478
 31
0.0
  0
LINE
  5
2EF
330
1F
100
AcDbEntity
  8
100
  6
Continuous
 62
     7
370
    30
100
AcDbLine
 10
21.80821731583421
 20
-4.633926220154478
 30
0.0
 11
22.33556106583421
 21
-6.552871532654478
 31
0.0
  0
LINE
  5
2F0
330
1F
100
AcDbEntity
  8
100
  6
Continuous
 62
     7
370
    30
100
AcDbLine
 10
21.22227981583421
 20
-2.246230907654478
 30
0.0
 11
21.80821731583421
 21
-4.633926220154478
 31
0.0
  0
LINE
  5
2F1
330
1F
100
AcDbEntity
  8
100
  6
Continuous
 62
     7
370
    30
100
AcDbLine
 10
20.68028762833421
 20
-0.1222074701544784
 30
0.0
 11
21.22227981583421
 21
-2.246230907654478
 31
0.0
  0
LINE
  5
2F2
330
1F
100
AcDbEntity
  8
100
  6
Continuous
 62
     7
370
    30
100
AcDbLine
 10
20.47520950333421
 20
1.811386279845522
 30
0.0
 11
20.68028762833421
 21
-0.1222074701544784
 31
0.0
  0
LINE
  5
2F3
330
1F
100
AcDbEntity
  8
100
  6
Continuous
 62
     7
370
    30
100
AcDbLine
 10
20.29942825333421
 20
6.850448779845522
 30
0.0
 11
20.47520950333421
 21
1.811386279845522
 31
0.0
  0
LINE
  5
2F4
330
1F
100
AcDbEntity
  8
100
  6
Continuous
 62
     7
370
    30
100
AcDbLine
 10
20.1495399816455
 20
19.15894036282519
 30
0.0
 11
20.29942825333421
 21
6.850448779845522
 31
0.0
  0
LINE
  5
2F5
330
1F
100
AcDbEntity
  8
100
  6
Continuous
 62
     7
370
    30
100
AcDbLine
 10
19.77208450333421
 20
6.674667529845522
 30
0.0
 11
19.55820574975643
 21
19.4043239556499
 31
0.0
  0
LINE
  5
2F6
330
1F
100
AcDbEntity
  8
100
  6
Continuous
 62
     7
370
    30
100
AcDbLine
 10
19.83067825333421
 20
3.862167529845522
 30
0.0
 11
19.77208450333421
 21
6.674667529845522
 31
0.0
  0
LINE
  5
2F7
330
1F
100
AcDbEntity
  8
100
  6
Continuous
 62
     7
370
    30
100
AcDbLine
 10
20.24083450333421
 20
2.280136279845522
 30
0.0
 11
19.83067825333421
 21
3.862167529845522
 31
0.0
  0
LINE
  5
2F8
330
1F
100
AcDbEntity
  8
100
  6
Continuous
 62
     7
370
    30
100
AcDbLine
 10
20.41661575333421
 20
0.2293550298455216
 30
0.0
 11
20.24083450333421
 21
2.280136279845522
 31
0.0
  0
LINE
  5
2F9
330
1F
100
AcDbEntity
  8
100
  6
Continuous
 62
     7
370
    30
100
AcDbLine
 10
20.88536575333421
 20
-2.231582470154478
 30
0.0
 11
20.41661575333421
 21
0.2293550298455216
 31
0.0
  0
LINE
  5
2FA
330
1F
100
AcDbEntity
  8
100
  6
Continuous
 62
     7
370
    30
100
AcDbLine
 10
20.59239700333421
 20
-3.930801220154478
 30
0.0
 11
20.88536575333421
 21
-2.231582470154478
 31
0.0
  0
LINE
  5
2FB
330
1F
100
AcDbEntity
  8
100
  6
Continuous
 62
     7
370
    30
100
AcDbLine
 10
20.18224075333421
 20
-6.567519970154478
 30
0.0
 11
20.59239700333421
 21
-3.930801220154478
 31
0.0
  0
LINE
  5
2FC
330
1F
100
AcDbEntity
  8
100
  6
Continuous
 62
     7
370
    30
100
AcDbLine
 10
20.12364700333421
 20
-11.66517622015448
 30
0.0
 11
20.18224075333421
 21
-6.567519970154478
 31
0.0
  0
LINE
  5
2FD
330
1F
100
AcDbEntity
  8
100
  6
Continuous
 62
     7
370
    30
100
AcDbLine
 10
20.47520950333421
 20
-15.76673872015448
 30
0.0
 11
20.12364700333421
 21
-11.66517622015448
 31
0.0
  0
LINE
  5
2FE
330
1F
100
AcDbEntity
  8
100
  6
Continuous
 62
     7
370
    30
100
AcDbLine
 10
17.89708450333421
 20
-6.098769970154478
 30
0.0
 11
17.89708450333421
 21
-13.54017622015448
 31
0.0
  0
LINE
  5
2FF
330
1F
100
AcDbEntity
  8
100
  6
Continuous
 62
     7
370
    30
100
AcDbLine
 10
18.30724075333421
 20
-4.223769970154478
 30
0.0
 11
17.89708450333421
 21
-6.098769970154478
 31
0.0
  0
LINE
  5
300
330
1F
100
AcDbEntity
  8
100
  6
Continuous
 62
     7
370
    30
100
AcDbLine
 10
18.89317825333421
 20
-1.997207470154478
 30
0.0
 11
18.30724075333421
 21
-4.223769970154478
 31
0.0
  0
LINE
  5
301
330
1F
100
AcDbEntity
  8
100
  6
Continuous
 62
     7
370
    30
100
AcDbLine
 10
18.71739700333421
 20
-0.4151762201544784
 30
0.0
 11
18.89317825333421
 21
-1.997207470154478
 31
0.0
  0
LINE
  5
302
330
1F
100
AcDbEntity
  8
100
  6
Continuous
 62
     7
370
    30
100
AcDbLine
 10
18.24864700333421
 20
1.342636279845522
 30
0.0
 11
18.71739700333421
 21
-0.4151762201544784
 31
0.0
  0
LINE
  5
303
330
1F
100
AcDbEntity
  8
100
  6
Continuous
 62
     7
370
    30
100
AcDbLine
 10
17.42833450333421
 20
4.213730029845522
 30
0.0
 11
18.24864700333421
 21
1.342636279845522
 31
0.0
  0
LINE
  5
304
330
1F
100
AcDbEntity
  8
100
  6
Continuous
 62
     7
370
    30
100
AcDbLine
 10
17.19395950333421
 20
7.963730029845522
 30
0.0
 11
17.42833450333421
 21
4.213730029845522
 31
0.0
  0
LINE
  5
305
330
1F
100
AcDbEntity
  8
100
  6
Continuous
 62
     7
370
    30
100
AcDbLine
 10
17.07677200333421
 20
13.00279252984552
 30
0.0
 11
17.19395950333421
 21
7.963730029845522
 31
0.0
  0
LINE
  5
306
330
1F
100
AcDbEntity
  8
100
  6
Continuous
 62
     7
370
    30
100
AcDbLine
 10
17.14605364604175
 20
21.05588539922861
 30
0.0
 11
17.07677200333421
 21
13.00279252984552
 31
0.0
  0
LINE
  5
307
330
1F
100
AcDbEntity
  8
100
  6
Continuous
 62
     7
370
    30
100
AcDbLine
 10
39.75255325333421
 20
25.36607377984552
 30
0.0
 11
39.93692003950003
 21
44.37914131419807
 31
0.0
  0
LINE
  5
308
330
1F
100
AcDbEntity
  8
100
  6
Continuous
 62
     7
370
    30
100
AcDbLine
 10
39.81114700333421
 20
22.78794877984552
 30
0.0
 11
39.75255325333421
 21
25.36607377984552
 31
0.0
  0
LINE
  5
309
330
1F
100
AcDbEntity
  8
100
  6
Continuous
 62
     7
370
    30
100
AcDbLine
 10
40.22130325333421
 20
20.15123002984552
 30
0.0
 11
39.81114700333421
 21
22.78794877984552
 31
0.0
  0
LINE
  5
30A
330
1F
100
AcDbEntity
  8
100
  6
Continuous
 62
     7
370
    30
100
AcDbLine
 10
40.38243606583421
 20
18.15904252984552
 30
0.0
 11
40.22130325333421
 21
20.15123002984552
 31
0.0
  0
LINE
  5
30B
330
1F
100
AcDbEntity
  8
100
  6
Continuous
 62
     7
370
    30
100
AcDbLine
 10
37.17442825333421
 20
20.67857377984552
 30
0.0
 11
37.24767044083421
 21
18.46665971734552
 31
0.0
  0
LINE
  5
30C
330
1F
100
AcDbEntity
  8
100
  6
Continuous
 62
     7
370
    30
100
AcDbLine
 10
36.76427200333421
 20
23.60826127984552
 30
0.0
 11
37.17442825333421
 21
20.67857377984552
 31
0.0
  0
LINE
  5
30D
330
1F
100
AcDbEntity
  8
100
  6
Continuous
 62
     7
370
    30
100
AcDbLine
 10
36.76427200333421
 20
30.81529252984552
 30
0.0
 11
36.76427200333421
 21
23.60826127984552
 31
0.0
  0
LINE
  5
30E
330
1F
100
AcDbEntity
  8
100
  6
Continuous
 62
     7
370
    30
100
AcDbLine
 10
36.77463547069513
 20
44.69018569801494
 30
0.0
 11
36.76427200333421
 21
30.81529252984552
 31
0.0
  0
LINE
  5
30F
330
1F
100
AcDbEntity
  8
100
  6
Continuous
 62
     7
370
    30
100
AcDbLine
 10
16.19786575333421
 20
34.79966752984552
 30
0.0
 11
17.8249386645868
 21
35.84214292290685
 31
0.0
  0
LINE
  5
310
330
1F
100
AcDbEntity
  8
100
  6
Continuous
 62
     7
370
    30
100
AcDbLine
 10
14.61583450333421
 20
33.45201127984552
 30
0.0
 11
16.19786575333421
 21
34.79966752984552
 31
0.0
  0
LINE
  5
311
330
1F
100
AcDbEntity
  8
100
  6
Continuous
 62
     7
370
    30
100
AcDbLine
 10
13.20958450333421
 20
31.78208940484552
 30
0.0
 11
14.61583450333421
 21
33.45201127984552
 31
0.0
  0
LINE
  5
312
330
1F
100
AcDbEntity
  8
100
  6
Continuous
 62
     7
370
    30
100
AcDbLine
 10
12.27208450333421
 20
29.99498002984552
 30
0.0
 11
13.20958450333421
 21
31.78208940484552
 31
0.0
  0
LINE
  5
313
330
1F
100
AcDbEntity
  8
100
  6
Continuous
 62
     7
370
    30
100
AcDbLine
 10
12.12560012833421
 20
28.53013627984552
 30
0.0
 11
12.27208450333421
 21
29.99498002984552
 31
0.0
  0
LINE
  5
314
330
1F
100
AcDbEntity
  8
100
  6
Continuous
 62
     7
370
    30
100
AcDbLine
 10
12.21349075333421
 20
27.06529252984552
 30
0.0
 11
12.12560012833421
 21
28.53013627984552
 31
0.0
  0
LINE
  5
315
330
1F
100
AcDbEntity
  8
100
  6
Continuous
 62
     7
370
    30
100
AcDbLine
 10
13.03380325333421
 20
25.21958940484552
 30
0.0
 11
12.21349075333421
 21
27.06529252984552
 31
0.0
  0
LINE
  5
316
330
1F
100
AcDbEntity
  8
100
  6
Continuous
 62
     7
370
    30
100
AcDbLine
 10
15.46544387833421
 20
22.43638627984552
 30
0.0
 11
13.03380325333421
 21
25.21958940484552
 31
0.0
  0
LINE
  5
317
330
1F
100
AcDbEntity
  8
100
  6
Continuous
 62
     7
370
    30
100
AcDbLine
 10
18.74669387833421
 20
19.74107377984552
 30
0.0
 11
15.46544387833421
 21
22.43638627984552
 31
0.0
  0
LINE
  5
318
330
1F
100
AcDbEntity
  8
100
  6
Continuous
 62
     7
370
    30
100
AcDbLine
 10
23.05333450333421
 20
17.95396440484552
 30
0.0
 11
18.74669387833421
 21
19.74107377984552
 31
0.0
  0
LINE
  5
319
330
1F
100
AcDbEntity
  8
100
  6
Continuous
 62
     7
370
    30
100
AcDbLine
 10
28.88341262833421
 20
16.22544877984552
 30
0.0
 11
23.05333450333421
 21
17.95396440484552
 31
0.0
  0
LINE
  5
31A
330
1F
100
AcDbEntity
  8
100
  6
Continuous
 62
     7
370
    30
100
AcDbLine
 10
36.09044387833421
 20
14.84849565484552
 30
0.0
 11
28.88341262833421
 21
16.22544877984552
 31
0.0
  0
LINE
  5
31B
330
1F
100
AcDbEntity
  8
100
  6
Continuous
 62
     7
370
    30
100
AcDbLine
 10
41.33458450333421
 20
14.23326127984552
 30
0.0
 11
36.09044387833421
 21
14.84849565484552
 31
0.0
  0
LINE
  5
31C
330
1F
100
AcDbEntity
  8
100
  6
Continuous
 62
     7
370
    30
100
AcDbLine
 10
47.89708450333421
 20
13.76451127984552
 30
0.0
 11
41.33458450333421
 21
14.23326127984552
 31
0.0
  0
LINE
  5
31D
330
1F
100
AcDbEntity
  8
100
  6
Continuous
 62
     7
370
    30
100
AcDbLine
 10
55.51427200333421
 20
13.99888627984552
 30
0.0
 11
47.89708450333421
 21
13.76451127984552
 31
0.0
  0
LINE
  5
31E
330
1F
100
AcDbEntity
  8
100
  6
Continuous
 62
     7
370
    30
100
AcDbLine
 10
59.45470169083421
 20
14.29185502984552
 30
0.0
 11
55.51427200333421
 21
13.99888627984552
 31
0.0
  0
LINE
  5
31F
330
1F
100
AcDbEntity
  8
100
  6
Continuous
 62
     7
370
    30
100
AcDbLine
 10
63.58556106583421
 20
14.80455034234552
 30
0.0
 11
59.45470169083421
 21
14.29185502984552
 31
0.0
  0
LINE
  5
320
330
1F
100
AcDbEntity
  8
100
  6
Continuous
 62
     7
370
    30
100
AcDbLine
 10
68.60997512833421
 20
15.75669877984552
 30
0.0
 11
63.58556106583421
 21
14.80455034234552
 31
0.0
  0
LINE
  5
321
330
1F
100
AcDbEntity
  8
100
  6
Continuous
 62
     7
370
    30
100
AcDbLine
 10
72.69688919083421
 20
16.85533159234552
 30
0.0
 11
68.60997512833421
 21
15.75669877984552
 31
0.0
  0
LINE
  5
322
330
1F
100
AcDbEntity
  8
100
  6
Continuous
 62
     7
370
    30
100
AcDbLine
 10
76.05138137833421
 20
18.18833940484552
 30
0.0
 11
72.69688919083421
 21
16.85533159234552
 31
0.0
  0
LINE
  5
323
330
1F
100
AcDbEntity
  8
100
  6
Continuous
 62
     7
370
    30
100
AcDbLine
 10
79.12755325333421
 20
19.63853471734552
 30
0.0
 11
76.05138137833421
 21
18.18833940484552
 31
0.0
  0
LINE
  5
324
330
1F
100
AcDbEntity
  8
100
  6
Continuous
 62
     7
370
    30
100
AcDbLine
 10
81.45665481583421
 20
21.04478471734552
 30
0.0
 11
79.12755325333421
 21
19.63853471734552
 31
0.0
  0
LINE
  5
325
330
1F
100
AcDbEntity
  8
100
  6
Continuous
 62
     7
370
    30
100
AcDbLine
 10
83.50743606583421
 20
22.45103471734552
 30
0.0
 11
81.45665481583421
 21
21.04478471734552
 31
0.0
  0
LINE
  5
326
330
1F
100
AcDbEntity
  8
100
  6
Continuous
 62
     7
370
    30
100
AcDbLine
 10
84.32774856583421
 20
23.16880815484552
 30
0.0
 11
83.50743606583421
 21
22.45103471734552
 31
0.0
  0
LINE
  5
327
330
1F
100
AcDbEntity
  8
100
  6
Continuous
 62
     7
370
    30
100
AcDbLine
 10
85.42638137833421
 20
24.66294877984552
 30
0.0
 11
84.32774856583421
 21
23.16880815484552
 31
0.0
  0
LINE
  5
328
330
1F
100
AcDbEntity
  8
100
  6
Continuous
 62
     7
370
    30
100
AcDbLine
 10
86.07091262833421
 20
26.58189409234552
 30
0.0
 11
85.42638137833421
 21
24.66294877984552
 31
0.0
  0
LINE
  5
329
330
1F
100
AcDbEntity
  8
100
  6
Continuous
 62
     7
370
    30
100
AcDbLine
 10
86.29063919083421
 20
27.87095659234552
 30
0.0
 11
86.07091262833421
 21
26.58189409234552
 31
0.0
  0
LINE
  5
32A
330
1F
100
AcDbEntity
  8
100
  6
Continuous
 62
     7
370
    30
100
AcDbLine
 10
86.18810012833421
 20
29.35044877984552
 30
0.0
 11
86.29063919083421
 21
27.87095659234552
 31
0.0
  0
LINE
  5
32B
330
1F
100
AcDbEntity
  8
100
  6
Continuous
 62
     7
370
    30
100
AcDbLine
 10
85.69005325333421
 20
30.75669877984552
 30
0.0
 11
86.18810012833421
 21
29.35044877984552
 31
0.0
  0
LINE
  5
32C
330
1F
100
AcDbEntity
  8
100
  6
Continuous
 62
     7
370
    30
100
AcDbLine
 10
84.79649856583421
 20
32.07505815484552
 30
0.0
 11
85.69005325333421
 21
30.75669877984552
 31
0.0
  0
LINE
  5
32D
330
1F
100
AcDbEntity
  8
100
  6
Continuous
 62
     7
370
    30
100
AcDbLine
 10
80.28477981583421
 20
35.97154252984552
 30
0.0
 11
79.56010137272489
 21
36.42789888075717
 31
0.0
  0
LINE
  5
32E
330
1F
100
AcDbEntity
  8
100
  6
Continuous
 62
     7
370
    30
100
AcDbLine
 10
82.48204544083421
 20
34.53599565484552
 30
0.0
 11
80.28477981583421
 21
35.97154252984552
 31
0.0
  0
LINE
  5
32F
330
1F
100
AcDbEntity
  8
100
  6
Continuous
 62
     7
370
    30
100
AcDbLine
 10
80.02110794083421
 20
33.04185502984552
 30
0.0
 11
81.9332733131182
 21
31.37385413790672
 31
0.0
  0
LINE
  5
330
330
1F
100
AcDbEntity
  8
100
  6
Continuous
 62
     7
370
    30
100
AcDbLine
 10
79.36274820461875
 20
33.118415152949
 30
0.0
 11
80.02110794083421
 21
33.04185502984552
 31
0.0
  0
LINE
  5
331
330
1F
100
AcDbEntity
  8
100
  6
Continuous
 62
     7
370
    30
100
AcDbLine
 10
85.85118606583421
 20
46.28404252984552
 30
0.0
 11
86.0196207045683
 21
49.43847811404139
 31
0.0
  0
LINE
  5
332
330
1F
100
AcDbEntity
  8
100
  6
Continuous
 62
     7
370
    30
100
AcDbLine
 10
85.20665481583421
 20
35.73716752984552
 30
0.0
 11
85.85118606583421
 21
46.28404252984552
 31
0.0
  0
LINE
  5
333
330
1F
100
AcDbEntity
  8
100
  6
Continuous
 62
     7
370
    30
100
AcDbLine
 10
84.79649856583421
 20
32.07505815484552
 30
0.0
 11
85.20665481583421
 21
35.73716752984552
 31
0.0
  0
LINE
  5
334
330
1F
100
AcDbEntity
  8
100
  6
Continuous
 62
     7
370
    30
100
AcDbLine
 10
84.50352981583421
 20
31.22544877984552
 30
0.0
 11
84.79649856583421
 21
32.07505815484552
 31
0.0
  0
LINE
  5
335
330
1F
100
AcDbEntity
  8
100
  6
Continuous
 62
     7
370
    30
100
AcDbLine
 10
83.56602981583421
 20
28.11998002984552
 30
0.0
 11
84.50352981583421
 21
31.22544877984552
 31
0.0
  0
LINE
  5
336
330
1F
100
AcDbEntity
  8
100
  6
Continuous
 62
     7
370
    30
100
AcDbLine
 10
83.06798294083421
 20
27.41685502984552
 30
0.0
 11
83.56602981583421
 21
28.11998002984552
 31
0.0
  0
LINE
  5
337
330
1F
100
AcDbEntity
  8
100
  6
Continuous
 62
     7
370
    30
100
AcDbLine
 10
83.17844656788338
 20
26.69980200730454
 30
0.0
 11
83.06798294083421
 21
27.41685502984552
 31
0.0
  0
LINE
  5
338
330
1F
100
AcDbEntity
  8
100
  6
Continuous
 62
     7
370
    30
100
AcDbLine
 10
80.72423294083421
 20
26.27427690484552
 30
0.0
 11
81.02672805416265
 21
24.59408441938204
 31
0.0
  0
LINE
  5
339
330
1F
100
AcDbEntity
  8
100
  6
Continuous
 62
     7
370
    30
100
AcDbLine
 10
80.66563919083421
 20
27.27037065484552
 30
0.0
 11
80.72423294083421
 21
26.27427690484552
 31
0.0
  0
LINE
  5
33A
330
1F
100
AcDbEntity
  8
100
  6
Continuous
 62
     7
370
    30
100
AcDbLine
 10
81.04649856583421
 20
28.58873002984552
 30
0.0
 11
80.66563919083421
 21
27.27037065484552
 31
0.0
  0
LINE
  5
33B
330
1F
100
AcDbEntity
  8
100
  6
Continuous
 62
     7
370
    30
100
AcDbLine
 10
81.80821731583421
 20
30.93248002984552
 30
0.0
 11
81.04649856583421
 21
28.58873002984552
 31
0.0
  0
LINE
  5
33C
330
1F
100
AcDbEntity
  8
100
  6
Continuous
 62
     7
370
    30
100
AcDbLine
 10
82.30626419083421
 20
32.69029252984552
 30
0.0
 11
81.80821731583421
 21
30.93248002984552
 31
0.0
  0
LINE
  5
33D
330
1F
100
AcDbEntity
  8
100
  6
Continuous
 62
     7
370
    30
100
AcDbLine
 10
82.48204544083421
 20
34.53599565484552
 30
0.0
 11
82.30626419083421
 21
32.69029252984552
 31
0.0
  0
LINE
  5
33E
330
1F
100
AcDbEntity
  8
100
  6
Continuous
 62
     7
370
    30
100
AcDbLine
 10
83.35999441077848
 20
48.44512371515603
 30
0.0
 11
82.48204544083421
 21
34.53599565484552
 31
0.0
  0
LINE
  5
33F
330
1F
100
AcDbEntity
  8
100
  6
Continuous
 62
     7
370
    30
100
AcDbLine
 10
79.90392044083421
 20
41.94810502984552
 30
0.0
 11
80.042654144551
 21
47.27468762417848
 31
0.0
  0
LINE
  5
340
330
1F
100
AcDbEntity
  8
100
  6
Continuous
 62
     7
370
    30
100
AcDbLine
 10
79.37657669083421
 20
33.48130815484552
 30
0.0
 11
79.90392044083421
 21
41.94810502984552
 31
0.0
  0
LINE
  5
341
330
1F
100
AcDbEntity
  8
100
  6
Continuous
 62
     7
370
    30
100
AcDbLine
 10
78.98985794083421
 20
23.33287065484552
 30
0.0
 11
79.37657669083421
 21
33.48130815484552
 31
0.0
  0
LINE
  5
342
330
1F
100
AcDbEntity
  8
100
  6
Continuous
 62
     7
370
    30
100
AcDbLine
 10
83.65392044083421
 20
27.27037065484552
 30
0.0
 11
83.56602981583421
 21
28.11998002984552
 31
0.0
  0
LINE
  5
343
330
1F
100
AcDbEntity
  8
100
  6
Continuous
 62
     7
370
    30
100
AcDbLine
 10
82.77501419083421
 20
26.21568315484552
 30
0.0
 11
83.65392044083421
 21
27.27037065484552
 31
0.0
  0
LINE
  5
344
330
1F
100
AcDbEntity
  8
100
  6
Continuous
 62
     7
370
    30
100
AcDbLine
 10
80.75352981583421
 20
24.34068315484552
 30
0.0
 11
82.77501419083421
 21
26.21568315484552
 31
0.0
  0
LINE
  5
345
330
1F
100
AcDbEntity
  8
100
  6
Continuous
 62
     7
370
    30
100
AcDbLine
 10
77.67735794083421
 20
22.58287065484552
 30
0.0
 11
80.75352981583421
 21
24.34068315484552
 31
0.0
  0
LINE
  5
346
330
1F
100
AcDbEntity
  8
100
  6
Continuous
 62
     7
370
    30
100
AcDbLine
 10
72.22813919083421
 20
20.56138627984552
 30
0.0
 11
77.67735794083421
 21
22.58287065484552
 31
0.0
  0
LINE
  5
347
330
1F
100
AcDbEntity
  8
100
  6
Continuous
 62
     7
370
    30
100
AcDbLine
 10
67.30626419083421
 20
19.27232377984552
 30
0.0
 11
72.22813919083421
 21
20.56138627984552
 31
0.0
  0
LINE
  5
348
330
1F
100
AcDbEntity
  8
100
  6
Continuous
 62
     7
370
    30
100
AcDbLine
 10
61.71056106583421
 20
18.42271440484552
 30
0.0
 11
67.30626419083421
 21
19.27232377984552
 31
0.0
  0
LINE
  5
349
330
1F
100
AcDbEntity
  8
100
  6
Continuous
 62
     7
370
    30
100
AcDbLine
 10
56.70079544083421
 20
17.92466752984552
 30
0.0
 11
61.71056106583421
 21
18.42271440484552
 31
0.0
  0
LINE
  5
34A
330
1F
100
AcDbEntity
  8
100
  6
Continuous
 62
     7
370
    30
100
AcDbLine
 10
51.36876419083421
 20
17.76353471734552
 30
0.0
 11
56.70079544083421
 21
17.92466752984552
 31
0.0
  0
LINE
  5
34B
330
1F
100
AcDbEntity
  8
100
  6
Continuous
 62
     7
370
    30
100
AcDbLine
 10
45.61192825333421
 20
17.76353471734552
 30
0.0
 11
51.36876419083421
 21
17.76353471734552
 31
0.0
  0
LINE
  5
34C
330
1F
100
AcDbEntity
  8
100
  6
Continuous
 62
     7
370
    30
100
AcDbLine
 10
40.38243606583421
 20
18.15904252984552
 30
0.0
 11
45.61192825333421
 21
17.76353471734552
 31
0.0
  0
LINE
  5
34D
330
1F
100
AcDbEntity
  8
100
  6
Continuous
 62
     7
370
    30
100
AcDbLine
 10
37.24767044083421
 20
18.46665971734552
 30
0.0
 11
40.38243606583421
 21
18.15904252984552
 31
0.0
  0
LINE
  5
34E
330
1F
100
AcDbEntity
  8
100
  6
Continuous
 62
     7
370
    30
100
AcDbLine
 10
32.88243606583421
 20
19.14048784234552
 30
0.0
 11
37.24767044083421
 21
18.46665971734552
 31
0.0
  0
LINE
  5
34F
330
1F
100
AcDbEntity
  8
100
  6
Continuous
 62
     7
370
    30
100
AcDbLine
 10
29.77696731583421
 20
19.60923784234552
 30
0.0
 11
32.88243606583421
 21
19.14048784234552
 31
0.0
  0
LINE
  5
350
330
1F
100
AcDbEntity
  8
100
  6
Continuous
 62
     7
370
    30
100
AcDbLine
 10
27.00841262833421
 20
20.12193315484552
 30
0.0
 11
29.77696731583421
 21
19.60923784234552
 31
0.0
  0
LINE
  5
351
330
1F
100
AcDbEntity
  8
100
  6
Continuous
 62
     7
370
    30
100
AcDbLine
 10
23.90294387833421
 20
21.19126909234552
 30
0.0
 11
27.00841262833421
 21
20.12193315484552
 31
0.0
  0
LINE
  5
352
330
1F
100
AcDbEntity
  8
100
  6
Continuous
 62
     7
370
    30
100
AcDbLine
 10
21.70567825333421
 20
22.17271440484552
 30
0.0
 11
23.90294387833421
 21
21.19126909234552
 31
0.0
  0
LINE
  5
353
330
1F
100
AcDbEntity
  8
100
  6
Continuous
 62
     7
370
    30
100
AcDbLine
 10
20.07970169083421
 20
23.11021440484552
 30
0.0
 11
21.70567825333421
 21
22.17271440484552
 31
0.0
  0
LINE
  5
354
330
1F
100
AcDbEntity
  8
100
  6
Continuous
 62
     7
370
    30
100
AcDbLine
 10
19.52306106583421
 20
23.56431596734552
 30
0.0
 11
20.07970169083421
 21
23.11021440484552
 31
0.0
  0
LINE
  5
355
330
1F
100
AcDbEntity
  8
100
  6
Continuous
 62
     7
370
    30
100
AcDbLine
 10
17.15001419083421
 20
25.21958940484552
 30
0.0
 11
19.52306106583421
 21
23.56431596734552
 31
0.0
  0
LINE
  5
356
330
1F
100
AcDbEntity
  8
100
  6
Continuous
 62
     7
370
    30
100
AcDbLine
 10
16.19786575333421
 20
26.23033159234552
 30
0.0
 11
17.15001419083421
 21
25.21958940484552
 31
0.0
  0
LINE
  5
357
330
1F
100
AcDbEntity
  8
100
  6
Continuous
 62
     7
370
    30
100
AcDbLine
 10
15.43614700333421
 20
27.50474565484552
 30
0.0
 11
16.19786575333421
 21
26.23033159234552
 31
0.0
  0
LINE
  5
358
330
1F
100
AcDbEntity
  8
100
  6
Continuous
 62
     7
370
    30
100
AcDbLine
 10
15.31895950333421
 20
28.51548784234552
 30
0.0
 11
15.43614700333421
 21
27.50474565484552
 31
0.0
  0
LINE
  5
359
330
1F
100
AcDbEntity
  8
100
  6
Continuous
 62
     7
370
    30
100
AcDbLine
 10
15.40685012833421
 20
29.43833940484552
 30
0.0
 11
15.31895950333421
 21
28.51548784234552
 31
0.0
  0
LINE
  5
35A
330
1F
100
AcDbEntity
  8
100
  6
Continuous
 62
     7
370
    30
100
AcDbLine
 10
15.78770950333421
 20
30.12681596734552
 30
0.0
 11
15.40685012833421
 21
29.43833940484552
 31
0.0
  0
LINE
  5
35B
330
1F
100
AcDbEntity
  8
100
  6
Continuous
 62
     7
370
    30
100
AcDbLine
 10
16.25645950333421
 20
31.02037065484552
 30
0.0
 11
15.78770950333421
 21
30.12681596734552
 31
0.0
  0
LINE
  5
35C
330
1F
100
AcDbEntity
  8
100
  6
Continuous
 62
     7
370
    30
100
AcDbLine
 10
17.07677200333421
 20
31.82603471734552
 30
0.0
 11
16.25645950333421
 21
31.02037065484552
 31
0.0
  0
LINE
  5
35D
330
1F
100
AcDbEntity
  8
100
  6
Continuous
 62
     7
370
    30
100
AcDbLine
 10
17.60411575333421
 20
32.23619096734552
 30
0.0
 11
17.07677200333421
 21
31.82603471734552
 31
0.0
  0
LINE
  5
35E
330
1F
100
AcDbEntity
  8
100
  6
Continuous
 62
     7
370
    30
100
AcDbLine
 10
17.99331634051573
 20
32.00099490842832
 30
0.0
 11
17.60411575333421
 21
32.23619096734552
 31
0.0
  0
LINE
  5
35F
330
1F
100
AcDbEntity
  8
100
  6
Continuous
 62
     7
370
    30
100
AcDbLine
 10
19.56700637833421
 20
38.62290971734552
 30
0.0
 11
19.78095331884584
 21
38.16981582984253
 31
0.0
  0
LINE
  5
360
330
1F
100
AcDbEntity
  8
100
  6
Continuous
 62
     7
370
    30
100
AcDbLine
 10
19.42052200333421
 20
39.66294877984552
 30
0.0
 11
19.56700637833421
 21
38.62290971734552
 31
0.0
  0
LINE
  5
361
330
1F
100
AcDbEntity
  8
100
  6
Continuous
 62
     7
370
    30
100
AcDbLine
 10
19.36192825333421
 20
41.64048784234552
 30
0.0
 11
19.42052200333421
 21
39.66294877984552
 31
0.0
  0
LINE
  5
362
330
1F
100
AcDbEntity
  8
100
  6
Continuous
 62
     7
370
    30
100
AcDbLine
 10
19.24773031849953
 20
47.87533178809943
 30
0.0
 11
19.36192825333421
 21
41.64048784234552
 31
0.0
  0
LINE
  5
363
330
1F
100
AcDbEntity
  8
100
  6
Continuous
 62
     7
370
    30
100
AcDbLine
 10
19.64024856583421
 20
43.64732377984552
 30
0.0
 11
19.58709850165763
 21
47.76574414562128
 31
0.0
  0
LINE
  5
364
330
1F
100
AcDbEntity
  8
100
  6
Continuous
 62
     7
370
    30
100
AcDbLine
 10
19.77208450333421
 20
38.50572221734552
 30
0.0
 11
19.64024856583421
 21
43.64732377984552
 31
0.0
  0
LINE
  5
365
330
1F
100
AcDbEntity
  8
100
  6
Continuous
 62
     7
370
    30
100
AcDbLine
 10
19.88927200333421
 20
34.06724565484552
 30
0.0
 11
19.77208450333421
 21
38.50572221734552
 31
0.0
  0
LINE
  5
366
330
1F
100
AcDbEntity
  8
100
  6
Continuous
 62
     7
370
    30
100
AcDbLine
 10
19.88927200333421
 20
29.55552690484552
 30
0.0
 11
19.88927200333421
 21
34.06724565484552
 31
0.0
  0
LINE
  5
367
330
1F
100
AcDbEntity
  8
100
  6
Continuous
 62
     7
370
    30
100
AcDbLine
 10
20.07970169083421
 20
23.11021440484552
 30
0.0
 11
19.88927200333421
 21
29.55552690484552
 31
0.0
  0
LINE
  5
368
330
1F
100
AcDbEntity
  8
100
  6
Continuous
 62
     7
370
    30
100
AcDbLine
 10
19.66954544083421
 20
29.21861284234552
 30
0.0
 11
19.88927200333421
 21
29.55552690484552
 31
0.0
  0
LINE
  5
369
330
1F
100
AcDbEntity
  8
100
  6
Continuous
 62
     7
370
    30
100
AcDbLine
 10
19.56700637833421
 20
28.10533159234552
 30
0.0
 11
19.66954544083421
 21
29.21861284234552
 31
0.0
  0
LINE
  5
36A
330
1F
100
AcDbEntity
  8
100
  6
Continuous
 62
     7
370
    30
100
AcDbLine
 10
19.55235794083421
 20
26.06919877984552
 30
0.0
 11
19.56700637833421
 21
28.10533159234552
 31
0.0
  0
LINE
  5
36B
330
1F
100
AcDbEntity
  8
100
  6
Continuous
 62
     7
370
    30
100
AcDbLine
 10
19.52306106583421
 20
23.56431596734552
 30
0.0
 11
19.55235794083421
 21
26.06919877984552
 31
0.0
  0
LINE
  5
36C
330
1F
100
AcDbEntity
  8
100
  6
Continuous
 62
     7
370
    30
100
AcDbLine
 10
17.10606887833421
 20
27.12388627984552
 30
0.0
 11
17.15001419083421
 21
25.21958940484552
 31
0.0
  0
LINE
  5
36D
330
1F
100
AcDbEntity
  8
100
  6
Continuous
 62
     7
370
    30
100
AcDbLine
 10
17.26720169083421
 20
28.70591752984552
 30
0.0
 11
17.10606887833421
 21
27.12388627984552
 31
0.0
  0
LINE
  5
36E
330
1F
100
AcDbEntity
  8
100
  6
Continuous
 62
     7
370
    30
100
AcDbLine
 10
17.61876419083421
 20
30.69810502984552
 30
0.0
 11
17.26720169083421
 21
28.70591752984552
 31
0.0
  0
LINE
  5
36F
330
1F
100
AcDbEntity
  8
100
  6
Continuous
 62
     7
370
    30
100
AcDbLine
 10
17.99331634051573
 20
32.00099490842832
 30
0.0
 11
17.61876419083421
 21
30.69810502984552
 31
0.0
  0
LINE
  5
370
330
1F
100
AcDbEntity
  8
100
  6
Continuous
 62
     7
370
    30
100
AcDbLine
 10
18.02892044083421
 20
32.99790971734552
 30
0.0
 11
17.97032669083421
 21
31.35728471734552
 31
0.0
  0
LINE
  5
371
330
1F
100
AcDbEntity
  8
100
  6
Continuous
 62
     7
370
    30
100
AcDbLine
 10
17.97032669083421
 20
35.45884721734552
 30
0.0
 11
18.02892044083421
 21
32.99790971734552
 31
0.0
  0
LINE
  5
372
330
1F
100
AcDbEntity
  8
100
  6
Continuous
 62
     7
370
    30
100
AcDbLine
 10
17.32579544083421
 20
37.15806596734552
 30
0.0
 11
17.97032669083421
 21
35.45884721734552
 31
0.0
  0
LINE
  5
373
330
1F
100
AcDbEntity
  8
100
  6
Continuous
 62
     7
370
    30
100
AcDbLine
 10
16.79845169083421
 20
39.20884721734552
 30
0.0
 11
17.32579544083421
 21
37.15806596734552
 31
0.0
  0
LINE
  5
374
330
1F
100
AcDbEntity
  8
100
  6
Continuous
 62
     7
370
    30
100
AcDbLine
 10
16.79845169083421
 20
42.25572221734552
 30
0.0
 11
16.79845169083421
 21
39.20884721734552
 31
0.0
  0
LINE
  5
375
330
1F
100
AcDbEntity
  8
100
  6
Continuous
 62
     7
370
    30
100
AcDbLine
 10
16.84097044022248
 20
48.73037747176218
 30
0.0
 11
16.79845169083421
 21
42.25572221734552
 31
0.0
  0
LINE
  5
376
330
1F
100
AcDbEntity
  8
100
  6
Continuous
 62
     7
370
    30
100
AcDbLine
 10
10.00157669083421
 20
57.43150346734552
 30
0.0
 11
9.884389190834206
 21
58.54478471734552
 31
0.0
  0
LINE
  5
377
330
1F
100
AcDbEntity
  8
100
  6
Continuous
 62
     7
370
    30
100
AcDbLine
 10
10.29454544083421
 20
56.58189409234552
 30
0.0
 11
10.00157669083421
 21
57.43150346734552
 31
0.0
  0
LINE
  5
378
330
1F
100
AcDbEntity
  8
100
  6
Continuous
 62
     7
370
    30
100
AcDbLine
 10
11.02696731583421
 20
55.38072221734552
 30
0.0
 11
10.29454544083421
 21
56.58189409234552
 31
0.0
  0
LINE
  5
379
330
1F
100
AcDbEntity
  8
100
  6
Continuous
 62
     7
370
    30
100
AcDbLine
 10
12.40392044083421
 20
54.06236284234552
 30
0.0
 11
11.02696731583421
 21
55.38072221734552
 31
0.0
  0
LINE
  5
37A
330
1F
100
AcDbEntity
  8
100
  6
Continuous
 62
     7
370
    30
100
AcDbLine
 10
15.77306106583421
 20
52.48033159234552
 30
0.0
 11
12.40392044083421
 21
54.06236284234552
 31
0.0
  0
LINE
  5
37B
330
1F
100
AcDbEntity
  8
100
  6
Continuous
 62
     7
370
    30
100
AcDbLine
 10
21.16368606583421
 20
50.83970659234552
 30
0.0
 11
15.77306106583421
 21
52.48033159234552
 31
0.0
  0
LINE
  5
37C
330
1F
100
AcDbEntity
  8
100
  6
Continuous
 62
     7
370
    30
100
AcDbLine
 10
26.87657669083421
 20
49.60923784234552
 30
0.0
 11
21.16368606583421
 21
50.83970659234552
 31
0.0
  0
LINE
  5
37D
330
1F
100
AcDbEntity
  8
100
  6
Continuous
 62
     7
370
    30
100
AcDbLine
 10
34.52306106583421
 20
48.43736284234552
 30
0.0
 11
26.87657669083421
 21
49.60923784234552
 31
0.0
  0
LINE
  5
37E
330
1F
100
AcDbEntity
  8
100
  6
Continuous
 62
     7
370
    30
100
AcDbLine
 10
41.99376419083421
 20
47.85142534234552
 30
0.0
 11
34.52306106583421
 21
48.43736284234552
 31
0.0
  0
LINE
  5
37F
330
1F
100
AcDbEntity
  8
100
  6
Continuous
 62
     7
370
    30
100
AcDbLine
 10
48.73204544083421
 20
47.58775346734552
 30
0.0
 11
41.99376419083421
 21
47.85142534234552
 31
0.0
  0
LINE
  5
380
330
1F
100
AcDbEntity
  8
100
  6
Continuous
 62
     7
370
    30
100
AcDbLine
 10
55.49962356583421
 20
47.55845659234552
 30
0.0
 11
48.73204544083421
 21
47.58775346734552
 31
0.0
  0
LINE
  5
381
330
1F
100
AcDbEntity
  8
100
  6
Continuous
 62
     7
370
    30
100
AcDbLine
 10
63.26329544083421
 20
47.96861284234552
 30
0.0
 11
55.49962356583421
 21
47.55845659234552
 31
0.0
  0
LINE
  5
382
330
1F
100
AcDbEntity
  8
100
  6
Continuous
 62
     7
370
    30
100
AcDbLine
 10
70.96837356583421
 20
48.73033159234552
 30
0.0
 11
63.26329544083421
 21
47.96861284234552
 31
0.0
  0
LINE
  5
383
330
1F
100
AcDbEntity
  8
100
  6
Continuous
 62
     7
370
    30
100
AcDbLine
 10
77.41368606583421
 20
49.81431596734552
 30
0.0
 11
70.96837356583421
 21
48.73033159234552
 31
0.0
  0
LINE
  5
384
330
1F
100
AcDbEntity
  8
100
  6
Continuous
 62
     7
370
    30
100
AcDbLine
 10
82.51134231583421
 20
51.16197221734552
 30
0.0
 11
77.41368606583421
 21
49.81431596734552
 31
0.0
  0
LINE
  5
385
330
1F
100
AcDbEntity
  8
100
  6
Continuous
 62
     7
370
    30
100
AcDbLine
 10
86.61290481583421
 20
52.80259721734552
 30
0.0
 11
82.51134231583421
 21
51.16197221734552
 31
0.0
  0
LINE
  5
386
330
1F
100
AcDbEntity
  8
100
  6
Continuous
 62
     7
370
    30
100
AcDbLine
 10
88.54649856583421
 20
53.85728471734552
 30
0.0
 11
86.61290481583421
 21
52.80259721734552
 31
0.0
  0
LINE
  5
387
330
1F
100
AcDbEntity
  8
100
  6
Continuous
 62
     7
370
    30
100
AcDbLine
 10
89.68907669083421
 20
55.17564409234552
 30
0.0
 11
88.54649856583421
 21
53.85728471734552
 31
0.0
  0
LINE
  5
388
330
1F
100
AcDbEntity
  8
100
  6
Continuous
 62
     7
370
    30
100
AcDbLine
 10
90.19829455556507
 20
56.7581069110424
 30
0.0
 11
89.68907669083421
 21
55.17564409234552
 31
0.0
  0
LINE
  5
389
330
1F
100
AcDbEntity
  8
100
  6
Continuous
 62
     7
370
    30
100
AcDbLine
 10
88.69298294083421
 20
59.54087846734552
 30
0.0
 11
88.19493606583421
 21
59.92173784234552
 31
0.0
  0
LINE
  5
38A
330
1F
100
AcDbEntity
  8
100
  6
Continuous
 62
     7
370
    30
100
AcDbLine
 10
89.57188919083421
 20
58.60337846734552
 30
0.0
 11
88.69298294083421
 21
59.54087846734552
 31
0.0
  0
LINE
  5
38B
330
1F
100
AcDbEntity
  8
100
  6
Continuous
 62
     7
370
    30
100
AcDbLine
 10
90.21642044083421
 20
57.51939409234552
 30
0.0
 11
89.57188919083421
 21
58.60337846734552
 31
0.0
  0
LINE
  5
38C
330
1F
100
AcDbEntity
  8
100
  6
Continuous
 62
     7
370
    30
100
AcDbLine
 10
90.12852981583421
 20
53.82798784234552
 30
0.0
 11
90.21642044083421
 21
57.51939409234552
 31
0.0
  0
LINE
  5
38D
330
1F
100
AcDbEntity
  8
100
  6
Continuous
 62
     7
370
    30
100
AcDbLine
 10
90.01134231583421
 20
52.97837846734552
 30
0.0
 11
90.12852981583421
 21
53.82798784234552
 31
0.0
  0
LINE
  5
38E
330
1F
100
AcDbEntity
  8
100
  6
Continuous
 62
     7
370
    30
100
AcDbLine
 10
88.57579544083421
 20
51.22056596734552
 30
0.0
 11
90.01134231583421
 21
52.97837846734552
 31
0.0
  0
LINE
  5
38F
330
1F
100
AcDbEntity
  8
100
  6
Continuous
 62
     7
370
    30
100
AcDbLine
 10
86.31993606583421
 20
49.55064409234552
 30
0.0
 11
88.57579544083421
 21
51.22056596734552
 31
0.0
  0
LINE
  5
390
330
1F
100
AcDbEntity
  8
100
  6
Continuous
 62
     7
370
    30
100
AcDbLine
 10
81.45665481583421
 20
47.73423784234552
 30
0.0
 11
86.31993606583421
 21
49.55064409234552
 31
0.0
  0
LINE
  5
391
330
1F
100
AcDbEntity
  8
100
  6
Continuous
 62
     7
370
    30
100
AcDbLine
 10
76.76915481583421
 20
46.21080034234552
 30
0.0
 11
81.45665481583421
 21
47.73423784234552
 31
0.0
  0
LINE
  5
392
330
1F
100
AcDbEntity
  8
100
  6
Continuous
 62
     7
370
    30
100
AcDbLine
 10
72.37462356583421
 20
45.41978471734552
 30
0.0
 11
76.76915481583421
 21
46.21080034234552
 31
0.0
  0
LINE
  5
393
330
1F
100
AcDbEntity
  8
100
  6
Continuous
 62
     7
370
    30
100
AcDbLine
 10
68.06798294083421
 20
44.80455034234552
 30
0.0
 11
72.37462356583421
 21
45.41978471734552
 31
0.0
  0
LINE
  5
394
330
1F
100
AcDbEntity
  8
100
  6
Continuous
 62
     7
370
    30
100
AcDbLine
 10
63.17540481583421
 20
44.39439409234552
 30
0.0
 11
68.06798294083421
 21
44.80455034234552
 31
0.0
  0
LINE
  5
395
330
1F
100
AcDbEntity
  8
100
  6
Continuous
 62
     7
370
    30
100
AcDbLine
 10
58.25352981583421
 20
43.98423784234552
 30
0.0
 11
63.17540481583421
 21
44.39439409234552
 31
0.0
  0
LINE
  5
396
330
1F
100
AcDbEntity
  8
100
  6
Continuous
 62
     7
370
    30
100
AcDbLine
 10
51.92540481583421
 20
43.89634721734552
 30
0.0
 11
58.25352981583421
 21
43.98423784234552
 31
0.0
  0
LINE
  5
397
330
1F
100
AcDbEntity
  8
100
  6
Continuous
 62
     7
370
    30
100
AcDbLine
 10
46.53477981583421
 20
43.89634721734552
 30
0.0
 11
51.92540481583421
 21
43.89634721734552
 31
0.0
  0
LINE
  5
398
330
1F
100
AcDbEntity
  8
100
  6
Continuous
 62
     7
370
    30
100
AcDbLine
 10
40.67540481583421
 20
44.30650346734552
 30
0.0
 11
46.53477981583421
 21
43.89634721734552
 31
0.0
  0
LINE
  5
399
330
1F
100
AcDbEntity
  8
100
  6
Continuous
 62
     7
370
    30
100
AcDbLine
 10
35.31407669083421
 20
44.83384721734552
 30
0.0
 11
40.67540481583421
 21
44.30650346734552
 31
0.0
  0
LINE
  5
39A
330
1F
100
AcDbEntity
  8
100
  6
Continuous
 62
     7
370
    30
100
AcDbLine
 10
30.42149856583421
 20
45.41978471734552
 30
0.0
 11
35.31407669083421
 21
44.83384721734552
 31
0.0
  0
LINE
  5
39B
330
1F
100
AcDbEntity
  8
100
  6
Continuous
 62
     7
370
    30
100
AcDbLine
 10
26.11485794083421
 20
46.12290971734552
 30
0.0
 11
30.42149856583421
 21
45.41978471734552
 31
0.0
  0
LINE
  5
39C
330
1F
100
AcDbEntity
  8
100
  6
Continuous
 62
     7
370
    30
100
AcDbLine
 10
20.13829544083421
 20
47.58775346734552
 30
0.0
 11
26.11485794083421
 21
46.12290971734552
 31
0.0
  0
LINE
  5
39D
330
1F
100
AcDbEntity
  8
100
  6
Continuous
 62
     7
370
    30
100
AcDbLine
 10
17.32579544083421
 20
48.49595659234552
 30
0.0
 11
20.13829544083421
 21
47.58775346734552
 31
0.0
  0
LINE
  5
39E
330
1F
100
AcDbEntity
  8
100
  6
Continuous
 62
     7
370
    30
100
AcDbLine
 10
14.65977981583421
 20
49.78501909234552
 30
0.0
 11
17.32579544083421
 21
48.49595659234552
 31
0.0
  0
LINE
  5
39F
330
1F
100
AcDbEntity
  8
100
  6
Continuous
 62
     7
370
    30
100
AcDbLine
 10
12.43321731583421
 20
51.04478471734552
 30
0.0
 11
14.65977981583421
 21
49.78501909234552
 31
0.0
  0
LINE
  5
3A0
330
1F
100
AcDbEntity
  8
100
  6
Continuous
 62
     7
370
    30
100
AcDbLine
 10
10.88048294083421
 20
52.36314409234552
 30
0.0
 11
12.43321731583421
 21
51.04478471734552
 31
0.0
  0
LINE
  5
3A1
330
1F
100
AcDbEntity
  8
100
  6
Continuous
 62
     7
370
    30
100
AcDbLine
 10
9.942982940834206
 20
53.62290971734552
 30
0.0
 11
10.88048294083421
 21
52.36314409234552
 31
0.0
  0
LINE
  5
3A2
330
1F
100
AcDbEntity
  8
100
  6
Continuous
 62
     7
370
    30
100
AcDbLine
 10
9.679311065834206
 20
54.56040971734552
 30
0.0
 11
9.942982940834206
 21
53.62290971734552
 31
0.0
  0
LINE
  5
3A3
330
1F
100
AcDbEntity
  8
100
  6
Continuous
 62
     7
370
    30
100
AcDbLine
 10
9.650014190834206
 20
57.49009721734552
 30
0.0
 11
9.679311065834206
 21
54.56040971734552
 31
0.0
  0
LINE
  5
3A4
330
1F
100
AcDbEntity
  8
100
  6
Continuous
 62
     7
370
    30
100
AcDbLine
 10
9.884389190834206
 20
58.54478471734552
 30
0.0
 11
9.650014190834206
 21
57.49009721734552
 31
0.0
  0
LINE
  5
3A5
330
1F
100
AcDbEntity
  8
100
  6
Continuous
 62
     7
370
    30
100
AcDbLine
 10
10.93907669083421
 20
59.92173784234552
 30
0.0
 11
9.884389190834206
 21
58.54478471734552
 31
0.0
  0
LINE
  5
3A6
330
1F
100
AcDbEntity
  8
100
  6
Continuous
 62
     7
370
    30
100
AcDbLine
 10
11.663719648979
 20
60.36586255954009
 30
0.0
 11
10.93907669083421
 21
59.92173784234552
 31
0.0
  0
LINE
  5
3A7
330
1F
100
AcDbEntity
  8
100
  6
Continuous
 62
     7
370
    30
100
AcDbLine
 10
11.90587356583421
 20
58.66197221734552
 30
0.0
 11
11.663719648979
 21
60.36586255954009
 31
0.0
  0
LINE
  5
3A8
330
1F
100
AcDbEntity
  8
100
  6
Continuous
 62
     7
370
    30
100
AcDbLine
 10
12.52110794083421
 20
57.81236284234552
 30
0.0
 11
11.90587356583421
 21
58.66197221734552
 31
0.0
  0
LINE
  5
3A9
330
1F
100
AcDbEntity
  8
100
  6
Continuous
 62
     7
370
    30
100
AcDbLine
 10
14.19102981583421
 20
56.69908159234552
 30
0.0
 11
12.52110794083421
 21
57.81236284234552
 31
0.0
  0
LINE
  5
3AA
330
1F
100
AcDbEntity
  8
100
  6
Continuous
 62
     7
370
    30
100
AcDbLine
 10
16.50548294083421
 20
55.41001909234552
 30
0.0
 11
14.19102981583421
 21
56.69908159234552
 31
0.0
  0
LINE
  5
3AB
330
1F
100
AcDbEntity
  8
100
  6
Continuous
 62
     7
370
    30
100
AcDbLine
 10
20.10899856583421
 20
54.06236284234552
 30
0.0
 11
16.50548294083421
 21
55.41001909234552
 31
0.0
  0
LINE
  5
3AC
330
1F
100
AcDbEntity
  8
100
  6
Continuous
 62
     7
370
    30
100
AcDbLine
 10
25.03087356583421
 20
52.71470659234552
 30
0.0
 11
20.10899856583421
 21
54.06236284234552
 31
0.0
  0
LINE
  5
3AD
330
1F
100
AcDbEntity
  8
100
  6
Continuous
 62
     7
370
    30
100
AcDbLine
 10
31.71056106583421
 20
51.71861284234552
 30
0.0
 11
25.03087356583421
 21
52.71470659234552
 31
0.0
  0
LINE
  5
3AE
330
1F
100
AcDbEntity
  8
100
  6
Continuous
 62
     7
370
    30
100
AcDbLine
 10
38.41954544083421
 20
50.98619096734552
 30
0.0
 11
31.71056106583421
 21
51.71861284234552
 31
0.0
  0
LINE
  5
3AF
330
1F
100
AcDbEntity
  8
100
  6
Continuous
 62
     7
370
    30
100
AcDbLine
 10
45.15782669083421
 20
50.66392534234552
 30
0.0
 11
38.41954544083421
 21
50.98619096734552
 31
0.0
  0
LINE
  5
3B0
330
1F
100
AcDbEntity
  8
100
  6
Continuous
 62
     7
370
    30
100
AcDbLine
 10
51.07579544083421
 20
50.51744096734552
 30
0.0
 11
45.15782669083421
 21
50.66392534234552
 31
0.0
  0
LINE
  5
3B1
330
1F
100
AcDbEntity
  8
100
  6
Continuous
 62
     7
370
    30
100
AcDbLine
 10
58.89806106583421
 20
50.66392534234552
 30
0.0
 11
51.07579544083421
 21
50.51744096734552
 31
0.0
  0
LINE
  5
3B2
330
1F
100
AcDbEntity
  8
100
  6
Continuous
 62
     7
370
    30
100
AcDbLine
 10
64.78673294083421
 20
50.89830034234552
 30
0.0
 11
58.89806106583421
 21
50.66392534234552
 31
0.0
  0
LINE
  5
3B3
330
1F
100
AcDbEntity
  8
100
  6
Continuous
 62
     7
370
    30
100
AcDbLine
 10
69.50352981583421
 20
51.36705034234552
 30
0.0
 11
64.78673294083421
 21
50.89830034234552
 31
0.0
  0
LINE
  5
3B4
330
1F
100
AcDbEntity
  8
100
  6
Continuous
 62
     7
370
    30
100
AcDbLine
 10
74.57188919083421
 20
52.07017534234552
 30
0.0
 11
69.50352981583421
 21
51.36705034234552
 31
0.0
  0
LINE
  5
3B5
330
1F
100
AcDbEntity
  8
100
  6
Continuous
 62
     7
370
    30
100
AcDbLine
 10
79.84532669083421
 20
53.32994096734552
 30
0.0
 11
74.57188919083421
 21
52.07017534234552
 31
0.0
  0
LINE
  5
3B6
330
1F
100
AcDbEntity
  8
100
  6
Continuous
 62
     7
370
    30
100
AcDbLine
 10
83.03868606583421
 20
54.38462846734552
 30
0.0
 11
79.84532669083421
 21
53.32994096734552
 31
0.0
  0
LINE
  5
3B7
330
1F
100
AcDbEntity
  8
100
  6
Continuous
 62
     7
370
    30
100
AcDbLine
 10
85.67540481583421
 20
55.55650346734552
 30
0.0
 11
83.03868606583421
 21
54.38462846734552
 31
0.0
  0
LINE
  5
3B8
330
1F
100
AcDbEntity
  8
100
  6
Continuous
 62
     7
370
    30
100
AcDbLine
 10
87.60899856583421
 20
56.78697221734552
 30
0.0
 11
85.67540481583421
 21
55.55650346734552
 31
0.0
  0
LINE
  5
3B9
330
1F
100
AcDbEntity
  8
100
  6
Continuous
 62
     7
370
    30
100
AcDbLine
 10
88.51720169083421
 20
57.90025346734552
 30
0.0
 11
87.60899856583421
 21
56.78697221734552
 31
0.0
  0
LINE
  5
3BA
330
1F
100
AcDbEntity
  8
100
  6
Continuous
 62
     7
370
    30
100
AcDbLine
 10
80.78282669083421
 20
61.70884721734552
 30
0.0
 11
81.25157669083421
 21
62.32408159234552
 31
0.0
  0
LINE
  5
3BB
330
1F
100
AcDbEntity
  8
100
  6
Continuous
 62
     7
370
    30
100
AcDbLine
 10
79.31798294083421
 20
60.41978471734552
 30
0.0
 11
80.78282669083421
 21
61.70884721734552
 31
0.0
  0
LINE
  5
3BC
330
1F
100
AcDbEntity
  8
100
  6
Continuous
 62
     7
370
    30
100
AcDbLine
 10
76.35899856583421
 20
58.77915971734552
 30
0.0
 11
79.31798294083421
 21
60.41978471734552
 31
0.0
  0
LINE
  5
3BD
330
1F
100
AcDbEntity
  8
100
  6
Continuous
 62
     7
370
    30
100
AcDbLine
 10
73.57579544083421
 20
57.84165971734552
 30
0.0
 11
76.35899856583421
 21
58.77915971734552
 31
0.0
  0
LINE
  5
3BE
330
1F
100
AcDbEntity
  8
100
  6
Continuous
 62
     7
370
    30
100
AcDbLine
 10
69.44493606583421
 20
57.16783159234552
 30
0.0
 11
73.57579544083421
 21
57.84165971734552
 31
0.0
  0
LINE
  5
3BF
330
1F
100
AcDbEntity
  8
100
  6
Continuous
 62
     7
370
    30
100
AcDbLine
 10
64.49376419083421
 20
56.81626909234552
 30
0.0
 11
69.44493606583421
 21
57.16783159234552
 31
0.0
  0
LINE
  5
3C0
330
1F
100
AcDbEntity
  8
100
  6
Continuous
 62
     7
370
    30
100
AcDbLine
 10
58.22423294083421
 20
56.69908159234552
 30
0.0
 11
64.49376419083421
 21
56.81626909234552
 31
0.0
  0
LINE
  5
3C1
330
1F
100
AcDbEntity
  8
100
  6
Continuous
 62
     7
370
    30
100
AcDbLine
 10
50.31407669083421
 20
56.69908159234552
 30
0.0
 11
58.22423294083421
 21
56.69908159234552
 31
0.0
  0
LINE
  5
3C2
330
1F
100
AcDbEntity
  8
100
  6
Continuous
 62
     7
370
    30
100
AcDbLine
 10
43.31212356583421
 20
56.75767534234552
 30
0.0
 11
50.31407669083421
 21
56.69908159234552
 31
0.0
  0
LINE
  5
3C3
330
1F
100
AcDbEntity
  8
100
  6
Continuous
 62
     7
370
    30
100
AcDbLine
 10
37.51134231583421
 20
57.05064409234552
 30
0.0
 11
43.31212356583421
 21
56.75767534234552
 31
0.0
  0
LINE
  5
3C4
330
1F
100
AcDbEntity
  8
100
  6
Continuous
 62
     7
370
    30
100
AcDbLine
 10
30.50938919083421
 20
57.98814409234552
 30
0.0
 11
37.51134231583421
 21
57.05064409234552
 31
0.0
  0
LINE
  5
3C5
330
1F
100
AcDbEntity
  8
100
  6
Continuous
 62
     7
370
    30
100
AcDbLine
 10
25.06017044083421
 20
59.04283159234552
 30
0.0
 11
30.50938919083421
 21
57.98814409234552
 31
0.0
  0
LINE
  5
3C6
330
1F
100
AcDbEntity
  8
100
  6
Continuous
 62
     7
370
    30
100
AcDbLine
 10
20.31407669083421
 20
60.68345659234552
 30
0.0
 11
25.06017044083421
 21
59.04283159234552
 31
0.0
  0
LINE
  5
3C7
330
1F
100
AcDbEntity
  8
100
  6
Continuous
 62
     7
370
    30
100
AcDbLine
 10
18.73204544083421
 20
61.73814409234552
 30
0.0
 11
20.31407669083421
 21
60.68345659234552
 31
0.0
  0
LINE
  5
3C8
330
1F
100
AcDbEntity
  8
100
  6
Continuous
 62
     7
370
    30
100
AcDbLine
 10
18.17540481583421
 20
62.79283159234552
 30
0.0
 11
18.73204544083421
 21
61.73814409234552
 31
0.0
  0
LINE
  5
3C9
330
1F
100
AcDbEntity
  8
100
  6
Continuous
 62
     7
370
    30
100
AcDbLine
 10
17.97032669083421
 20
63.52525346734552
 30
0.0
 11
18.17540481583421
 21
62.79283159234552
 31
0.0
  0
LINE
  5
3CA
330
1F
100
AcDbEntity
  8
100
  6
Continuous
 62
     7
370
    30
100
AcDbLine
 10
17.06212356583421
 20
64.49205034234552
 30
0.0
 11
18.76134231583421
 21
64.99009721734552
 31
0.0
  0
LINE
  5
3CB
330
1F
100
AcDbEntity
  8
100
  6
Continuous
 62
     7
370
    30
100
AcDbLine
 10
15.65587356583421
 20
63.90611284234552
 30
0.0
 11
17.06212356583421
 21
64.49205034234552
 31
0.0
  0
LINE
  5
3CC
330
1F
100
AcDbEntity
  8
100
  6
Continuous
 62
     7
370
    30
100
AcDbLine
 10
14.16173294083421
 20
63.11509721734552
 30
0.0
 11
15.65587356583421
 21
63.90611284234552
 31
0.0
  0
LINE
  5
3CD
330
1F
100
AcDbEntity
  8
100
  6
Continuous
 62
     7
370
    30
100
AcDbLine
 10
12.72618606583421
 20
61.97251909234552
 30
0.0
 11
14.16173294083421
 21
63.11509721734552
 31
0.0
  0
LINE
  5
3CE
330
1F
100
AcDbEntity
  8
100
  6
Continuous
 62
     7
370
    30
100
AcDbLine
 10
11.52501419083421
 20
60.15611284234552
 30
0.0
 11
12.72618606583421
 21
61.97251909234552
 31
0.0
  0
LINE
  5
3CF
330
1F
100
AcDbEntity
  8
100
  6
Continuous
 62
     7
370
    30
100
AcDbLine
 10
11.52501419083421
 20
57.92955034234552
 30
0.0
 11
11.52501419083421
 21
60.15611284234552
 31
0.0
  0
LINE
  5
3D0
330
1F
100
AcDbEntity
  8
100
  6
Continuous
 62
     7
370
    30
100
AcDbLine
 10
11.67149856583421
 20
57.31431596734552
 30
0.0
 11
11.52501419083421
 21
57.92955034234552
 31
0.0
  0
LINE
  5
3D1
330
1F
100
AcDbEntity
  8
100
  6
Continuous
 62
     7
370
    30
100
AcDbLine
 10
12.16954544083421
 20
56.58189409234552
 30
0.0
 11
11.67149856583421
 21
57.31431596734552
 31
0.0
  0
LINE
  5
3D2
330
1F
100
AcDbEntity
  8
100
  6
Continuous
 62
     7
370
    30
100
AcDbLine
 10
13.42931106583421
 20
55.29283159234552
 30
0.0
 11
12.16954544083421
 21
56.58189409234552
 31
0.0
  0
LINE
  5
3D3
330
1F
100
AcDbEntity
  8
100
  6
Continuous
 62
     7
370
    30
100
AcDbLine
 10
14.80626419083421
 20
54.41392534234552
 30
0.0
 11
13.42931106583421
 21
55.29283159234552
 31
0.0
  0
LINE
  5
3D4
330
1F
100
AcDbEntity
  8
100
  6
Continuous
 62
     7
370
    30
100
AcDbLine
 10
17.23790481583421
 20
53.18345659234552
 30
0.0
 11
14.80626419083421
 21
54.41392534234552
 31
0.0
  0
LINE
  5
3D5
330
1F
100
AcDbEntity
  8
100
  6
Continuous
 62
     7
370
    30
100
AcDbLine
 10
21.42735794083421
 20
51.80650346734552
 30
0.0
 11
17.23790481583421
 21
53.18345659234552
 31
0.0
  0
LINE
  5
3D6
330
1F
100
AcDbEntity
  8
100
  6
Continuous
 62
     7
370
    30
100
AcDbLine
 10
25.58751419083421
 20
50.75181596734552
 30
0.0
 11
21.42735794083421
 21
51.80650346734552
 31
0.0
  0
LINE
  5
3D7
330
1F
100
AcDbEntity
  8
100
  6
Continuous
 62
     7
370
    30
100
AcDbLine
 10
30.18712356583421
 20
50.01939409234552
 30
0.0
 11
25.58751419083421
 21
50.75181596734552
 31
0.0
  0
LINE
  5
3D8
330
1F
100
AcDbEntity
  8
100
  6
Continuous
 62
     7
370
    30
100
AcDbLine
 10
35.07970169083421
 20
49.28697221734552
 30
0.0
 11
30.18712356583421
 21
50.01939409234552
 31
0.0
  0
LINE
  5
3D9
330
1F
100
AcDbEntity
  8
100
  6
Continuous
 62
     7
370
    30
100
AcDbLine
 10
40.64610794083421
 20
48.81822221734552
 30
0.0
 11
35.07970169083421
 21
49.28697221734552
 31
0.0
  0
LINE
  5
3DA
330
1F
100
AcDbEntity
  8
100
  6
Continuous
 62
     7
370
    30
100
AcDbLine
 10
45.21642044083421
 20
48.55455034234552
 30
0.0
 11
40.64610794083421
 21
48.81822221734552
 31
0.0
  0
LINE
  5
3DB
330
1F
100
AcDbEntity
  8
100
  6
Continuous
 62
     7
370
    30
100
AcDbLine
 10
50.34337356583421
 20
48.46665971734552
 30
0.0
 11
45.21642044083421
 21
48.55455034234552
 31
0.0
  0
LINE
  5
3DC
330
1F
100
AcDbEntity
  8
100
  6
Continuous
 62
     7
370
    30
100
AcDbLine
 10
57.14024856583421
 20
48.58384721734552
 30
0.0
 11
50.34337356583421
 21
48.46665971734552
 31
0.0
  0
LINE
  5
3DD
330
1F
100
AcDbEntity
  8
100
  6
Continuous
 62
     7
370
    30
100
AcDbLine
 10
62.82384231583421
 20
48.87681596734552
 30
0.0
 11
57.14024856583421
 21
48.58384721734552
 31
0.0
  0
LINE
  5
3DE
330
1F
100
AcDbEntity
  8
100
  6
Continuous
 62
     7
370
    30
100
AcDbLine
 10
66.42735794083421
 20
49.22837846734552
 30
0.0
 11
62.82384231583421
 21
48.87681596734552
 31
0.0
  0
LINE
  5
3DF
330
1F
100
AcDbEntity
  8
100
  6
Continuous
 62
     7
370
    30
100
AcDbLine
 10
71.49571731583421
 20
49.87290971734552
 30
0.0
 11
66.42735794083421
 21
49.22837846734552
 31
0.0
  0
LINE
  5
3E0
330
1F
100
AcDbEntity
  8
100
  6
Continuous
 62
     7
370
    30
100
AcDbLine
 10
76.12462356583421
 20
50.69322221734552
 30
0.0
 11
71.49571731583421
 21
49.87290971734552
 31
0.0
  0
LINE
  5
3E1
330
1F
100
AcDbEntity
  8
100
  6
Continuous
 62
     7
370
    30
100
AcDbLine
 10
80.16759231583421
 20
51.74790971734552
 30
0.0
 11
76.12462356583421
 21
50.69322221734552
 31
0.0
  0
LINE
  5
3E2
330
1F
100
AcDbEntity
  8
100
  6
Continuous
 62
     7
370
    30
100
AcDbLine
 10
84.18126419083421
 20
53.09556596734552
 30
0.0
 11
80.16759231583421
 21
51.74790971734552
 31
0.0
  0
LINE
  5
3E3
330
1F
100
AcDbEntity
  8
100
  6
Continuous
 62
     7
370
    30
100
AcDbLine
 10
86.93517044083421
 20
54.70689409234552
 30
0.0
 11
84.18126419083421
 21
53.09556596734552
 31
0.0
  0
LINE
  5
3E4
330
1F
100
AcDbEntity
  8
100
  6
Continuous
 62
     7
370
    30
100
AcDbLine
 10
88.25352981583421
 20
56.17173784234552
 30
0.0
 11
86.93517044083421
 21
54.70689409234552
 31
0.0
  0
LINE
  5
3E5
330
1F
100
AcDbEntity
  8
100
  6
Continuous
 62
     7
370
    30
100
AcDbLine
 10
88.51720169083421
 20
57.60728471734552
 30
0.0
 11
88.25352981583421
 21
56.17173784234552
 31
0.0
  0
LINE
  5
3E6
330
1F
100
AcDbEntity
  8
100
  6
Continuous
 62
     7
370
    30
100
AcDbLine
 10
88.51720169083421
 20
58.86705034234552
 30
0.0
 11
88.51720169083421
 21
57.60728471734552
 31
0.0
  0
LINE
  5
3E7
330
1F
100
AcDbEntity
  8
100
  6
Continuous
 62
     7
370
    30
100
AcDbLine
 10
88.19493606583421
 20
59.92173784234552
 30
0.0
 11
88.51720169083421
 21
58.86705034234552
 31
0.0
  0
LINE
  5
3E8
330
1F
100
AcDbEntity
  8
100
  6
Continuous
 62
     7
370
    30
100
AcDbLine
 10
87.19884231583421
 20
61.09361284234552
 30
0.0
 11
88.19493606583421
 21
59.92173784234552
 31
0.0
  0
LINE
  5
3E9
330
1F
100
AcDbEntity
  8
100
  6
Continuous
 62
     7
370
    30
100
AcDbLine
 10
84.62071731583421
 20
62.70494096734552
 30
0.0
 11
87.19884231583421
 21
61.09361284234552
 31
0.0
  0
LINE
  5
3EA
330
1F
100
AcDbEntity
  8
100
  6
Continuous
 62
     7
370
    30
100
AcDbLine
 10
81.73497512833421
 20
63.97935502984552
 30
0.0
 11
84.62071731583421
 21
62.70494096734552
 31
0.0
  0
LINE
  5
3EB
330
1F
100
AcDbEntity
  8
100
  6
Continuous
 62
     7
370
    30
100
AcDbLine
 10
81.73497512833421
 20
63.97935502984552
 30
0.0
 11
81.70567825333421
 21
63.04185502984552
 31
0.0
  0
LINE
  5
3EC
330
1F
100
AcDbEntity
  8
100
  6
Continuous
 62
     7
370
    30
100
AcDbLine
 10
81.99864700333421
 20
67.90513627984552
 30
0.0
 11
81.73497512833421
 21
63.97935502984552
 31
0.0
  0
LINE
  5
3ED
330
1F
100
AcDbEntity
  8
100
  6
Continuous
 62
     7
370
    30
100
AcDbLine
 10
81.94005325333421
 20
70.16099565484552
 30
0.0
 11
81.99864700333421
 21
67.90513627984552
 31
0.0
  0
LINE
  5
3EE
330
1F
100
AcDbEntity
  8
100
  6
Continuous
 62
     7
370
    30
100
AcDbLine
 10
81.38341262833421
 20
72.06529252984552
 30
0.0
 11
81.94005325333421
 21
70.16099565484552
 31
0.0
  0
LINE
  5
3EF
330
1F
100
AcDbEntity
  8
100
  6
Continuous
 62
     7
370
    30
100
AcDbLine
 10
80.38731887833421
 20
74.40904252984552
 30
0.0
 11
81.38341262833421
 21
72.06529252984552
 31
0.0
  0
LINE
  5
3F0
330
1F
100
AcDbEntity
  8
100
  6
Continuous
 62
     7
370
    30
100
AcDbLine
 10
78.89317825333421
 20
76.54771440484552
 30
0.0
 11
80.38731887833421
 21
74.40904252984552
 31
0.0
  0
LINE
  5
3F1
330
1F
100
AcDbEntity
  8
100
  6
Continuous
 62
     7
370
    30
100
AcDbLine
 10
77.19395950333421
 20
78.10044877984552
 30
0.0
 11
78.89317825333421
 21
76.54771440484552
 31
0.0
  0
LINE
  5
3F2
330
1F
100
AcDbEntity
  8
100
  6
Continuous
 62
     7
370
    30
100
AcDbLine
 10
75.49474075333421
 20
79.36021440484552
 30
0.0
 11
77.19395950333421
 21
78.10044877984552
 31
0.0
  0
LINE
  5
3F3
330
1F
100
AcDbEntity
  8
100
  6
Continuous
 62
     7
370
    30
100
AcDbLine
 10
72.68224075333421
 20
80.47349565484552
 30
0.0
 11
75.49474075333421
 21
79.36021440484552
 31
0.0
  0
LINE
  5
3F4
330
1F
100
AcDbEntity
  8
100
  6
Continuous
 62
     7
370
    30
100
AcDbLine
 10
63.57091262833421
 20
83.54966752984552
 30
0.0
 11
72.68224075333421
 21
80.47349565484552
 31
0.0
  0
LINE
  5
3F5
330
1F
100
AcDbEntity
  8
100
  6
Continuous
 62
     7
370
    30
100
AcDbLine
 10
62.34044387833421
 20
84.10630815484552
 30
0.0
 11
63.57091262833421
 21
83.54966752984552
 31
0.0
  0
LINE
  5
3F6
330
1F
100
AcDbEntity
  8
100
  6
Continuous
 62
     7
370
    30
100
AcDbLine
 10
61.57872512833421
 20
85.19029252984552
 30
0.0
 11
62.34044387833421
 21
84.10630815484552
 31
0.0
  0
LINE
  5
3F7
330
1F
100
AcDbEntity
  8
100
  6
Continuous
 62
     7
370
    30
100
AcDbLine
 10
60.69981887833421
 20
87.00669877984552
 30
0.0
 11
61.57872512833421
 21
85.19029252984552
 31
0.0
  0
LINE
  5
3F8
330
1F
100
AcDbEntity
  8
100
  6
Continuous
 62
     7
370
    30
100
AcDbLine
 10
60.49474075333421
 20
88.11998002984552
 30
0.0
 11
60.69981887833421
 21
87.00669877984552
 31
0.0
  0
LINE
  5
3F9
330
1F
100
AcDbEntity
  8
100
  6
Continuous
 62
     7
370
    30
100
AcDbLine
 10
60.45079544083421
 20
96.54283159234552
 30
0.0
 11
60.49474075333421
 21
88.11998002984552
 31
0.0
  0
LINE
  5
3FA
330
1F
100
AcDbEntity
  8
100
  6
Continuous
 62
     7
370
    30
100
AcDbLine
 10
60.42149856583421
 20
97.64146440484552
 30
0.0
 11
60.45079544083421
 21
96.54283159234552
 31
0.0
  0
LINE
  5
3FB
330
1F
100
AcDbEntity
  8
100
  6
Continuous
 62
     7
370
    30
100
AcDbLine
 10
60.17979934708421
 20
98.13951127984552
 30
0.0
 11
60.42149856583421
 21
97.64146440484552
 31
0.0
  0
LINE
  5
3FC
330
1F
100
AcDbEntity
  8
100
  6
Continuous
 62
     7
370
    30
100
AcDbLine
 10
59.71837356583421
 20
98.58628862359552
 30
0.0
 11
60.17979934708421
 21
98.13951127984552
 31
0.0
  0
LINE
  5
3FD
330
1F
100
AcDbEntity
  8
100
  6
Continuous
 62
     7
370
    30
100
AcDbLine
 10
59.22032669083421
 20
98.62290971734552
 30
0.0
 11
59.71837356583421
 21
98.58628862359552
 31
0.0
  0
LINE
  5
3FE
330
1F
100
AcDbEntity
  8
100
  6
Continuous
 62
     7
370
    30
100
AcDbLine
 10
57.72618606583421
 20
98.64488237359552
 30
0.0
 11
59.22032669083421
 21
98.62290971734552
 31
0.0
  0
LINE
  5
3FF
330
1F
100
AcDbEntity
  8
100
  6
Continuous
 62
     7
370
    30
100
AcDbLine
 10
59.36681106583421
 20
98.38853471734552
 30
0.0
 11
59.22032669083421
 21
98.62290971734552
 31
0.0
  0
LINE
  5
400
330
1F
100
AcDbEntity
  8
100
  6
Continuous
 62
     7
370
    30
100
AcDbLine
 10
59.36681106583421
 20
97.97837846734552
 30
0.0
 11
59.36681106583421
 21
98.38853471734552
 31
0.0
  0
LINE
  5
401
330
1F
100
AcDbEntity
  8
100
  6
Continuous
 62
     7
370
    30
100
AcDbLine
 10
58.57579544083421
 20
97.39244096734552
 30
0.0
 11
59.36681106583421
 21
97.97837846734552
 31
0.0
  0
LINE
  5
402
330
1F
100
AcDbEntity
  8
100
  6
Continuous
 62
     7
370
    30
100
AcDbLine
 10
56.17345169083421
 20
97.12876909234552
 30
0.0
 11
58.57579544083421
 21
97.39244096734552
 31
0.0
  0
LINE
  5
403
330
1F
100
AcDbEntity
  8
100
  6
Continuous
 62
     7
370
    30
100
AcDbLine
 10
52.27696731583421
 20
97.01158159234552
 30
0.0
 11
56.17345169083421
 21
97.12876909234552
 31
0.0
  0
LINE
  5
404
330
1F
100
AcDbEntity
  8
100
  6
Continuous
 62
     7
370
    30
100
AcDbLine
 10
48.93712356583421
 20
97.07017534234552
 30
0.0
 11
52.27696731583421
 21
97.01158159234552
 31
0.0
  0
LINE
  5
405
330
1F
100
AcDbEntity
  8
100
  6
Continuous
 62
     7
370
    30
100
AcDbLine
 10
45.80235794083421
 20
97.27525346734552
 30
0.0
 11
48.93712356583421
 21
97.07017534234552
 31
0.0
  0
LINE
  5
406
330
1F
100
AcDbEntity
  8
100
  6
Continuous
 62
     7
370
    30
100
AcDbLine
 10
43.78087356583421
 20
97.86119096734552
 30
0.0
 11
45.80235794083421
 21
97.27525346734552
 31
0.0
  0
LINE
  5
407
330
1F
100
AcDbEntity
  8
100
  6
Continuous
 62
     7
370
    30
100
AcDbLine
 10
43.07774856583421
 20
98.41783159234552
 30
0.0
 11
43.78087356583421
 21
97.86119096734552
 31
0.0
  0
LINE
  5
408
330
1F
100
AcDbEntity
  8
100
  6
Continuous
 62
     7
370
    30
100
AcDbLine
 10
43.07774856583421
 20
99.01841752984552
 30
0.0
 11
43.07774856583421
 21
98.41783159234552
 31
0.0
  0
LINE
  5
409
330
1F
100
AcDbEntity
  8
100
  6
Continuous
 62
     7
370
    30
100
AcDbLine
 10
18.55626419083421
 20
64.11119096734552
 30
0.0
 11
18.26329544083421
 21
63.87681596734552
 31
0.0
  0
LINE
  5
40A
330
1F
100
AcDbEntity
  8
100
  6
Continuous
 62
     7
370
    30
100
AcDbLine
 10
18.76134231583421
 20
64.99009721734552
 30
0.0
 11
18.55626419083421
 21
64.11119096734552
 31
0.0
  0
LINE
  5
40B
330
1F
100
AcDbEntity
  8
100
  6
Continuous
 62
     7
370
    30
100
AcDbLine
 10
18.81993606583421
 20
69.06236284234552
 30
0.0
 11
18.76134231583421
 21
64.99009721734552
 31
0.0
  0
LINE
  5
40C
330
1F
100
AcDbEntity
  8
100
  6
Continuous
 62
     7
370
    30
100
AcDbLine
 10
18.99571731583421
 20
71.46470659234552
 30
0.0
 11
18.81993606583421
 21
69.06236284234552
 31
0.0
  0
LINE
  5
40D
330
1F
100
AcDbEntity
  8
100
  6
Continuous
 62
     7
370
    30
100
AcDbLine
 10
19.52306106583421
 20
73.42759721734552
 30
0.0
 11
18.99571731583421
 21
71.46470659234552
 31
0.0
  0
LINE
  5
40E
330
1F
100
AcDbEntity
  8
100
  6
Continuous
 62
     7
370
    30
100
AcDbLine
 10
20.57774856583421
 20
75.50767534234552
 30
0.0
 11
19.52306106583421
 21
73.42759721734552
 31
0.0
  0
LINE
  5
40F
330
1F
100
AcDbEntity
  8
100
  6
Continuous
 62
     7
370
    30
100
AcDbLine
 10
21.83751419083421
 20
77.03111284234552
 30
0.0
 11
20.57774856583421
 21
75.50767534234552
 31
0.0
  0
LINE
  5
410
330
1F
100
AcDbEntity
  8
100
  6
Continuous
 62
     7
370
    30
100
AcDbLine
 10
23.21446731583421
 20
78.64244096734552
 30
0.0
 11
21.83751419083421
 21
77.03111284234552
 31
0.0
  0
LINE
  5
411
330
1F
100
AcDbEntity
  8
100
  6
Continuous
 62
     7
370
    30
100
AcDbLine
 10
24.73790481583421
 20
79.60923784234552
 30
0.0
 11
23.21446731583421
 21
78.64244096734552
 31
0.0
  0
LINE
  5
412
330
1F
100
AcDbEntity
  8
100
  6
Continuous
 62
     7
370
    30
100
AcDbLine
 10
26.52501419083421
 20
80.45884721734552
 30
0.0
 11
24.73790481583421
 21
79.60923784234552
 31
0.0
  0
LINE
  5
413
330
1F
100
AcDbEntity
  8
100
  6
Continuous
 62
     7
370
    30
100
AcDbLine
 10
28.89806106583421
 20
81.30845659234552
 30
0.0
 11
26.52501419083421
 21
80.45884721734552
 31
0.0
  0
LINE
  5
414
330
1F
100
AcDbEntity
  8
100
  6
Continuous
 62
     7
370
    30
100
AcDbLine
 10
36.19298294083421
 20
83.47642534234552
 30
0.0
 11
28.89806106583421
 21
81.30845659234552
 31
0.0
  0
LINE
  5
415
330
1F
100
AcDbEntity
  8
100
  6
Continuous
 62
     7
370
    30
100
AcDbLine
 10
38.59532669083421
 20
84.20884721734552
 30
0.0
 11
36.19298294083421
 21
83.47642534234552
 31
0.0
  0
LINE
  5
416
330
1F
100
AcDbEntity
  8
100
  6
Continuous
 62
     7
370
    30
100
AcDbLine
 10
39.79649856583421
 20
85.08775346734552
 30
0.0
 11
38.59532669083421
 21
84.20884721734552
 31
0.0
  0
LINE
  5
417
330
1F
100
AcDbEntity
  8
100
  6
Continuous
 62
     7
370
    30
100
AcDbLine
 10
40.85118606583421
 20
86.25962846734552
 30
0.0
 11
39.79649856583421
 21
85.08775346734552
 31
0.0
  0
LINE
  5
418
330
1F
100
AcDbEntity
  8
100
  6
Continuous
 62
     7
370
    30
100
AcDbLine
 10
41.64220169083421
 20
87.51939409234552
 30
0.0
 11
40.85118606583421
 21
86.25962846734552
 31
0.0
  0
LINE
  5
419
330
1F
100
AcDbEntity
  8
100
  6
Continuous
 62
     7
370
    30
100
AcDbLine
 10
41.78868606583421
 20
88.69126909234552
 30
0.0
 11
41.64220169083421
 21
87.51939409234552
 31
0.0
  0
LINE
  5
41A
330
1F
100
AcDbEntity
  8
100
  6
Continuous
 62
     7
370
    30
100
AcDbLine
 10
41.99376419083421
 20
93.37876909234552
 30
0.0
 11
41.78868606583421
 21
88.69126909234552
 31
0.0
  0
LINE
  5
41B
330
1F
100
AcDbEntity
  8
100
  6
Continuous
 62
     7
370
    30
100
AcDbLine
 10
42.14024856583421
 20
98.35923784234552
 30
0.0
 11
41.99376419083421
 21
93.37876909234552
 31
0.0
  0
LINE
  5
41C
330
1F
100
AcDbEntity
  8
100
  6
Continuous
 62
     7
370
    30
100
AcDbLine
 10
43.07774856583421
 20
99.01841752984552
 30
0.0
 11
42.14024856583421
 21
98.35923784234552
 31
0.0
  0
LINE
  5
41D
330
1F
100
AcDbEntity
  8
100
  6
Continuous
 62
     7
370
    30
100
AcDbLine
 10
43.84679153458421
 20
99.20884721734552
 30
0.0
 11
43.07774856583421
 21
99.01841752984552
 31
0.0
  0
LINE
  5
41E
330
1F
100
AcDbEntity
  8
100
  6
Continuous
 62
     7
370
    30
100
AcDbLine
 10
45.00669915854731
 20
99.20782231632433
 30
0.0
 11
43.84679153458421
 21
99.20884721734552
 31
0.0
  0
LINE
  5
41F
330
1F
100
AcDbEntity
  8
100
  6
Continuous
 62
     7
370
    30
100
AcDbLine
 10
45.11388137833421
 20
98.76939409234552
 30
0.0
 11
44.99669387833421
 21
98.96714799859552
 31
0.0
  0
LINE
  5
420
330
1F
100
AcDbEntity
  8
100
  6
Continuous
 62
     7
370
    30
100
AcDbLine
 10
45.47276809708421
 20
98.54966752984552
 30
0.0
 11
45.11388137833421
 21
98.76939409234552
 31
0.0
  0
LINE
  5
421
330
1F
100
AcDbEntity
  8
100
  6
Continuous
 62
     7
370
    30
100
AcDbLine
 10
45.89024856583421
 20
98.33726518609552
 30
0.0
 11
45.47276809708421
 21
98.54966752984552
 31
0.0
  0
LINE
  5
422
330
1F
100
AcDbEntity
  8
100
  6
Continuous
 62
     7
370
    30
100
AcDbLine
 10
47.79454544083421
 20
98.13218706109552
 30
0.0
 11
45.89024856583421
 21
98.33726518609552
 31
0.0
  0
LINE
  5
423
330
1F
100
AcDbEntity
  8
100
  6
Continuous
 62
     7
370
    30
100
AcDbLine
 10
50.85606887833421
 20
98.05894487359552
 30
0.0
 11
47.79454544083421
 21
98.13218706109552
 31
0.0
  0
LINE
  5
424
330
1F
100
AcDbEntity
  8
100
  6
Continuous
 62
     7
370
    30
100
AcDbLine
 10
53.94688919083421
 20
98.02964799859552
 30
0.0
 11
50.85606887833421
 21
98.05894487359552
 31
0.0
  0
LINE
  5
425
330
1F
100
AcDbEntity
  8
100
  6
Continuous
 62
     7
370
    30
100
AcDbLine
 10
56.70079544083421
 20
98.22007768609552
 30
0.0
 11
53.94688919083421
 21
98.02964799859552
 31
0.0
  0
LINE
  5
426
330
1F
100
AcDbEntity
  8
100
  6
Continuous
 62
     7
370
    30
100
AcDbLine
 10
57.72618606583421
 20
98.64488237359552
 30
0.0
 11
56.70079544083421
 21
98.22007768609552
 31
0.0
  0
LINE
  5
427
330
1F
100
AcDbEntity
  8
100
  6
Continuous
 62
     7
370
    30
100
AcDbLine
 10
57.70680430626682
 20
100.0512639901721
 30
0.0
 11
57.72618606583421
 21
98.64488237359552
 31
0.0
  0
LINE
  5
428
330
1F
100
AcDbEntity
  8
100
  6
Continuous
 62
     7
370
    30
100
AcDbLine
 10
45.05129127156987
 20
100.2804735713823
 30
0.0
 11
44.99669387833421
 21
98.96714799859552
 31
0.0
  0
LINE
  5
429
330
1F
100
AcDbEntity
  8
100
  6
Continuous
 62
     7
370
    30
100
AcDbLine
 10
58.61974075333421
 20
102.4388276860955
 30
0.0
 11
59.1353142458828
 21
103.0069075929314
 31
0.0
  0
LINE
  5
42A
330
1F
100
AcDbEntity
  8
100
  6
Continuous
 62
     7
370
    30
100
AcDbLine
 10
58.64903762833421
 20
100.3001558110955
 30
0.0
 11
58.61974075333421
 21
102.4388276860955
 31
0.0
  0
LINE
  5
42B
330
1F
100
AcDbEntity
  8
100
  6
Continuous
 62
     7
370
    30
100
AcDbLine
 10
57.09630325333421
 20
99.88999956109552
 30
0.0
 11
58.64903762833421
 21
100.3001558110955
 31
0.0
  0
LINE
  5
42C
330
1F
100
AcDbEntity
  8
100
  6
Continuous
 62
     7
370
    30
100
AcDbLine
 10
54.69395950333421
 20
99.71421831109552
 30
0.0
 11
57.09630325333421
 21
99.88999956109552
 31
0.0
  0
LINE
  5
42D
330
1F
100
AcDbEntity
  8
100
  6
Continuous
 62
     7
370
    30
100
AcDbLine
 10
51.73497512833421
 20
99.77281206109552
 30
0.0
 11
54.69395950333421
 21
99.71421831109552
 31
0.0
  0
LINE
  5
42E
330
1F
100
AcDbEntity
  8
100
  6
Continuous
 62
     7
370
    30
100
AcDbLine
 10
48.27794387833421
 20
99.88999956109552
 30
0.0
 11
51.73497512833421
 21
99.77281206109552
 31
0.0
  0
LINE
  5
42F
330
1F
100
AcDbEntity
  8
100
  6
Continuous
 62
     7
370
    30
100
AcDbLine
 10
45.40685012833421
 20
100.1243745610955
 30
0.0
 11
48.27794387833421
 21
99.88999956109552
 31
0.0
  0
LINE
  5
430
330
1F
100
AcDbEntity
  8
100
  6
Continuous
 62
     7
370
    30
100
AcDbLine
 10
44.20567825333421
 20
100.6517183110955
 30
0.0
 11
45.40685012833421
 21
100.1243745610955
 31
0.0
  0
LINE
  5
431
330
1F
100
AcDbEntity
  8
100
  6
Continuous
 62
     7
370
    30
100
AcDbLine
 10
44.01524856583421
 20
102.9075776860955
 30
0.0
 11
44.20567825333421
 21
100.6517183110955
 31
0.0
  0
LINE
  5
432
330
1F
100
AcDbEntity
  8
100
  6
Continuous
 62
     7
370
    30
100
AcDbLine
 10
45.90489700333421
 20
105.4271089360955
 30
0.0
 11
46.28575637833421
 21
102.3948823735955
 31
0.0
  0
LINE
  5
433
330
1F
100
AcDbEntity
  8
100
  6
Continuous
 62
     7
370
    30
100
AcDbLine
 10
59.11778762833421
 20
103.9329683110955
 30
0.0
 11
58.82190146409411
 21
102.9542331758241
 31
0.0
  0
LINE
  5
434
330
1F
100
AcDbEntity
  8
100
  6
Continuous
 62
     7
370
    30
100
AcDbLine
 10
59.23497512833421
 20
105.5149995610955
 30
0.0
 11
59.11778762833421
 21
103.9329683110955
 31
0.0
  0
LINE
  5
435
330
1F
100
AcDbEntity
  8
100
  6
Continuous
 62
     7
370
    30
100
AcDbLine
 10
37.23302200333421
 20
132.8196870610955
 30
0.0
 11
40.16270950333421
 21
133.3763276860955
 31
0.0
  0
LINE
  5
436
330
1F
100
AcDbEntity
  8
100
  6
Continuous
 62
     7
370
    30
100
AcDbLine
 10
33.27794387833421
 20
131.3841401860955
 30
0.0
 11
37.23302200333421
 21
132.8196870610955
 31
0.0
  0
LINE
  5
437
330
1F
100
AcDbEntity
  8
100
  6
Continuous
 62
     7
370
    30
100
AcDbLine
 10
31.25645950333421
 20
130.1536714360955
 30
0.0
 11
33.27794387833421
 21
131.3841401860955
 31
0.0
  0
LINE
  5
438
330
1F
100
AcDbEntity
  8
100
  6
Continuous
 62
     7
370
    30
100
AcDbLine
 10
29.93810012833421
 20
128.8060151860955
 30
0.0
 11
31.25645950333421
 21
130.1536714360955
 31
0.0
  0
LINE
  5
439
330
1F
100
AcDbEntity
  8
100
  6
Continuous
 62
     7
370
    30
100
AcDbLine
 10
28.64903762833421
 20
126.9017183110955
 30
0.0
 11
29.93810012833421
 21
128.8060151860955
 31
0.0
  0
LINE
  5
43A
330
1F
100
AcDbEntity
  8
100
  6
Continuous
 62
     7
370
    30
100
AcDbLine
 10
27.38927200333421
 20
124.5872651860955
 30
0.0
 11
28.64903762833421
 21
126.9017183110955
 31
0.0
  0
LINE
  5
43B
330
1F
100
AcDbEntity
  8
100
  6
Continuous
 62
     7
370
    30
100
AcDbLine
 10
26.53966262833421
 20
121.2474214360955
 30
0.0
 11
27.38927200333421
 21
124.5872651860955
 31
0.0
  0
LINE
  5
43C
330
1F
100
AcDbEntity
  8
100
  6
Continuous
 62
     7
370
    30
100
AcDbLine
 10
26.21739700333421
 20
117.7610933110955
 30
0.0
 11
26.53966262833421
 21
121.2474214360955
 31
0.0
  0
LINE
  5
43D
330
1F
100
AcDbEntity
  8
100
  6
Continuous
 62
     7
370
    30
100
AcDbLine
 10
26.56895950333421
 20
114.7142183110955
 30
0.0
 11
26.21739700333421
 21
117.7610933110955
 31
0.0
  0
LINE
  5
43E
330
1F
100
AcDbEntity
  8
100
  6
Continuous
 62
     7
370
    30
100
AcDbLine
 10
27.59435012833421
 20
111.8138276860955
 30
0.0
 11
26.56895950333421
 21
114.7142183110955
 31
0.0
  0
LINE
  5
43F
330
1F
100
AcDbEntity
  8
100
  6
Continuous
 62
     7
370
    30
100
AcDbLine
 10
28.45860794083421
 20
110.2757417485955
 30
0.0
 11
27.59435012833421
 21
111.8138276860955
 31
0.0
  0
LINE
  5
440
330
1F
100
AcDbEntity
  8
100
  6
Continuous
 62
     7
370
    30
100
AcDbLine
 10
30.21642044083421
 20
108.0345308110955
 30
0.0
 11
28.45860794083421
 21
110.2757417485955
 31
0.0
  0
LINE
  5
441
330
1F
100
AcDbEntity
  8
100
  6
Continuous
 62
     7
370
    30
100
AcDbLine
 10
31.90170955662665
 20
106.0619637399793
 30
0.0
 11
30.21642044083421
 21
108.0345308110955
 31
0.0
  0
LINE
  5
442
330
1F
100
AcDbEntity
  8
100
  6
Continuous
 62
     7
370
    30
100
AcDbLine
 10
60.52403762833421
 20
106.0130464360955
 30
0.0
 11
59.20567825333421
 21
106.0423433110955
 31
0.0
  0
LINE
  5
443
330
1F
100
AcDbEntity
  8
100
  6
Continuous
 62
     7
370
    30
100
AcDbLine
 10
65.56310012833421
 20
106.5696870610955
 30
0.0
 11
60.52403762833421
 21
106.0130464360955
 31
0.0
  0
LINE
  5
444
330
1F
100
AcDbEntity
  8
100
  6
Continuous
 62
     7
370
    30
100
AcDbLine
 10
68.43419387833421
 20
107.3314058110955
 30
0.0
 11
65.56310012833421
 21
106.5696870610955
 31
0.0
  0
LINE
  5
445
330
1F
100
AcDbEntity
  8
100
  6
Continuous
 62
     7
370
    30
100
AcDbLine
 10
70.95372512833421
 20
108.9720308110955
 30
0.0
 11
68.43419387833421
 21
107.3314058110955
 31
0.0
  0
LINE
  5
446
330
1F
100
AcDbEntity
  8
100
  6
Continuous
 62
     7
370
    30
100
AcDbLine
 10
72.91661575333421
 20
110.6419526860955
 30
0.0
 11
70.95372512833421
 21
108.9720308110955
 31
0.0
  0
LINE
  5
447
330
1F
100
AcDbEntity
  8
100
  6
Continuous
 62
     7
370
    30
100
AcDbLine
 10
74.64513137833421
 20
113.7474214360955
 30
0.0
 11
72.91661575333421
 21
110.6419526860955
 31
0.0
  0
LINE
  5
448
330
1F
100
AcDbEntity
  8
100
  6
Continuous
 62
     7
370
    30
100
AcDbLine
 10
75.20177200333421
 20
117.2923433110955
 30
0.0
 11
74.64513137833421
 21
113.7474214360955
 31
0.0
  0
LINE
  5
449
330
1F
100
AcDbEntity
  8
100
  6
Continuous
 62
     7
370
    30
100
AcDbLine
 10
75.02599075333421
 20
119.9583589360955
 30
0.0
 11
75.20177200333421
 21
117.2923433110955
 31
0.0
  0
LINE
  5
44A
330
1F
100
AcDbEntity
  8
100
  6
Continuous
 62
     7
370
    30
100
AcDbLine
 10
73.97130325333421
 20
124.4407808110955
 30
0.0
 11
75.02599075333421
 21
119.9583589360955
 31
0.0
  0
LINE
  5
44B
330
1F
100
AcDbEntity
  8
100
  6
Continuous
 62
     7
370
    30
100
AcDbLine
 10
71.42247512833421
 20
127.2825776860955
 30
0.0
 11
73.97130325333421
 21
124.4407808110955
 31
0.0
  0
LINE
  5
44C
330
1F
100
AcDbEntity
  8
100
  6
Continuous
 62
     7
370
    30
100
AcDbLine
 10
68.63927200333421
 20
128.6888276860955
 30
0.0
 11
71.42247512833421
 21
127.2825776860955
 31
0.0
  0
LINE
  5
44D
330
1F
100
AcDbEntity
  8
100
  6
Continuous
 62
     7
370
    30
100
AcDbLine
 10
65.68028762833421
 20
129.6263276860955
 30
0.0
 11
68.63927200333421
 21
128.6888276860955
 31
0.0
  0
LINE
  5
44E
330
1F
100
AcDbEntity
  8
100
  6
Continuous
 62
     7
370
    30
100
AcDbLine
 10
60.02599075333421
 20
103.1566011235955
 30
0.0
 11
58.28282669083421
 21
102.8636323735955
 31
0.0
  0
LINE
  5
44F
330
1F
100
AcDbEntity
  8
100
  6
Continuous
 62
     7
370
    30
100
AcDbLine
 10
62.83849075333421
 20
103.4935151860955
 30
0.0
 11
60.02599075333421
 21
103.1566011235955
 31
0.0
  0
LINE
  5
450
330
1F
100
AcDbEntity
  8
100
  6
Continuous
 62
     7
370
    30
100
AcDbLine
 10
65.32872512833421
 20
103.9036714360955
 30
0.0
 11
62.83849075333421
 21
103.4935151860955
 31
0.0
  0
LINE
  5
451
330
1F
100
AcDbEntity
  8
100
  6
Continuous
 62
     7
370
    30
100
AcDbLine
 10
68.22911575333421
 20
104.5774995610955
 30
0.0
 11
65.32872512833421
 21
103.9036714360955
 31
0.0
  0
LINE
  5
452
330
1F
100
AcDbEntity
  8
100
  6
Continuous
 62
     7
370
    30
100
AcDbLine
 10
70.48497512833421
 20
105.6028901860955
 30
0.0
 11
68.22911575333421
 21
104.5774995610955
 31
0.0
  0
LINE
  5
453
330
1F
100
AcDbEntity
  8
100
  6
Continuous
 62
     7
370
    30
100
AcDbLine
 10
72.78477981583421
 20
107.3021089360955
 30
0.0
 11
70.48497512833421
 21
105.6028901860955
 31
0.0
  0
LINE
  5
454
330
1F
100
AcDbEntity
  8
100
  6
Continuous
 62
     7
370
    30
100
AcDbLine
 10
74.52794387833421
 20
109.2357026860955
 30
0.0
 11
72.78477981583421
 21
107.3021089360955
 31
0.0
  0
LINE
  5
455
330
1F
100
AcDbEntity
  8
100
  6
Continuous
 62
     7
370
    30
100
AcDbLine
 10
75.75841262833421
 20
111.0814058110955
 30
0.0
 11
74.52794387833421
 21
109.2357026860955
 31
0.0
  0
LINE
  5
456
330
1F
100
AcDbEntity
  8
100
  6
Continuous
 62
     7
370
    30
100
AcDbLine
 10
76.76915481583421
 20
113.4251558110955
 30
0.0
 11
75.75841262833421
 21
111.0814058110955
 31
0.0
  0
LINE
  5
457
330
1F
100
AcDbEntity
  8
100
  6
Continuous
 62
     7
370
    30
100
AcDbLine
 10
77.35509231583421
 20
115.3733979985955
 30
0.0
 11
76.76915481583421
 21
113.4251558110955
 31
0.0
  0
LINE
  5
458
330
1F
100
AcDbEntity
  8
100
  6
Continuous
 62
     7
370
    30
100
AcDbLine
 10
77.66270950333421
 20
117.6292573735955
 30
0.0
 11
77.35509231583421
 21
115.3733979985955
 31
0.0
  0
LINE
  5
459
330
1F
100
AcDbEntity
  8
100
  6
Continuous
 62
     7
370
    30
100
AcDbLine
 10
77.56017044083421
 20
119.8118745610955
 30
0.0
 11
77.66270950333421
 21
117.6292573735955
 31
0.0
  0
LINE
  5
45A
330
1F
100
AcDbEntity
  8
100
  6
Continuous
 62
     7
370
    30
100
AcDbLine
 10
77.09142044083421
 20
122.1995698735955
 30
0.0
 11
77.56017044083421
 21
119.8118745610955
 31
0.0
  0
LINE
  5
45B
330
1F
100
AcDbEntity
  8
100
  6
Continuous
 62
     7
370
    30
100
AcDbLine
 10
76.75450637833421
 20
123.4739839360955
 30
0.0
 11
77.09142044083421
 21
122.1995698735955
 31
0.0
  0
LINE
  5
45C
330
1F
100
AcDbEntity
  8
100
  6
Continuous
 62
     7
370
    30
100
AcDbLine
 10
76.12462356583421
 20
125.3196870610955
 30
0.0
 11
76.75450637833421
 21
123.4739839360955
 31
0.0
  0
LINE
  5
45D
330
1F
100
AcDbEntity
  8
100
  6
Continuous
 62
     7
370
    30
100
AcDbLine
 10
74.82091262833421
 20
127.1800386235955
 30
0.0
 11
76.12462356583421
 21
125.3196870610955
 31
0.0
  0
LINE
  5
45E
330
1F
100
AcDbEntity
  8
100
  6
Continuous
 62
     7
370
    30
100
AcDbLine
 10
73.31212356583421
 20
128.8206636235955
 30
0.0
 11
74.82091262833421
 21
127.1800386235955
 31
0.0
  0
LINE
  5
45F
330
1F
100
AcDbEntity
  8
100
  6
Continuous
 62
     7
370
    30
100
AcDbLine
 10
71.30528762833421
 20
130.4466401860955
 30
0.0
 11
73.31212356583421
 21
128.8206636235955
 31
0.0
  0
LINE
  5
460
330
1F
100
AcDbEntity
  8
100
  6
Continuous
 62
     7
370
    30
100
AcDbLine
 10
68.44884231583421
 20
131.8382417485955
 30
0.0
 11
71.30528762833421
 21
130.4466401860955
 31
0.0
  0
LINE
  5
461
330
1F
100
AcDbEntity
  8
100
  6
Continuous
 62
     7
370
    30
100
AcDbLine
 10
64.44981887833421
 20
133.0833589360955
 30
0.0
 11
68.44884231583421
 21
131.8382417485955
 31
0.0
  0
LINE
  5
462
330
1F
100
AcDbEntity
  8
100
  6
Continuous
 62
     7
370
    30
100
AcDbLine
 10
58.79552200333421
 20
134.1526948735955
 30
0.0
 11
64.44981887833421
 21
133.0833589360955
 31
0.0
  0
LINE
  5
463
330
1F
100
AcDbEntity
  8
100
  6
Continuous
 62
     7
370
    30
100
AcDbLine
 10
54.06407669083421
 20
134.5482026860955
 30
0.0
 11
58.79552200333421
 21
134.1526948735955
 31
0.0
  0
LINE
  5
464
330
1F
100
AcDbEntity
  8
100
  6
Continuous
 62
     7
370
    30
100
AcDbLine
 10
49.84532669083421
 20
134.6067964360955
 30
0.0
 11
54.06407669083421
 21
134.5482026860955
 31
0.0
  0
LINE
  5
465
330
1F
100
AcDbEntity
  8
100
  6
Continuous
 62
     7
370
    30
100
AcDbLine
 10
45.83165481583421
 20
134.5189058110955
 30
0.0
 11
49.84532669083421
 21
134.6067964360955
 31
0.0
  0
LINE
  5
466
330
1F
100
AcDbEntity
  8
100
  6
Continuous
 62
     7
370
    30
100
AcDbLine
 10
42.62364700333421
 20
134.2552339360955
 30
0.0
 11
45.83165481583421
 21
134.5189058110955
 31
0.0
  0
LINE
  5
467
330
1F
100
AcDbEntity
  8
100
  6
Continuous
 62
     7
370
    30
100
AcDbLine
 10
39.44493606583421
 20
133.8890229985955
 30
0.0
 11
42.62364700333421
 21
134.2552339360955
 31
0.0
  0
LINE
  5
468
330
1F
100
AcDbEntity
  8
100
  6
Continuous
 62
     7
370
    30
100
AcDbLine
 10
36.94005325333421
 20
133.5374604985955
 30
0.0
 11
39.44493606583421
 21
133.8890229985955
 31
0.0
  0
LINE
  5
469
330
1F
100
AcDbEntity
  8
100
  6
Continuous
 62
     7
370
    30
100
AcDbLine
 10
34.53770950333421
 20
132.8343354985955
 30
0.0
 11
36.94005325333421
 21
133.5374604985955
 31
0.0
  0
LINE
  5
46A
330
1F
100
AcDbEntity
  8
100
  6
Continuous
 62
     7
370
    30
100
AcDbLine
 10
32.10606887833421
 20
131.8968354985955
 30
0.0
 11
34.53770950333421
 21
132.8343354985955
 31
0.0
  0
LINE
  5
46B
330
1F
100
AcDbEntity
  8
100
  6
Continuous
 62
     7
370
    30
100
AcDbLine
 10
30.48009231583421
 20
130.8860933110955
 30
0.0
 11
32.10606887833421
 21
131.8968354985955
 31
0.0
  0
LINE
  5
46C
330
1F
100
AcDbEntity
  8
100
  6
Continuous
 62
     7
370
    30
100
AcDbLine
 10
28.94200637833421
 20
129.3919526860955
 30
0.0
 11
30.48009231583421
 21
130.8860933110955
 31
0.0
  0
LINE
  5
46D
330
1F
100
AcDbEntity
  8
100
  6
Continuous
 62
     7
370
    30
100
AcDbLine
 10
27.63829544083421
 20
127.8978120610955
 30
0.0
 11
28.94200637833421
 21
129.3919526860955
 31
0.0
  0
LINE
  5
46E
330
1F
100
AcDbEntity
  8
100
  6
Continuous
 62
     7
370
    30
100
AcDbLine
 10
26.64220169083421
 20
126.2571870610955
 30
0.0
 11
27.63829544083421
 21
127.8978120610955
 31
0.0
  0
LINE
  5
46F
330
1F
100
AcDbEntity
  8
100
  6
Continuous
 62
     7
370
    30
100
AcDbLine
 10
25.57286575333421
 20
124.3089448735955
 30
0.0
 11
26.64220169083421
 21
126.2571870610955
 31
0.0
  0
LINE
  5
470
330
1F
100
AcDbEntity
  8
100
  6
Continuous
 62
     7
370
    30
100
AcDbLine
 10
25.01622512833421
 20
122.7269136235955
 30
0.0
 11
25.57286575333421
 21
124.3089448735955
 31
0.0
  0
LINE
  5
471
330
1F
100
AcDbEntity
  8
100
  6
Continuous
 62
     7
370
    30
100
AcDbLine
 10
24.73790481583421
 20
121.2474214360955
 30
0.0
 11
25.01622512833421
 21
122.7269136235955
 31
0.0
  0
LINE
  5
472
330
1F
100
AcDbEntity
  8
100
  6
Continuous
 62
     7
370
    30
100
AcDbLine
 10
24.62071731583421
 20
119.3577729985955
 30
0.0
 11
24.73790481583421
 21
121.2474214360955
 31
0.0
  0
LINE
  5
473
330
1F
100
AcDbEntity
  8
100
  6
Continuous
 62
     7
370
    30
100
AcDbLine
 10
24.70860794083421
 20
117.7757417485955
 30
0.0
 11
24.62071731583421
 21
119.3577729985955
 31
0.0
  0
LINE
  5
474
330
1F
100
AcDbEntity
  8
100
  6
Continuous
 62
     7
370
    30
100
AcDbLine
 10
24.91368606583421
 20
116.0472261235955
 30
0.0
 11
24.70860794083421
 21
117.7757417485955
 31
0.0
  0
LINE
  5
475
330
1F
100
AcDbEntity
  8
100
  6
Continuous
 62
     7
370
    30
100
AcDbLine
 10
25.26524856583421
 20
114.6556245610955
 30
0.0
 11
24.91368606583421
 21
116.0472261235955
 31
0.0
  0
LINE
  5
476
330
1F
100
AcDbEntity
  8
100
  6
Continuous
 62
     7
370
    30
100
AcDbLine
 10
25.79259231583421
 20
113.2786714360955
 30
0.0
 11
25.26524856583421
 21
114.6556245610955
 31
0.0
  0
LINE
  5
477
330
1F
100
AcDbEntity
  8
100
  6
Continuous
 62
     7
370
    30
100
AcDbLine
 10
26.48106887833421
 20
111.6233979985955
 30
0.0
 11
25.79259231583421
 21
113.2786714360955
 31
0.0
  0
LINE
  5
478
330
1F
100
AcDbEntity
  8
100
  6
Continuous
 62
     7
370
    30
100
AcDbLine
 10
27.22813919083421
 20
110.3782808110955
 30
0.0
 11
26.48106887833421
 21
111.6233979985955
 31
0.0
  0
LINE
  5
479
330
1F
100
AcDbEntity
  8
100
  6
Continuous
 62
     7
370
    30
100
AcDbLine
 10
28.44395950333421
 20
109.0159761235955
 30
0.0
 11
27.22813919083421
 21
110.3782808110955
 31
0.0
  0
LINE
  5
47A
330
1F
100
AcDbEntity
  8
100
  6
Continuous
 62
     7
370
    30
100
AcDbLine
 10
29.65977981583421
 20
107.6976167485955
 30
0.0
 11
28.44395950333421
 21
109.0159761235955
 31
0.0
  0
LINE
  5
47B
330
1F
100
AcDbEntity
  8
100
  6
Continuous
 62
     7
370
    30
100
AcDbLine
 10
31.16856887833421
 20
106.4817964360955
 30
0.0
 11
29.65977981583421
 21
107.6976167485955
 31
0.0
  0
LINE
  5
47C
330
1F
100
AcDbEntity
  8
100
  6
Continuous
 62
     7
370
    30
100
AcDbLine
 10
32.88243606583421
 20
105.5003511235955
 30
0.0
 11
31.16856887833421
 21
106.4817964360955
 31
0.0
  0
LINE
  5
47D
330
1F
100
AcDbEntity
  8
100
  6
Continuous
 62
     7
370
    30
100
AcDbLine
 10
35.40196731583421
 20
104.5482026860955
 30
0.0
 11
32.88243606583421
 21
105.5003511235955
 31
0.0
  0
LINE
  5
47E
330
1F
100
AcDbEntity
  8
100
  6
Continuous
 62
     7
370
    30
100
AcDbLine
 10
39.23985794083421
 20
103.6546479985955
 30
0.0
 11
35.40196731583421
 21
104.5482026860955
 31
0.0
  0
LINE
  5
47F
330
1F
100
AcDbEntity
  8
100
  6
Continuous
 62
     7
370
    30
100
AcDbLine
 10
42.69688919083421
 20
103.0687104985955
 30
0.0
 11
39.23985794083421
 21
103.6546479985955
 31
0.0
  0
LINE
  5
480
330
1F
100
AcDbEntity
  8
100
  6
Continuous
 62
     7
370
    30
100
AcDbLine
 10
44.01524856583421
 20
102.9075776860955
 30
0.0
 11
42.69688919083421
 21
103.0687104985955
 31
0.0
  0
LINE
  5
481
330
1F
100
AcDbEntity
  8
100
  6
Continuous
 62
     7
370
    30
100
AcDbLine
 10
46.28575637833421
 20
102.3948823735955
 30
0.0
 11
44.01524856583421
 21
102.9075776860955
 31
0.0
  0
LINE
  5
482
330
1F
100
AcDbEntity
  8
100
  6
Continuous
 62
     7
370
    30
100
AcDbLine
 10
54.70860794083421
 20
107.9173433110955
 30
0.0
 11
54.86974075333421
 21
107.9466401860955
 31
0.0
  0
LINE
  5
483
330
1F
100
AcDbEntity
  8
100
  6
Continuous
 62
     7
370
    30
100
AcDbLine
 10
53.71251419083421
 20
107.8587495610955
 30
0.0
 11
54.70860794083421
 21
107.9173433110955
 31
0.0
  0
LINE
  5
484
330
1F
100
AcDbEntity
  8
100
  6
Continuous
 62
     7
370
    30
100
AcDbLine
 10
52.85558059708421
 20
107.8221284673455
 30
0.0
 11
53.71251419083421
 21
107.8587495610955
 31
0.0
  0
LINE
  5
485
330
1F
100
AcDbEntity
  8
100
  6
Continuous
 62
     7
370
    30
100
AcDbLine
 10
51.34679153458421
 20
107.8880464360955
 30
0.0
 11
52.85558059708421
 21
107.8221284673455
 31
0.0
  0
LINE
  5
486
330
1F
100
AcDbEntity
  8
100
  6
Continuous
 62
     7
370
    30
100
AcDbLine
 10
50.51915481583421
 20
107.9393159673455
 30
0.0
 11
51.34679153458421
 21
107.8880464360955
 31
0.0
  0
LINE
  5
487
330
1F
100
AcDbEntity
  8
100
  6
Continuous
 62
     7
370
    30
100
AcDbLine
 10
49.92016699237141
 20
108.1601041745063
 30
0.0
 11
50.51915481583421
 21
107.9393159673455
 31
0.0
  0
LINE
  5
488
330
1F
100
AcDbEntity
  8
100
  6
Continuous
 62
     7
370
    30
100
AcDbLine
 10
54.88438919083421
 20
108.1224214360955
 30
0.0
 11
54.86974075333421
 21
107.9466401860955
 31
0.0
  0
LINE
  5
489
330
1F
100
AcDbEntity
  8
100
  6
Continuous
 62
     7
370
    30
100
AcDbLine
 10
54.89903762833421
 20
108.4520112798455
 30
0.0
 11
54.88438919083421
 21
108.1224214360955
 31
0.0
  0
LINE
  5
48A
330
1F
100
AcDbEntity
  8
100
  6
Continuous
 62
     7
370
    30
100
AcDbLine
 10
55.03087356583421
 20
108.9207612798455
 30
0.0
 11
54.89903762833421
 21
108.4520112798455
 31
0.0
  0
LINE
  5
48B
330
1F
100
AcDbEntity
  8
100
  6
Continuous
 62
     7
370
    30
100
AcDbLine
 10
55.57286575333421
 20
110.5174409673455
 30
0.0
 11
55.03087356583421
 21
108.9207612798455
 31
0.0
  0
LINE
  5
48C
330
1F
100
AcDbEntity
  8
100
  6
Continuous
 62
     7
370
    30
100
AcDbLine
 10
56.14415481583421
 20
112.0701753423455
 30
0.0
 11
55.57286575333421
 21
110.5174409673455
 31
0.0
  0
LINE
  5
48D
330
1F
100
AcDbEntity
  8
100
  6
Continuous
 62
     7
370
    30
100
AcDbLine
 10
56.96446731583421
 20
113.7400972173455
 30
0.0
 11
56.14415481583421
 21
112.0701753423455
 31
0.0
  0
LINE
  5
48E
330
1F
100
AcDbEntity
  8
100
  6
Continuous
 62
     7
370
    30
100
AcDbLine
 10
57.79942825333421
 20
115.2488862798455
 30
0.0
 11
56.96446731583421
 21
113.7400972173455
 31
0.0
  0
LINE
  5
48F
330
1F
100
AcDbEntity
  8
100
  6
Continuous
 62
     7
370
    30
100
AcDbLine
 10
58.92735794083421
 20
116.8602144048455
 30
0.0
 11
57.79942825333421
 21
115.2488862798455
 31
0.0
  0
LINE
  5
490
330
1F
100
AcDbEntity
  8
100
  6
Continuous
 62
     7
370
    30
100
AcDbLine
 10
60.15782669083421
 20
118.2225190923455
 30
0.0
 11
58.92735794083421
 21
116.8602144048455
 31
0.0
  0
LINE
  5
491
330
1F
100
AcDbEntity
  8
100
  6
Continuous
 62
     7
370
    30
100
AcDbLine
 10
61.46153762833421
 20
119.2772065923455
 30
0.0
 11
60.15782669083421
 21
118.2225190923455
 31
0.0
  0
LINE
  5
492
330
1F
100
AcDbEntity
  8
100
  6
Continuous
 62
     7
370
    30
100
AcDbLine
 10
63.24864700333421
 20
120.4490815923455
 30
0.0
 11
61.46153762833421
 21
119.2772065923455
 31
0.0
  0
LINE
  5
493
330
1F
100
AcDbEntity
  8
100
  6
Continuous
 62
     7
370
    30
100
AcDbLine
 10
65.21153762833421
 20
121.5330659673455
 30
0.0
 11
63.24864700333421
 21
120.4490815923455
 31
0.0
  0
LINE
  5
494
330
1F
100
AcDbEntity
  8
100
  6
Continuous
 62
     7
370
    30
100
AcDbLine
 10
67.42345169083421
 20
122.2654878423455
 30
0.0
 11
65.21153762833421
 21
121.5330659673455
 31
0.0
  0
LINE
  5
495
330
1F
100
AcDbEntity
  8
100
  6
Continuous
 62
     7
370
    30
100
AcDbLine
 10
69.45226028458421
 20
122.6097261235955
 30
0.0
 11
67.42345169083421
 21
122.2654878423455
 31
0.0
  0
LINE
  5
496
330
1F
100
AcDbEntity
  8
100
  6
Continuous
 62
     7
370
    30
100
AcDbLine
 10
71.87681343756725
 20
122.8845976120656
 30
0.0
 11
69.45226028458421
 21
122.6097261235955
 31
0.0
  0
LINE
  5
497
330
1F
100
AcDbEntity
  8
100
  6
Continuous
 62
     7
370
    30
100
AcDbLine
 10
67.37950637833421
 20
126.8284761235955
 30
0.0
 11
68.81505325333421
 21
127.0774995610955
 31
0.0
  0
LINE
  5
498
330
1F
100
AcDbEntity
  8
100
  6
Continuous
 62
     7
370
    30
100
AcDbLine
 10
65.50450637833421
 20
126.3450776860955
 30
0.0
 11
67.37950637833421
 21
126.8284761235955
 31
0.0
  0
LINE
  5
499
330
1F
100
AcDbEntity
  8
100
  6
Continuous
 62
     7
370
    30
100
AcDbLine
 10
63.14610794083421
 20
125.5540620610955
 30
0.0
 11
65.50450637833421
 21
126.3450776860955
 31
0.0
  0
LINE
  5
49A
330
1F
100
AcDbEntity
  8
100
  6
Continuous
 62
     7
370
    30
100
AcDbLine
 10
60.59727981583421
 20
124.3528901860955
 30
0.0
 11
63.14610794083421
 21
125.5540620610955
 31
0.0
  0
LINE
  5
49B
330
1F
100
AcDbEntity
  8
100
  6
Continuous
 62
     7
370
    30
100
AcDbLine
 10
58.38536575333421
 20
122.8148042485955
 30
0.0
 11
60.59727981583421
 21
124.3528901860955
 31
0.0
  0
LINE
  5
49C
330
1F
100
AcDbEntity
  8
100
  6
Continuous
 62
     7
370
    30
100
AcDbLine
 10
56.17345169083421
 20
120.8079683110955
 30
0.0
 11
58.38536575333421
 21
122.8148042485955
 31
0.0
  0
LINE
  5
49D
330
1F
100
AcDbEntity
  8
100
  6
Continuous
 62
     7
370
    30
100
AcDbLine
 10
54.44493606583421
 20
118.6985933110955
 30
0.0
 11
56.17345169083421
 21
120.8079683110955
 31
0.0
  0
LINE
  5
49E
330
1F
100
AcDbEntity
  8
100
  6
Continuous
 62
     7
370
    30
100
AcDbLine
 10
52.78966262833421
 20
115.8421479985955
 30
0.0
 11
54.44493606583421
 21
118.6985933110955
 31
0.0
  0
LINE
  5
49F
330
1F
100
AcDbEntity
  8
100
  6
Continuous
 62
     7
370
    30
100
AcDbLine
 10
51.73497512833421
 20
113.8792573735955
 30
0.0
 11
52.78966262833421
 21
115.8421479985955
 31
0.0
  0
LINE
  5
4A0
330
1F
100
AcDbEntity
  8
100
  6
Continuous
 62
     7
370
    30
100
AcDbLine
 10
50.91466262833421
 20
111.5355073735955
 30
0.0
 11
51.73497512833421
 21
113.8792573735955
 31
0.0
  0
LINE
  5
4A1
330
1F
100
AcDbEntity
  8
100
  6
Continuous
 62
     7
370
    30
100
AcDbLine
 10
50.34337356583421
 20
109.5579683110955
 30
0.0
 11
50.91466262833421
 21
111.5355073735955
 31
0.0
  0
LINE
  5
4A2
330
1F
100
AcDbEntity
  8
100
  6
Continuous
 62
     7
370
    30
100
AcDbLine
 10
49.85997512833421
 20
107.9612886235955
 30
0.0
 11
50.34337356583421
 21
109.5579683110955
 31
0.0
  0
LINE
  5
4A3
330
1F
100
AcDbEntity
  8
100
  6
Continuous
 62
     7
370
    30
100
AcDbLine
 10
58.61241653458421
 20
107.5511323735955
 30
0.0
 11
59.28104948702151
 21
106.5898080468939
 31
0.0
  0
LINE
  5
4A4
330
1F
100
AcDbEntity
  8
100
  6
Continuous
 62
     7
370
    30
100
AcDbLine
 10
58.09972122208421
 20
107.7928315923455
 30
0.0
 11
58.61241653458421
 21
107.5511323735955
 31
0.0
  0
LINE
  5
4A5
330
1F
100
AcDbEntity
  8
100
  6
Continuous
 62
     7
370
    30
100
AcDbLine
 10
57.38194778458421
 20
107.9393159673455
 30
0.0
 11
58.09972122208421
 21
107.7928315923455
 31
0.0
  0
LINE
  5
4A6
330
1F
100
AcDbEntity
  8
100
  6
Continuous
 62
     7
370
    30
100
AcDbLine
 10
56.04161575333421
 20
108.0418550298455
 30
0.0
 11
57.38194778458421
 21
107.9393159673455
 31
0.0
  0
LINE
  5
4A7
330
1F
100
AcDbEntity
  8
100
  6
Continuous
 62
     7
370
    30
100
AcDbLine
 10
54.88438919083421
 20
108.1224214360955
 30
0.0
 11
56.04161575333421
 21
108.0418550298455
 31
0.0
  0
LINE
  5
4A8
330
1F
100
AcDbEntity
  8
100
  6
Continuous
 62
     7
370
    30
100
AcDbLine
 10
49.47911575333421
 20
108.4080659673455
 30
0.0
 11
50.05772903458421
 21
108.4227144048455
 31
0.0
  0
LINE
  5
4A9
330
1F
100
AcDbEntity
  8
100
  6
Continuous
 62
     7
370
    30
100
AcDbLine
 10
48.14610794083421
 20
108.4153901860955
 30
0.0
 11
49.47911575333421
 21
108.4080659673455
 31
0.0
  0
LINE
  5
4AA
330
1F
100
AcDbEntity
  8
100
  6
Continuous
 62
     7
370
    30
100
AcDbLine
 10
46.60069778458421
 20
108.4520112798455
 30
0.0
 11
48.14610794083421
 21
108.4153901860955
 31
0.0
  0
LINE
  5
4AB
330
1F
100
AcDbEntity
  8
100
  6
Continuous
 62
     7
370
    30
100
AcDbLine
 10
45.62657669083421
 20
108.4153901860955
 30
0.0
 11
46.60069778458421
 21
108.4520112798455
 31
0.0
  0
LINE
  5
4AC
330
1F
100
AcDbEntity
  8
100
  6
Continuous
 62
     7
370
    30
100
AcDbLine
 10
44.93077590958421
 20
108.2322847173455
 30
0.0
 11
45.62657669083421
 21
108.4153901860955
 31
0.0
  0
LINE
  5
4AD
330
1F
100
AcDbEntity
  8
100
  6
Continuous
 62
     7
370
    30
100
AcDbLine
 10
44.38145950333421
 20
107.9759370610955
 30
0.0
 11
44.93077590958421
 21
108.2322847173455
 31
0.0
  0
LINE
  5
4AE
330
1F
100
AcDbEntity
  8
100
  6
Continuous
 62
     7
370
    30
100
AcDbLine
 10
43.93468215958421
 20
107.3460542485955
 30
0.0
 11
44.38145950333421
 21
107.9759370610955
 31
0.0
  0
LINE
  5
4AF
330
1F
100
AcDbEntity
  8
100
  6
Continuous
 62
     7
370
    30
100
AcDbLine
 10
43.64243072997725
 20
106.7063177191174
 30
0.0
 11
43.93468215958421
 21
107.3460542485955
 31
0.0
  0
LINE
  5
4B0
330
1F
100
AcDbEntity
  8
100
  6
Continuous
 62
     7
370
    30
100
AcDbLine
 10
59.80626419083421
 20
106.6575776860955
 30
0.0
 11
58.44395950333421
 21
106.4817964360955
 31
0.0
  0
LINE
  5
4B1
330
1F
100
AcDbEntity
  8
100
  6
Continuous
 62
     7
370
    30
100
AcDbLine
 10
62.13536575333421
 20
106.9212495610955
 30
0.0
 11
59.80626419083421
 21
106.6575776860955
 31
0.0
  0
LINE
  5
4B2
330
1F
100
AcDbEntity
  8
100
  6
Continuous
 62
     7
370
    30
100
AcDbLine
 10
63.93712356583421
 20
107.2435151860955
 30
0.0
 11
62.13536575333421
 21
106.9212495610955
 31
0.0
  0
LINE
  5
4B3
330
1F
100
AcDbEntity
  8
100
  6
Continuous
 62
     7
370
    30
100
AcDbLine
 10
65.79747512833421
 20
107.8587495610955
 30
0.0
 11
63.93712356583421
 21
107.2435151860955
 31
0.0
  0
LINE
  5
4B4
330
1F
100
AcDbEntity
  8
100
  6
Continuous
 62
     7
370
    30
100
AcDbLine
 10
67.49669387833421
 20
108.7523042485955
 30
0.0
 11
65.79747512833421
 21
107.8587495610955
 31
0.0
  0
LINE
  5
4B5
330
1F
100
AcDbEntity
  8
100
  6
Continuous
 62
     7
370
    30
100
AcDbLine
 10
69.37169387833421
 20
109.9681245610955
 30
0.0
 11
67.49669387833421
 21
108.7523042485955
 31
0.0
  0
LINE
  5
4B6
330
1F
100
AcDbEntity
  8
100
  6
Continuous
 62
     7
370
    30
100
AcDbLine
 10
70.89513137833421
 20
111.6673433110955
 30
0.0
 11
69.37169387833421
 21
109.9681245610955
 31
0.0
  0
LINE
  5
4B7
330
1F
100
AcDbEntity
  8
100
  6
Continuous
 62
     7
370
    30
100
AcDbLine
 10
71.73009231583421
 20
113.3079683110955
 30
0.0
 11
70.89513137833421
 21
111.6673433110955
 31
0.0
  0
LINE
  5
4B8
330
1F
100
AcDbEntity
  8
100
  6
Continuous
 62
     7
370
    30
100
AcDbLine
 10
72.46251419083421
 20
115.3294526860955
 30
0.0
 11
71.73009231583421
 21
113.3079683110955
 31
0.0
  0
LINE
  5
4B9
330
1F
100
AcDbEntity
  8
100
  6
Continuous
 62
     7
370
    30
100
AcDbLine
 10
72.66759231583421
 20
117.2337495610955
 30
0.0
 11
72.46251419083421
 21
115.3294526860955
 31
0.0
  0
LINE
  5
4BA
330
1F
100
AcDbEntity
  8
100
  6
Continuous
 62
     7
370
    30
100
AcDbLine
 10
72.68224075333421
 20
119.0062104985955
 30
0.0
 11
72.66759231583421
 21
117.2337495610955
 31
0.0
  0
LINE
  5
4BB
330
1F
100
AcDbEntity
  8
100
  6
Continuous
 62
     7
370
    30
100
AcDbLine
 10
72.46251419083421
 20
121.0130464360955
 30
0.0
 11
72.68224075333421
 21
119.0062104985955
 31
0.0
  0
LINE
  5
4BC
330
1F
100
AcDbEntity
  8
100
  6
Continuous
 62
     7
370
    30
100
AcDbLine
 10
72.05235794083421
 20
122.5364839360955
 30
0.0
 11
72.46251419083421
 21
121.0130464360955
 31
0.0
  0
LINE
  5
4BD
330
1F
100
AcDbEntity
  8
100
  6
Continuous
 62
     7
370
    30
100
AcDbLine
 10
71.18810012833421
 20
124.2503511235955
 30
0.0
 11
72.05235794083421
 21
122.5364839360955
 31
0.0
  0
LINE
  5
4BE
330
1F
100
AcDbEntity
  8
100
  6
Continuous
 62
     7
370
    30
100
AcDbLine
 10
70.14806106583421
 20
125.7151948735955
 30
0.0
 11
71.18810012833421
 21
124.2503511235955
 31
0.0
  0
LINE
  5
4BF
330
1F
100
AcDbEntity
  8
100
  6
Continuous
 62
     7
370
    30
100
AcDbLine
 10
68.81505325333421
 20
127.0774995610955
 30
0.0
 11
70.14806106583421
 21
125.7151948735955
 31
0.0
  0
LINE
  5
4C0
330
1F
100
AcDbEntity
  8
100
  6
Continuous
 62
     7
370
    30
100
AcDbLine
 10
67.27696731583421
 20
128.1321870610955
 30
0.0
 11
68.81505325333421
 21
127.0774995610955
 31
0.0
  0
LINE
  5
4C1
330
1F
100
AcDbEntity
  8
100
  6
Continuous
 62
     7
370
    30
100
AcDbLine
 10
64.43517044083421
 20
129.1575776860955
 30
0.0
 11
67.27696731583421
 21
128.1321870610955
 31
0.0
  0
LINE
  5
4C2
330
1F
100
AcDbEntity
  8
100
  6
Continuous
 62
     7
370
    30
100
AcDbLine
 10
61.63731887833421
 20
129.7728120610955
 30
0.0
 11
64.43517044083421
 21
129.1575776860955
 31
0.0
  0
LINE
  5
4C3
330
1F
100
AcDbEntity
  8
100
  6
Continuous
 62
     7
370
    30
100
AcDbLine
 10
58.32677200333421
 20
130.5052339360955
 30
0.0
 11
61.63731887833421
 21
129.7728120610955
 31
0.0
  0
LINE
  5
4C4
330
1F
100
AcDbEntity
  8
100
  6
Continuous
 62
     7
370
    30
100
AcDbLine
 10
54.85509231583421
 20
130.9153901860955
 30
0.0
 11
58.32677200333421
 21
130.5052339360955
 31
0.0
  0
LINE
  5
4C5
330
1F
100
AcDbEntity
  8
100
  6
Continuous
 62
     7
370
    30
100
AcDbLine
 10
51.10509231583421
 20
131.1351167485955
 30
0.0
 11
54.85509231583421
 21
130.9153901860955
 31
0.0
  0
LINE
  5
4C6
330
1F
100
AcDbEntity
  8
100
  6
Continuous
 62
     7
370
    30
100
AcDbLine
 10
48.02892044083421
 20
131.1644136235955
 30
0.0
 11
51.10509231583421
 21
131.1351167485955
 31
0.0
  0
LINE
  5
4C7
330
1F
100
AcDbEntity
  8
100
  6
Continuous
 62
     7
370
    30
100
AcDbLine
 10
43.67833450333421
 20
130.9446870610955
 30
0.0
 11
48.02892044083421
 21
131.1644136235955
 31
0.0
  0
LINE
  5
4C8
330
1F
100
AcDbEntity
  8
100
  6
Continuous
 62
     7
370
    30
100
AcDbLine
 10
40.67540481583421
 20
130.5784761235955
 30
0.0
 11
43.67833450333421
 21
130.9446870610955
 31
0.0
  0
LINE
  5
4C9
330
1F
100
AcDbEntity
  8
100
  6
Continuous
 62
     7
370
    30
100
AcDbLine
 10
38.36095169083421
 20
130.2562104985955
 30
0.0
 11
40.67540481583421
 21
130.5784761235955
 31
0.0
  0
LINE
  5
4CA
330
1F
100
AcDbEntity
  8
100
  6
Continuous
 62
     7
370
    30
100
AcDbLine
 10
35.95860794083421
 20
129.5970308110955
 30
0.0
 11
38.36095169083421
 21
130.2562104985955
 31
0.0
  0
LINE
  5
4CB
330
1F
100
AcDbEntity
  8
100
  6
Continuous
 62
     7
370
    30
100
AcDbLine
 10
34.31798294083421
 20
128.9085542485955
 30
0.0
 11
35.95860794083421
 21
129.5970308110955
 31
0.0
  0
LINE
  5
4CC
330
1F
100
AcDbEntity
  8
100
  6
Continuous
 62
     7
370
    30
100
AcDbLine
 10
32.98497512833421
 20
127.8392183110955
 30
0.0
 11
34.31798294083421
 21
128.9085542485955
 31
0.0
  0
LINE
  5
4CD
330
1F
100
AcDbEntity
  8
100
  6
Continuous
 62
     7
370
    30
100
AcDbLine
 10
31.69591262833421
 20
126.3743745610955
 30
0.0
 11
32.98497512833421
 21
127.8392183110955
 31
0.0
  0
LINE
  5
4CE
330
1F
100
AcDbEntity
  8
100
  6
Continuous
 62
     7
370
    30
100
AcDbLine
 10
30.45079544083421
 20
124.4993745610955
 30
0.0
 11
31.69591262833421
 21
126.3743745610955
 31
0.0
  0
LINE
  5
4CF
330
1F
100
AcDbEntity
  8
100
  6
Continuous
 62
     7
370
    30
100
AcDbLine
 10
29.55724075333421
 20
122.4192964360955
 30
0.0
 11
30.45079544083421
 21
124.4993745610955
 31
0.0
  0
LINE
  5
4D0
330
1F
100
AcDbEntity
  8
100
  6
Continuous
 62
     7
370
    30
100
AcDbLine
 10
29.26427200333421
 20
120.5882417485955
 30
0.0
 11
29.55724075333421
 21
122.4192964360955
 31
0.0
  0
LINE
  5
4D1
330
1F
100
AcDbEntity
  8
100
  6
Continuous
 62
     7
370
    30
100
AcDbLine
 10
29.20567825333421
 20
119.1673433110955
 30
0.0
 11
29.26427200333421
 21
120.5882417485955
 31
0.0
  0
LINE
  5
4D2
330
1F
100
AcDbEntity
  8
100
  6
Continuous
 62
     7
370
    30
100
AcDbLine
 10
29.30821731583421
 20
117.2044526860955
 30
0.0
 11
29.20567825333421
 21
119.1673433110955
 31
0.0
  0
LINE
  5
4D3
330
1F
100
AcDbEntity
  8
100
  6
Continuous
 62
     7
370
    30
100
AcDbLine
 10
29.51329544083421
 20
115.8128511235955
 30
0.0
 11
29.30821731583421
 21
117.2044526860955
 31
0.0
  0
LINE
  5
4D4
330
1F
100
AcDbEntity
  8
100
  6
Continuous
 62
     7
370
    30
100
AcDbLine
 10
29.99669387833421
 20
114.4358979985955
 30
0.0
 11
29.51329544083421
 21
115.8128511235955
 31
0.0
  0
LINE
  5
4D5
330
1F
100
AcDbEntity
  8
100
  6
Continuous
 62
     7
370
    30
100
AcDbLine
 10
30.58263137833421
 20
113.1028901860955
 30
0.0
 11
29.99669387833421
 21
114.4358979985955
 31
0.0
  0
LINE
  5
4D6
330
1F
100
AcDbEntity
  8
100
  6
Continuous
 62
     7
370
    30
100
AcDbLine
 10
31.24181106583421
 20
111.7991792485955
 30
0.0
 11
30.58263137833421
 21
113.1028901860955
 31
0.0
  0
LINE
  5
4D7
330
1F
100
AcDbEntity
  8
100
  6
Continuous
 62
     7
370
    30
100
AcDbLine
 10
32.28185012833421
 20
110.6419526860955
 30
0.0
 11
31.24181106583421
 21
111.7991792485955
 31
0.0
  0
LINE
  5
4D8
330
1F
100
AcDbEntity
  8
100
  6
Continuous
 62
     7
370
    30
100
AcDbLine
 10
33.21935012833421
 20
109.6312104985955
 30
0.0
 11
32.28185012833421
 21
110.6419526860955
 31
0.0
  0
LINE
  5
4D9
330
1F
100
AcDbEntity
  8
100
  6
Continuous
 62
     7
370
    30
100
AcDbLine
 10
34.39122512833421
 20
108.6937104985955
 30
0.0
 11
33.21935012833421
 21
109.6312104985955
 31
0.0
  0
LINE
  5
4DA
330
1F
100
AcDbEntity
  8
100
  6
Continuous
 62
     7
370
    30
100
AcDbLine
 10
35.72423294083421
 20
107.9905854985955
 30
0.0
 11
34.39122512833421
 21
108.6937104985955
 31
0.0
  0
LINE
  5
4DB
330
1F
100
AcDbEntity
  8
100
  6
Continuous
 62
     7
370
    30
100
AcDbLine
 10
38.05333450333421
 20
107.3460542485955
 30
0.0
 11
35.72423294083421
 21
107.9905854985955
 31
0.0
  0
LINE
  5
4DC
330
1F
100
AcDbEntity
  8
100
  6
Continuous
 62
     7
370
    30
100
AcDbLine
 10
40.16270950333421
 20
106.9358979985955
 30
0.0
 11
38.05333450333421
 21
107.3460542485955
 31
0.0
  0
LINE
  5
4DD
330
1F
100
AcDbEntity
  8
100
  6
Continuous
 62
     7
370
    30
100
AcDbLine
 10
43.50255325333421
 20
106.7601167485955
 30
0.0
 11
40.16270950333421
 21
106.9358979985955
 31
0.0
  0
LINE
  5
4DE
330
1F
100
AcDbEntity
  8
100
  6
Continuous
 62
     7
370
    30
100
AcDbLine
 10
44.26427200333421
 20
106.4671479985955
 30
0.0
 11
43.50255325333421
 21
106.7601167485955
 31
0.0
  0
LINE
  5
4DF
330
1F
100
AcDbEntity
  8
100
  6
Continuous
 62
     7
370
    30
100
AcDbLine
 10
46.31505325333421
 20
105.9983979985955
 30
0.0
 11
44.26427200333421
 21
106.4671479985955
 31
0.0
  0
MTEXT
  5
4E0
330
1F
100
AcDbEntity
  8
100
  6
Continuous
 62
     7
370
     9
100
AcDbMText
 10
-28.74804090893277
 20
-124.147231037726
 30
0.0
 40
25.0
 41
293.4182016041797
 46
25.0
 71
     7
 72
     1
  1
{\fＭＳ ゴシック;\W0.714286;松本船舶電機製作所}
 73
     1
 44
1.0
  0
MTEXT
  5
4E1
330
1F
100
AcDbEntity
  8
1
  6
DOT
 62
     7
370
     9
100
AcDbMText
 10
11.44538157165917
 20
238.203949608444
 30
0.0
 40
25.0
 41
152.9102596313618
 46
25.0
 71
     7
 72
     1
  1
{\fＭＳ ゴシック;\W0.714286;（RCR-RT-S）}
 73
     1
 44
1.0
  0
MTEXT
  5
4E2
330
1F
100
AcDbEntity
  8
100
  6
Continuous
 62
     7
370
     9
100
AcDbMText
 10
-52.23186925434128
 20
178.682896871365
 30
0.0
 40
25.0
 41
349.4765505874703
 46
25.0
 71
     7
 72
     1
  1
{\fＭＳ ゴシック;\W0.714286;[電球色ＬＥＤランプ付]}
 73
     1
 44
1.0
  0
MTEXT
  5
4E3
330
1F
100
AcDbEntity
  8
100
  6
Continuous
 62
     7
370
     9
100
AcDbMText
 10
-64.42883895131109
 20
209.4404726289407
 30
0.0
 40
25.0
 41
386.3049853513505
 46
25.0
 71
     7
 72
     1
  1
{\fＭＳ ゴシック;\W0.714286;Ｒキャリーライトシルバー}
 73
     1
 44
1.0
  0
ENDSEC
  0
SECTION
  2
OBJECTS
  0
DICTIONARY
  5
C
330
0
100
AcDbDictionary
281
     1
  3
ACAD_DETAILVIEWSTYLE
350
4EB
  3
ACAD_GROUP
350
D
  3
ACAD_LAYOUT
350
1A
  3
ACAD_MATERIAL
350
43
  3
ACAD_MLEADERSTYLE
350
6B
  3
ACAD_MLINESTYLE
350
17
  3
ACAD_PLOTSETTINGS
350
19
  3
ACAD_PLOTSTYLENAME
350
E
  3
ACAD_SCALELIST
350
47
  3
ACAD_SECTIONVIEWSTYLE
350
4EC
  3
ACAD_TABLESTYLE
350
69
  3
ACAD_VISUALSTYLE
350
2A
  3
ACDB_RECOMPOSE_DATA
350
4E8
  3
AcDbVariableDictionary
350
4E4
  0
SUN
  5
6D
330
29
100
AcDbSun
 90
        1
290
     0
 63
     7
421
 16777215
 40
1.0
291
     1
 91
  2455826
 92
 54000000
292
     0
 70
     2
 71
   256
280
     1
  0
DICTIONARY
  5
4EB
102
{ACAD_REACTORS
330
C
102
}
330
C
100
AcDbDictionary
281
     1
  0
DICTIONARY
  5
D
102
{ACAD_REACTORS
330
C
102
}
330
C
100
AcDbDictionary
281
     1
  0
DICTIONARY
  5
1A
102
{ACAD_REACTORS
330
C
102
}
330
C
100
AcDbDictionary
281
     1
  3
Layout1
350
1E
  3
Layout2
350
26
  3
Model
350
22
  0
DICTIONARY
  5
43
102
{ACAD_REACTORS
330
C
102
}
330
C
100
AcDbDictionary
281
     1
  3
ByBlock
350
45
  3
ByLayer
350
44
  3
Global
350
46
  0
DICTIONARY
  5
6B
102
{ACAD_REACTORS
330
C
102
}
330
C
100
AcDbDictionary
281
     1
  3
Standard
350
6C
  0
DICTIONARY
  5
17
102
{ACAD_REACTORS
330
C
102
}
330
C
100
AcDbDictionary
281
     1
  3
Standard
350
18
  0
DICTIONARY
  5
19
102
{ACAD_REACTORS
330
C
102
}
330
C
100
AcDbDictionary
281
     1
  0
ACDBDICTIONARYWDFLT
  5
E
102
{ACAD_REACTORS
330
C
102
}
330
C
100
AcDbDictionary
281
     1
  3
Normal
350
F
100
AcDbDictionaryWithDefault
340
F
  0
DICTIONARY
  5
47
102
{ACAD_REACTORS
330
C
102
}
330
C
100
AcDbDictionary
281
     1
  3
A0
350
48
  3
A1
350
49
  3
A2
350
4A
  3
A3
350
4B
  3
A4
350
4C
  3
A5
350
4D
  3
A6
350
4E
  3
A7
350
4F
  3
A8
350
50
  3
A9
350
51
  3
B0
350
52
  3
B1
350
53
  3
B2
350
54
  3
B3
350
55
  3
B4
350
56
  3
B5
350
57
  3
B6
350
58
  3
B7
350
59
  3
B8
350
5A
  3
B9
350
5B
  3
C0
350
5C
  3
C1
350
5D
  3
C2
350
5E
  3
C3
350
5F
  3
C4
350
60
  3
C5
350
61
  3
C6
350
62
  3
C7
350
63
  3
C8
350
64
  3
C9
350
65
  3
D0
350
66
  3
D1
350
67
  3
D2
350
68
  0
DICTIONARY
  5
4EC
102
{ACAD_REACTORS
330
C
102
}
330
C
100
AcDbDictionary
281
     1
  0
DICTIONARY
  5
69
102
{ACAD_REACTORS
330
C
102
}
330
C
100
AcDbDictionary
281
     1
  3
Standard
350
6A
  0
DICTIONARY
  5
2A
102
{ACAD_REACTORS
330
C
102
}
330
C
100
AcDbDictionary
281
     1
  3
2dWireframe
350
2F
  3
Basic
350
32
  3
Brighten
350
36
  3
ColorChange
350
3A
  3
Conceptual
350
34
  3
Dim
350
35
  3
EdgeColorOff
350
3D
  3
Facepattern
350
39
  3
Flat
350
2B
  3
FlatWithEdges
350
2C
  3
Gouraud
350
2D
  3
GouraudWithEdges
350
2E
  3
Hidden
350
31
  3
JitterOff
350
3B
  3
Linepattern
350
38
  3
OverhangOff
350
3C
  3
Realistic
350
33
  3
Shaded
350
42
  3
Shaded with edges
350
41
  3
Shades of Gray
350
3E
  3
Sketchy
350
3F
  3
Thicken
350
37
  3
Wireframe
350
30
  3
X-Ray
350
40
  0
XRECORD
  5
4E8
102
{ACAD_REACTORS
330
C
102
}
330
C
100
AcDbXrecord
280
     1
 90
        1
330
6A
  0
DICTIONARY
  5
4E4
102
{ACAD_REACTORS
330
C
102
}
330
C
100
AcDbDictionary
281
     1
  3
CANNOSCALE
350
4E5
  3
CMLEADERSTYLE
350
4EA
  3
CTABLESTYLE
350
4E9
  0
LAYOUT
  5
1E
102
{ACAD_REACTORS
330
1A
102
}
330
1A
100
AcDbPlotSettings
  1

  2
none_device
  4

  6

 40
0.0
 41
0.0
 42
0.0
 43
0.0
 44
0.0
 45
0.0
 46
0.0
 47
0.0
 48
0.0
 49
0.0
140
0.0
141
0.0
142
1.0
143
1.0
 70
   688
 72
     0
 73
     0
 74
     5
  7

 75
    16
 76
     0
 77
     2
 78
   300
147
1.0
148
0.0
149
0.0
100
AcDbLayout
  1
Layout1
 70
     1
 71
     1
 10
0.0
 20
0.0
 11
297.0
 21
210.0
 12
0.0
 22
0.0
 32
0.0
 14
0.0
 24
0.0
 34
0.0
 15
297.0
 25
210.0
 35
0.0
146
0.0
 13
0.0
 23
0.0
 33
0.0
 16
1.0
 26
0.0
 36
0.0
 17
0.0
 27
1.0
 37
0.0
 76
     0
330
1B
  0
LAYOUT
  5
26
102
{ACAD_REACTORS
330
1A
102
}
330
1A
100
AcDbPlotSettings
  1

  2
none_device
  4

  6

 40
0.0
 41
0.0
 42
0.0
 43
0.0
 44
0.0
 45
0.0
 46
0.0
 47
0.0
 48
0.0
 49
0.0
140
0.0
141
0.0
142
1.0
143
1.0
 70
   688
 72
     0
 73
     0
 74
     5
  7

 75
    16
 76
     0
 77
     2
 78
   300
147
1.0
148
0.0
149
0.0
100
AcDbLayout
  1
Layout2
 70
     1
 71
     2
 10
0.0
 20
0.0
 11
0.0
 21
0.0
 12
0.0
 22
0.0
 32
0.0
 14
0.0
 24
0.0
 34
0.0
 15
0.0
 25
0.0
 35
0.0
146
0.0
 13
0.0
 23
0.0
 33
0.0
 16
1.0
 26
0.0
 36
0.0
 17
0.0
 27
1.0
 37
0.0
 76
     0
330
23
  0
LAYOUT
  5
22
102
{ACAD_REACTORS
330
1A
102
}
330
1A
100
AcDbPlotSettings
  1

  2
none_device
  4
Letter_(8.50_x_11.00_Inches)
  6

 40
6.35
 41
6.35
 42
6.35000508
 43
6.35000508
 44
215.9
 45
279.4
 46
0.0
 47
0.0
 48
0.0
 49
0.0
140
0.0
141
0.0
142
1.0
143
1.0
 70
  1712
 72
     0
 73
     0
 74
     0
  7

 75
     0
 76
     0
 77
     2
 78
   300
147
1.0
148
0.0
149
0.0
100
AcDbLayout
  1
Model
 70
     1
 71
     0
 10
0.0
 20
0.0
 11
297.0
 21
210.0
 12
0.0
 22
0.0
 32
0.0
 14
-64.42883895131109
 24
-124.147231037726
 34
0.0
 15
235.5711610486889
 25
263.203949608444
 35
0.0
146
0.0
 13
0.0
 23
0.0
 33
0.0
 16
1.0
 26
0.0
 36
0.0
 17
0.0
 27
1.0
 37
0.0
 76
     0
330
1F
331
29
  0
MATERIAL
  5
45
102
{ACAD_REACTORS
330
43
102
}
330
43
100
AcDbMaterial
  1
ByBlock
 72
     1
 94
      127
  0
MATERIAL
  5
44
102
{ACAD_REACTORS
330
43
102
}
330
43
100
AcDbMaterial
  1
ByLayer
 72
     1
 94
      127
  0
MATERIAL
  5
46
102
{ACAD_REACTORS
330
43
102
}
330
43
100
AcDbMaterial
  1
Global
 72
     1
 94
      127
  0
MLEADERSTYLE
  5
6C
102
{ACAD_REACTORS
330
6B
102
}
330
6B
100
AcDbMLeaderStyle
179
     2
170
     2
171
     1
172
     0
 90
        2
 40
0.0
 41
0.0
173
     1
 91
-1056964608
340
14
 92
       -2
290
     1
 42
0.09
291
     1
 43
0.36
  3
Standard
341
0
 44
0.18
300

342
11
174
     1
178
     6
175
     1
176
     0
 93
-1056964608
 45
0.18
292
     0
297
     0
 46
0.18
343
0
 94
-1056964608
 47
1.0
 49
1.0
140
1.0
293
     1
141
0.0
294
     1
177
     0
142
1.0
295
     0
296
     0
143
0.125
271
     0
272
     9
273
     9
298
     0
  0
MLINESTYLE
  5
18
102
{ACAD_REACTORS
330
17
102
}
330
17
100
AcDbMlineStyle
  2
Standard
 70
     0
  3

 62
   256
 51
90.0
 52
90.0
 71
     2
 49
0.5
 62
   256
  6
BYLAYER
 49
-0.5
 62
   256
  6
BYLAYER
  0
ACDBPLACEHOLDER
  5
F
102
{ACAD_REACTORS
330
E
102
}
330
E
  0
SCALE
  5
48
102
{ACAD_REACTORS
330
47
102
}
330
47
100
AcDbScale
 70
     0
300
1:1
140
1.0
141
1.0
290
     1
  0
SCALE
  5
49
102
{ACAD_REACTORS
330
47
102
}
330
47
100
AcDbScale
 70
     0
300
1:2
140
1.0
141
2.0
290
     0
  0
SCALE
  5
4A
102
{ACAD_REACTORS
330
47
102
}
330
47
100
AcDbScale
 70
     0
300
1:4
140
1.0
141
4.0
290
     0
  0
SCALE
  5
4B
102
{ACAD_REACTORS
330
47
102
}
330
47
100
AcDbScale
 70
     0
300
1:5
140
1.0
141
5.0
290
     0
  0
SCALE
  5
4C
102
{ACAD_REACTORS
330
47
102
}
330
47
100
AcDbScale
 70
     0
300
1:8
140
1.0
141
8.0
290
     0
  0
SCALE
  5
4D
102
{ACAD_REACTORS
330
47
102
}
330
47
100
AcDbScale
 70
     0
300
1:10
140
1.0
141
10.0
290
     0
  0
SCALE
  5
4E
102
{ACAD_REACTORS
330
47
102
}
330
47
100
AcDbScale
 70
     0
300
1:16
140
1.0
141
16.0
290
     0
  0
SCALE
  5
4F
102
{ACAD_REACTORS
330
47
102
}
330
47
100
AcDbScale
 70
     0
300
1:20
140
1.0
141
20.0
290
     0
  0
SCALE
  5
50
102
{ACAD_REACTORS
330
47
102
}
330
47
100
AcDbScale
 70
     0
300
1:30
140
1.0
141
30.0
290
     0
  0
SCALE
  5
51
102
{ACAD_REACTORS
330
47
102
}
330
47
100
AcDbScale
 70
     0
300
1:40
140
1.0
141
40.0
290
     0
  0
SCALE
  5
52
102
{ACAD_REACTORS
330
47
102
}
330
47
100
AcDbScale
 70
     0
300
1:50
140
1.0
141
50.0
290
     0
  0
SCALE
  5
53
102
{ACAD_REACTORS
330
47
102
}
330
47
100
AcDbScale
 70
     0
300
1:100
140
1.0
141
100.0
290
     0
  0
SCALE
  5
54
102
{ACAD_REACTORS
330
47
102
}
330
47
100
AcDbScale
 70
     0
300
2:1
140
2.0
141
1.0
290
     0
  0
SCALE
  5
55
102
{ACAD_REACTORS
330
47
102
}
330
47
100
AcDbScale
 70
     0
300
4:1
140
4.0
141
1.0
290
     0
  0
SCALE
  5
56
102
{ACAD_REACTORS
330
47
102
}
330
47
100
AcDbScale
 70
     0
300
8:1
140
8.0
141
1.0
290
     0
  0
SCALE
  5
57
102
{ACAD_REACTORS
330
47
102
}
330
47
100
AcDbScale
 70
     0
300
10:1
140
10.0
141
1.0
290
     0
  0
SCALE
  5
58
102
{ACAD_REACTORS
330
47
102
}
330
47
100
AcDbScale
 70
     0
300
100:1
140
100.0
141
1.0
290
     0
  0
SCALE
  5
59
102
{ACAD_REACTORS
330
47
102
}
330
47
100
AcDbScale
 70
     0
300
1/128" = 1'-0"
140
0.0078125
141
12.0
290
     0
  0
SCALE
  5
5A
102
{ACAD_REACTORS
330
47
102
}
330
47
100
AcDbScale
 70
     0
300
1/64" = 1'-0"
140
0.015625
141
12.0
290
     0
  0
SCALE
  5
5B
102
{ACAD_REACTORS
330
47
102
}
330
47
100
AcDbScale
 70
     0
300
1/32" = 1'-0"
140
0.03125
141
12.0
290
     0
  0
SCALE
  5
5C
102
{ACAD_REACTORS
330
47
102
}
330
47
100
AcDbScale
 70
     0
300
1/16" = 1'-0"
140
0.0625
141
12.0
290
     0
  0
SCALE
  5
5D
102
{ACAD_REACTORS
330
47
102
}
330
47
100
AcDbScale
 70
     0
300
3/32" = 1'-0"
140
0.09375
141
12.0
290
     0
  0
SCALE
  5
5E
102
{ACAD_REACTORS
330
47
102
}
330
47
100
AcDbScale
 70
     0
300
1/8" = 1'-0"
140
0.125
141
12.0
290
     0
  0
SCALE
  5
5F
102
{ACAD_REACTORS
330
47
102
}
330
47
100
AcDbScale
 70
     0
300
3/16" = 1'-0"
140
0.1875
141
12.0
290
     0
  0
SCALE
  5
60
102
{ACAD_REACTORS
330
47
102
}
330
47
100
AcDbScale
 70
     0
300
1/4" = 1'-0"
140
0.25
141
12.0
290
     0
  0
SCALE
  5
61
102
{ACAD_REACTORS
330
47
102
}
330
47
100
AcDbScale
 70
     0
300
3/8" = 1'-0"
140
0.375
141
12.0
290
     0
  0
SCALE
  5
62
102
{ACAD_REACTORS
330
47
102
}
330
47
100
AcDbScale
 70
     0
300
1/2" = 1'-0"
140
0.5
141
12.0
290
     0
  0
SCALE
  5
63
102
{ACAD_REACTORS
330
47
102
}
330
47
100
AcDbScale
 70
     0
300
3/4" = 1'-0"
140
0.75
141
12.0
290
     0
  0
SCALE
  5
64
102
{ACAD_REACTORS
330
47
102
}
330
47
100
AcDbScale
 70
     0
300
1" = 1'-0"
140
1.0
141
12.0
290
     0
  0
SCALE
  5
65
102
{ACAD_REACTORS
330
47
102
}
330
47
100
AcDbScale
 70
     0
300
1-1/2" = 1'-0"
140
1.5
141
12.0
290
     0
  0
SCALE
  5
66
102
{ACAD_REACTORS
330
47
102
}
330
47
100
AcDbScale
 70
     0
300
3" = 1'-0"
140
3.0
141
12.0
290
     0
  0
SCALE
  5
67
102
{ACAD_REACTORS
330
47
102
}
330
47
100
AcDbScale
 70
     0
300
6" = 1'-0"
140
6.0
141
12.0
290
     0
  0
SCALE
  5
68
102
{ACAD_REACTORS
330
47
102
}
330
47
100
AcDbScale
 70
     0
300
1'-0" = 1'-0"
140
12.0
141
12.0
290
     0
  0
TABLESTYLE
  5
6A
102
{ACAD_REACTORS
330
69
102
}
102
{ACAD_XDICTIONARY
360
4E6
102
}
330
69
100
AcDbTableStyle
  3
Standard
 70
     0
 71
     0
 40
0.06
 41
0.06
280
     0
281
     0
  7
Standard
140
0.18
170
     2
 62
     0
 63
   257
283
     0
 90
        4
 91
        0
  1

274
    -2
284
     1
 64
     0
275
    -2
285
     1
 65
     0
276
    -2
286
     1
 66
     0
277
    -2
287
     1
 67
     0
278
    -2
288
     1
 68
     0
279
    -2
289
     1
 69
     0
  7
Standard
140
0.25
170
     5
 62
     0
 63
   257
283
     0
 90
        4
 91
        0
  1

274
    -2
284
     1
 64
     0
275
    -2
285
     1
 65
     0
276
    -2
286
     1
 66
     0
277
    -2
287
     1
 67
     0
278
    -2
288
     1
 68
     0
279
    -2
289
     1
 69
     0
  7
Standard
140
0.18
170
     5
 62
     0
 63
   257
283
     0
 90
        4
 91
        0
  1

274
    -2
284
     1
 64
     0
275
    -2
285
     1
 65
     0
276
    -2
286
     1
 66
     0
277
    -2
287
     1
 67
     0
278
    -2
288
     1
 68
     0
279
    -2
289
     1
 69
     0
  0
VISUALSTYLE
  5
2F
102
{ACAD_REACTORS
330
2A
102
}
330
2A
100
AcDbVisualStyle
  2
2dWireframe
 70
     4
177
     3
291
     0
 70
    58
 90
        0
176
     1
 90
        2
176
     1
 90
        0
176
     1
 90
        0
176
     1
 40
0.6
176
     1
 40
30.0
176
     1
 62
     7
420
 16777215
176
     1
 90
        1
176
     1
 90
        4
176
     1
 62
     7
176
     1
 62
   257
176
     1
 90
        1
176
     1
 90
        1
176
     1
 40
1.0
176
     1
 90
        0
176
     1
 62
   257
176
     1
 40
1.0
176
     1
 90
        1
176
     1
 90
        6
176
     1
 90
        2
176
     1
 62
     7
176
     1
 90
        5
176
     1
 90
        0
176
     1
 90
        0
176
     1
290
     0
176
     1
 90
        1
176
     1
 40
0.0
176
     1
 90
        0
176
     1
290
     1
176
     1
290
     1
176
     1
290
     0
176
     1
290
     0
176
     1
290
     0
176
     1
290
     0
176
     1
290
     0
176
     1
290
     0
176
     1
290
     0
176
     1
 90
       50
176
     1
 40
0.0
176
     1
 40
1.0
176
     1
 90
        0
176
     1
 62
    18
420
        0
176
     1
 90
       50
176
     1
 90
        3
176
     1
 62
     5
420
      255
176
     1
290
     0
176
     1
 90
       50
176
     1
 90
       50
176
     1
 90
       50
176
     1
290
     0
176
     1
 90
       50
176
     1
 62
   256
176
     0
 40
1.0
176
     0
 90
        2
176
     1
  1
strokes_ogs.tif
176
     1
290
     0
176
     1
 40
1.0
176
     1
 40
1.0
176
     1
  0
VISUALSTYLE
  5
32
102
{ACAD_REACTORS
330
2A
102
}
330
2A
100
AcDbVisualStyle
  2
Basic
 70
     7
177
     3
291
     1
 70
    58
 90
        1
176
     1
 90
        0
176
     1
 90
        1
176
     1
 90
        0
176
     1
 40
0.6
176
     1
 40
30.0
176
     1
 62
     7
420
 16777215
176
     1
 90
        0
176
     1
 90
        4
176
     1
 62
     7
176
     1
 62
   257
176
     1
 90
        1
176
     1
 90
        1
176
     1
 40
1.0
176
     1
 90
        8
176
     1
 62
     7
176
     1
 40
1.0
176
     1
 90
        1
176
     1
 90
        6
176
     1
 90
        2
176
     1
 62
     7
176
     1
 90
        5
176
     1
 90
        0
176
     1
 90
        0
176
     1
290
     0
176
     1
 90
        1
176
     1
 40
0.0
176
     1
 90
        0
176
     1
290
     0
176
     1
290
     1
176
     1
290
     1
176
     1
290
     0
176
     1
290
     0
176
     1
290
     0
176
     1
290
     0
176
     1
290
     0
176
     1
290
     0
176
     1
 90
       50
176
     1
 40
0.0
176
     1
 40
1.0
176
     1
 90
        0
176
     1
 62
    18
420
        0
176
     1
 90
       50
176
     1
 90
        3
176
     1
 62
     5
420
      255
176
     1
290
     0
176
     1
 90
       50
176
     1
 90
       50
176
     1
 90
       50
176
     1
290
     0
176
     1
 90
       50
176
     1
 62
   256
176
     0
 40
1.0
176
     0
 90
        2
176
     1
  1
strokes_ogs.tif
176
     1
290
     0
176
     1
 40
1.0
176
     1
 40
1.0
176
     1
  0
VISUALSTYLE
  5
36
102
{ACAD_REACTORS
330
2A
102
}
330
2A
100
AcDbVisualStyle
  2
Brighten
 70
    12
177
     3
291
     1
 70
    58
 90
        2
176
     1
 90
        2
176
     1
 90
        0
176
     1
 90
        0
176
     1
 40
0.6
176
     1
 40
30.0
176
     1
 62
     7
420
 16777215
176
     1
 90
        1
176
     1
 90
        4
176
     1
 62
     7
176
     1
 62
   257
176
     1
 90
        1
176
     1
 90
        1
176
     1
 40
1.0
176
     1
 90
        8
176
     1
 62
     7
176
     1
 40
1.0
176
     1
 90
        1
176
     1
 90
        6
176
     1
 90
        2
176
     1
 62
     7
176
     1
 90
        5
176
     1
 90
        0
176
     1
 90
        0
176
     1
290
     0
176
     1
 90
        1
176
     1
 40
50.0
176
     1
 90
        0
176
     1
290
     0
176
     1
290
     1
176
     1
290
     1
176
     1
290
     0
176
     1
290
     0
176
     1
290
     0
176
     1
290
     0
176
     1
290
     0
176
     1
290
     0
176
     1
 90
       50
176
     1
 40
0.0
176
     1
 40
1.0
176
     1
 90
        0
176
     1
 62
    18
420
        0
176
     1
 90
       50
176
     1
 90
        3
176
     1
 62
     5
420
      255
176
     1
290
     0
176
     1
 90
       50
176
     1
 90
       50
176
     1
 90
       50
176
     1
290
     0
176
     1
 90
       50
176
     1
 62
   256
176
     0
 40
1.0
176
     0
 90
        2
176
     1
  1
strokes_ogs.tif
176
     1
290
     0
176
     1
 40
1.0
176
     1
 40
1.0
176
     1
  0
VISUALSTYLE
  5
3A
102
{ACAD_REACTORS
330
2A
102
}
330
2A
100
AcDbVisualStyle
  2
ColorChange
 70
    16
177
     3
291
     1
 70
    58
 90
        2
176
     1
 90
        2
176
     1
 90
        3
176
     1
 90
        0
176
     1
 40
0.6
176
     1
 40
30.0
176
     1
 62
     8
420
  8421504
176
     1
 90
        1
176
     1
 90
        4
176
     1
 62
     7
176
     1
 62
   257
176
     1
 90
        1
176
     1
 90
        1
176
     1
 40
1.0
176
     1
 90
        8
176
     1
 62
     8
420
  8421504
176
     1
 40
1.0
176
     1
 90
        1
176
     1
 90
        6
176
     1
 90
        2
176
     1
 62
     7
176
     1
 90
        5
176
     1
 90
        0
176
     1
 90
        0
176
     1
290
     0
176
     1
 90
        1
176
     1
 40
0.0
176
     1
 90
        0
176
     1
290
     0
176
     1
290
     1
176
     1
290
     1
176
     1
290
     0
176
     1
290
     0
176
     1
290
     0
176
     1
290
     0
176
     1
290
     0
176
     1
290
     0
176
     1
 90
       50
176
     1
 40
0.0
176
     1
 40
1.0
176
     1
 90
        0
176
     1
 62
    18
420
        0
176
     1
 90
       50
176
     1
 90
        3
176
     1
 62
     5
420
      255
176
     1
290
     0
176
     1
 90
       50
176
     1
 90
       50
176
     1
 90
       50
176
     1
290
     0
176
     1
 90
       50
176
     1
 62
   256
176
     0
 40
1.0
176
     0
 90
        2
176
     1
  1
strokes_ogs.tif
176
     1
290
     0
176
     1
 40
1.0
176
     1
 40
1.0
176
     1
  0
VISUALSTYLE
  5
34
102
{ACAD_REACTORS
330
2A
102
}
330
2A
100
AcDbVisualStyle
  2
Conceptual
 70
     9
177
     3
291
     0
 70
    58
 90
        3
176
     1
 90
        2
176
     1
 90
        0
176
     1
 90
        0
176
     1
 40
0.6
176
     1
 40
30.0
176
     1
 62
     7
420
 16777215
176
     1
 90
        2
176
     1
 90
        2
176
     1
 62
     7
176
     1
 62
   257
176
     1
 90
        1
176
     1
 90
        1
176
     1
 40
179.0
176
     1
 90
        8
176
     1
 62
     7
176
     1
 40
1.0
176
     1
 90
        1
176
     1
 90
        6
176
     1
 90
        2
176
     1
 62
     7
176
     1
 90
        3
176
     1
 90
        0
176
     1
 90
        0
176
     1
290
     0
176
     1
 90
        1
176
     1
 40
0.0
176
     1
 90
        0
176
     1
290
     0
176
     1
290
     1
176
     1
290
     1
176
     1
290
     0
176
     1
290
     0
176
     1
290
     0
176
     1
290
     0
176
     1
290
     0
176
     1
290
     0
176
     1
 90
       50
176
     1
 40
0.0
176
     1
 40
1.0
176
     1
 90
        0
176
     1
 62
    18
420
        0
176
     1
 90
       50
176
     1
 90
        3
176
     1
 62
     5
420
      255
176
     1
290
     0
176
     1
 90
       50
176
     1
 90
       50
176
     1
 90
       50
176
     1
290
     0
176
     1
 90
       50
176
     1
 62
   256
176
     0
 40
1.0
176
     0
 90
        2
176
     1
  1
strokes_ogs.tif
176
     1
290
     0
176
     1
 40
1.0
176
     1
 40
1.0
176
     1
  0
VISUALSTYLE
  5
35
102
{ACAD_REACTORS
330
2A
102
}
330
2A
100
AcDbVisualStyle
  2
Dim
 70
    11
177
     3
291
     1
 70
    58
 90
        2
176
     1
 90
        2
176
     1
 90
        0
176
     1
 90
        0
176
     1
 40
0.6
176
     1
 40
30.0
176
     1
 62
     7
420
 16777215
176
     1
 90
        1
176
     1
 90
        4
176
     1
 62
     7
176
     1
 62
   257
176
     1
 90
        1
176
     1
 90
        1
176
     1
 40
1.0
176
     1
 90
        8
176
     1
 62
     7
176
     1
 40
1.0
176
     1
 90
        1
176
     1
 90
        6
176
     1
 90
        2
176
     1
 62
     7
176
     1
 90
        5
176
     1
 90
        0
176
     1
 90
        0
176
     1
290
     0
176
     1
 90
        1
176
     1
 40
-50.0
176
     1
 90
        0
176
     1
290
     0
176
     1
290
     1
176
     1
290
     1
176
     1
290
     0
176
     1
290
     0
176
     1
290
     0
176
     1
290
     0
176
     1
290
     0
176
     1
290
     0
176
     1
 90
       50
176
     1
 40
0.0
176
     1
 40
1.0
176
     1
 90
        0
176
     1
 62
    18
420
        0
176
     1
 90
       50
176
     1
 90
        3
176
     1
 62
     5
420
      255
176
     1
290
     0
176
     1
 90
       50
176
     1
 90
       50
176
     1
 90
       50
176
     1
290
     0
176
     1
 90
       50
176
     1
 62
   256
176
     0
 40
1.0
176
     0
 90
        2
176
     1
  1
strokes_ogs.tif
176
     1
290
     0
176
     1
 40
1.0
176
     1
 40
1.0
176
     1
  0
VISUALSTYLE
  5
3D
102
{ACAD_REACTORS
330
2A
102
}
330
2A
100
AcDbVisualStyle
  2
EdgeColorOff
 70
    22
177
     3
291
     1
 70
    58
 90
        2
176
     0
 90
        2
176
     0
 90
        0
176
     0
 90
        0
176
     0
 40
0.6
176
     0
 40
30.0
176
     0
 62
     7
420
 16777215
176
     0
 90
        1
176
     0
 90
        4
176
     0
 62
     7
176
     0
 62
   257
176
     0
 90
        1
176
     0
 90
        1
176
     0
 40
1.0
176
     0
 90
        8
176
     2
 62
     7
176
     0
 40
1.0
176
     0
 90
        1
176
     0
 90
        6
176
     0
 90
        2
176
     0
 62
     7
176
     0
 90
        5
176
     0
 90
        0
176
     0
 90
        0
176
     0
290
     0
176
     0
 90
        1
176
     0
 40
0.0
176
     0
 90
        0
176
     0
290
     0
176
     0
290
     1
176
     0
290
     1
176
     0
290
     0
176
     0
290
     0
176
     0
290
     0
176
     0
290
     0
176
     0
290
     0
176
     0
290
     0
176
     0
 90
       50
176
     0
 40
0.0
176
     0
 40
1.0
176
     0
 90
        0
176
     0
 62
    18
420
        0
176
     0
 90
       50
176
     0
 90
        3
176
     0
 62
     5
420
      255
176
     0
290
     0
176
     0
 90
       50
176
     0
 90
       50
176
     0
 90
       50
176
     0
290
     0
176
     0
 90
       50
176
     0
 62
   256
176
     0
 40
1.0
176
     0
 90
        2
176
     0
  1
strokes_ogs.tif
176
     0
290
     0
176
     0
 40
1.0
176
     0
 40
1.0
176
     0
  0
VISUALSTYLE
  5
39
102
{ACAD_REACTORS
330
2A
102
}
330
2A
100
AcDbVisualStyle
  2
Facepattern
 70
    15
177
     3
291
     1
 70
    58
 90
        2
176
     1
 90
        2
176
     1
 90
        0
176
     1
 90
        0
176
     1
 40
0.6
176
     1
 40
30.0
176
     1
 62
     7
420
 16777215
176
     1
 90
        1
176
     1
 90
        4
176
     1
 62
     7
176
     1
 62
   257
176
     1
 90
        1
176
     1
 90
        1
176
     1
 40
1.0
176
     1
 90
        8
176
     1
 62
     7
176
     1
 40
1.0
176
     1
 90
        1
176
     1
 90
        6
176
     1
 90
        2
176
     1
 62
     7
176
     1
 90
        5
176
     1
 90
        0
176
     1
 90
        0
176
     1
290
     0
176
     1
 90
        1
176
     1
 40
0.0
176
     1
 90
        0
176
     1
290
     0
176
     1
290
     1
176
     1
290
     1
176
     1
290
     0
176
     1
290
     0
176
     1
290
     0
176
     1
290
     0
176
     1
290
     0
176
     1
290
     0
176
     1
 90
       50
176
     1
 40
0.0
176
     1
 40
1.0
176
     1
 90
        0
176
     1
 62
    18
420
        0
176
     1
 90
       50
176
     1
 90
        3
176
     1
 62
     5
420
      255
176
     1
290
     0
176
     1
 90
       50
176
     1
 90
       50
176
     1
 90
       50
176
     1
290
     0
176
     1
 90
       50
176
     1
 62
   256
176
     0
 40
1.0
176
     0
 90
        2
176
     1
  1
strokes_ogs.tif
176
     1
290
     0
176
     1
 40
1.0
176
     1
 40
1.0
176
     1
  0
VISUALSTYLE
  5
2B
102
{ACAD_REACTORS
330
2A
102
}
330
2A
100
AcDbVisualStyle
  2
Flat
 70
     0
177
     3
291
     1
 70
    58
 90
        2
176
     1
 90
        1
176
     1
 90
        1
176
     1
 90
        2
176
     1
 40
0.6
176
     1
 40
30.0
176
     1
 62
     7
420
 16777215
176
     1
 90
        0
176
     1
 90
        0
176
     1
 62
     7
176
     1
 62
   257
176
     1
 90
        1
176
     1
 90
        1
176
     1
 40
1.0
176
     1
 90
        8
176
     1
 62
     7
176
     1
 40
1.0
176
     1
 90
        1
176
     1
 90
        6
176
     1
 90
        2
176
     1
 62
     7
176
     1
 90
        5
176
     1
 90
        0
176
     1
 90
        0
176
     1
290
     0
176
     1
 90
       13
176
     1
 40
0.0
176
     1
 90
        0
176
     1
290
     0
176
     1
290
     1
176
     1
290
     1
176
     1
290
     0
176
     1
290
     0
176
     1
290
     0
176
     1
290
     0
176
     1
290
     0
176
     1
290
     0
176
     1
 90
       50
176
     1
 40
0.0
176
     1
 40
1.0
176
     1
 90
        0
176
     1
 62
    18
420
        0
176
     1
 90
       50
176
     1
 90
        3
176
     1
 62
     5
420
      255
176
     1
290
     0
176
     1
 90
       50
176
     1
 90
       50
176
     1
 90
       50
176
     1
290
     0
176
     1
 90
       50
176
     1
 62
   256
176
     0
 40
1.0
176
     0
 90
        2
176
     1
  1
strokes_ogs.tif
176
     1
290
     0
176
     1
 40
1.0
176
     1
 40
1.0
176
     1
  0
VISUALSTYLE
  5
2C
102
{ACAD_REACTORS
330
2A
102
}
330
2A
100
AcDbVisualStyle
  2
FlatWithEdges
 70
     1
177
     3
291
     1
 70
    58
 90
        2
176
     1
 90
        1
176
     1
 90
        1
176
     1
 90
        2
176
     1
 40
0.6
176
     1
 40
30.0
176
     1
 62
     7
420
 16777215
176
     1
 90
        1
176
     1
 90
        0
176
     1
 62
     7
176
     1
 62
   257
176
     1
 90
        1
176
     1
 90
        1
176
     1
 40
1.0
176
     1
 90
        0
176
     1
 62
   257
176
     1
 40
1.0
176
     1
 90
        1
176
     1
 90
        6
176
     1
 90
        2
176
     1
 62
     7
176
     1
 90
        5
176
     1
 90
        0
176
     1
 90
        0
176
     1
290
     0
176
     1
 90
       13
176
     1
 40
0.0
176
     1
 90
        0
176
     1
290
     0
176
     1
290
     1
176
     1
290
     1
176
     1
290
     0
176
     1
290
     0
176
     1
290
     0
176
     1
290
     0
176
     1
290
     0
176
     1
290
     0
176
     1
 90
       50
176
     1
 40
0.0
176
     1
 40
1.0
176
     1
 90
        0
176
     1
 62
    18
420
        0
176
     1
 90
       50
176
     1
 90
        3
176
     1
 62
     5
420
      255
176
     1
290
     0
176
     1
 90
       50
176
     1
 90
       50
176
     1
 90
       50
176
     1
290
     0
176
     1
 90
       50
176
     1
 62
   256
176
     0
 40
1.0
176
     0
 90
        2
176
     1
  1
strokes_ogs.tif
176
     1
290
     0
176
     1
 40
1.0
176
     1
 40
1.0
176
     1
  0
VISUALSTYLE
  5
2D
102
{ACAD_REACTORS
330
2A
102
}
330
2A
100
AcDbVisualStyle
  2
Gouraud
 70
     2
177
     3
291
     1
 70
    58
 90
        2
176
     1
 90
        2
176
     1
 90
        1
176
     1
 90
        2
176
     1
 40
0.6
176
     1
 40
30.0
176
     1
 62
     7
420
 16777215
176
     1
 90
        0
176
     1
 90
        0
176
     1
 62
     7
176
     1
 62
   257
176
     1
 90
        1
176
     1
 90
        1
176
     1
 40
1.0
176
     1
 90
        0
176
     1
 62
     7
176
     1
 40
1.0
176
     1
 90
        1
176
     1
 90
        6
176
     1
 90
        2
176
     1
 62
     7
176
     1
 90
        5
176
     1
 90
        0
176
     1
 90
        0
176
     1
290
     0
176
     1
 90
       13
176
     1
 40
0.0
176
     1
 90
        0
176
     1
290
     0
176
     1
290
     1
176
     1
290
     1
176
     1
290
     0
176
     1
290
     0
176
     1
290
     0
176
     1
290
     0
176
     1
290
     0
176
     1
290
     0
176
     1
 90
       50
176
     1
 40
0.0
176
     1
 40
1.0
176
     1
 90
        0
176
     1
 62
    18
420
        0
176
     1
 90
       50
176
     1
 90
        3
176
     1
 62
     5
420
      255
176
     1
290
     0
176
     1
 90
       50
176
     1
 90
       50
176
     1
 90
       50
176
     1
290
     0
176
     1
 90
       50
176
     1
 62
   256
176
     0
 40
1.0
176
     0
 90
        2
176
     1
  1
strokes_ogs.tif
176
     1
290
     0
176
     1
 40
1.0
176
     1
 40
1.0
176
     1
  0
VISUALSTYLE
  5
2E
102
{ACAD_REACTORS
330
2A
102
}
330
2A
100
AcDbVisualStyle
  2
GouraudWithEdges
 70
     3
177
     3
291
     1
 70
    58
 90
        2
176
     1
 90
        2
176
     1
 90
        1
176
     1
 90
        2
176
     1
 40
0.6
176
     1
 40
30.0
176
     1
 62
     7
420
 16777215
176
     1
 90
        1
176
     1
 90
        0
176
     1
 62
     7
176
     1
 62
   257
176
     1
 90
        1
176
     1
 90
        1
176
     1
 40
1.0
176
     1
 90
        0
176
     1
 62
   257
176
     1
 40
1.0
176
     1
 90
        1
176
     1
 90
        6
176
     1
 90
        2
176
     1
 62
     7
176
     1
 90
        5
176
     1
 90
        0
176
     1
 90
        0
176
     1
290
     0
176
     1
 90
       13
176
     1
 40
0.0
176
     1
 90
        0
176
     1
290
     0
176
     1
290
     1
176
     1
290
     1
176
     1
290
     0
176
     1
290
     0
176
     1
290
     0
176
     1
290
     0
176
     1
290
     0
176
     1
290
     0
176
     1
 90
       50
176
     1
 40
0.0
176
     1
 40
1.0
176
     1
 90
        0
176
     1
 62
    18
420
        0
176
     1
 90
       50
176
     1
 90
        3
176
     1
 62
     5
420
      255
176
     1
290
     0
176
     1
 90
       50
176
     1
 90
       50
176
     1
 90
       50
176
     1
290
     0
176
     1
 90
       50
176
     1
 62
   256
176
     0
 40
1.0
176
     0
 90
        2
176
     1
  1
strokes_ogs.tif
176
     1
290
     0
176
     1
 40
1.0
176
     1
 40
1.0
176
     1
  0
VISUALSTYLE
  5
31
102
{ACAD_REACTORS
330
2A
102
}
330
2A
100
AcDbVisualStyle
  2
Hidden
 70
     6
177
     3
291
     0
 70
    58
 90
        1
176
     1
 90
        2
176
     1
 90
        2
176
     1
 90
        0
176
     1
 40
0.6
176
     1
 40
30.0
176
     1
 62
     7
420
 16777215
176
     1
 90
        2
176
     1
 90
        2
176
     1
 62
     7
176
     1
 62
   257
176
     1
 90
        2
176
     1
 90
        1
176
     1
 40
40.0
176
     1
 90
        0
176
     1
 62
   257
176
     1
 40
1.0
176
     1
 90
        1
176
     1
 90
        6
176
     1
 90
        2
176
     1
 62
     7
176
     1
 90
        3
176
     1
 90
        0
176
     1
 90
        0
176
     1
290
     0
176
     1
 90
        1
176
     1
 40
0.0
176
     1
 90
        0
176
     1
290
     0
176
     1
290
     1
176
     1
290
     1
176
     1
290
     0
176
     1
290
     0
176
     1
290
     0
176
     1
290
     0
176
     1
290
     0
176
     1
290
     0
176
     1
 90
       50
176
     1
 40
0.0
176
     1
 40
1.0
176
     1
 90
        0
176
     1
 62
    18
420
        0
176
     1
 90
       50
176
     1
 90
        3
176
     1
 62
     5
420
      255
176
     1
290
     0
176
     1
 90
       50
176
     1
 90
       50
176
     1
 90
       50
176
     1
290
     0
176
     1
 90
       50
176
     1
 62
   256
176
     0
 40
1.0
176
     0
 90
        2
176
     1
  1
strokes_ogs.tif
176
     1
290
     0
176
     1
 40
1.0
176
     1
 40
1.0
176
     1
  0
VISUALSTYLE
  5
3B
102
{ACAD_REACTORS
330
2A
102
}
330
2A
100
AcDbVisualStyle
  2
JitterOff
 70
    20
177
     3
291
     1
 70
    58
 90
        2
176
     0
 90
        2
176
     0
 90
        0
176
     0
 90
        0
176
     0
 40
0.6
176
     0
 40
30.0
176
     0
 62
     7
420
 16777215
176
     0
 90
        1
176
     0
 90
        4
176
     0
 62
     7
176
     0
 62
   257
176
     0
 90
        1
176
     0
 90
        1
176
     0
 40
1.0
176
     0
 90
       10
176
     2
 62
     7
176
     0
 40
1.0
176
     0
 90
        1
176
     0
 90
        6
176
     0
 90
        2
176
     0
 62
     7
176
     0
 90
        5
176
     0
 90
        0
176
     0
 90
        0
176
     0
290
     0
176
     0
 90
        1
176
     0
 40
0.0
176
     0
 90
        0
176
     0
290
     0
176
     0
290
     1
176
     0
290
     1
176
     0
290
     0
176
     0
290
     0
176
     0
290
     0
176
     0
290
     0
176
     0
290
     0
176
     0
290
     0
176
     0
 90
       50
176
     0
 40
0.0
176
     0
 40
1.0
176
     0
 90
        0
176
     0
 62
    18
420
        0
176
     0
 90
       50
176
     0
 90
        3
176
     0
 62
     5
420
      255
176
     0
290
     0
176
     0
 90
       50
176
     0
 90
       50
176
     0
 90
       50
176
     0
290
     0
176
     0
 90
       50
176
     0
 62
   256
176
     0
 40
1.0
176
     0
 90
        2
176
     0
  1
strokes_ogs.tif
176
     0
290
     0
176
     0
 40
1.0
176
     0
 40
1.0
176
     0
  0
VISUALSTYLE
  5
38
102
{ACAD_REACTORS
330
2A
102
}
330
2A
100
AcDbVisualStyle
  2
Linepattern
 70
    14
177
     3
291
     1
 70
    58
 90
        2
176
     1
 90
        2
176
     1
 90
        0
176
     1
 90
        0
176
     1
 40
0.6
176
     1
 40
30.0
176
     1
 62
     7
420
 16777215
176
     1
 90
        1
176
     1
 90
        4
176
     1
 62
     7
176
     1
 62
   257
176
     1
 90
        7
176
     1
 90
        7
176
     1
 40
1.0
176
     1
 90
        8
176
     1
 62
     7
176
     1
 40
1.0
176
     1
 90
        1
176
     1
 90
        6
176
     1
 90
        2
176
     1
 62
     7
176
     1
 90
        5
176
     1
 90
        0
176
     1
 90
        0
176
     1
290
     0
176
     1
 90
        1
176
     1
 40
0.0
176
     1
 90
        0
176
     1
290
     0
176
     1
290
     1
176
     1
290
     1
176
     1
290
     0
176
     1
290
     0
176
     1
290
     0
176
     1
290
     0
176
     1
290
     0
176
     1
290
     0
176
     1
 90
       50
176
     1
 40
0.0
176
     1
 40
1.0
176
     1
 90
        0
176
     1
 62
    18
420
        0
176
     1
 90
       50
176
     1
 90
        3
176
     1
 62
     5
420
      255
176
     1
290
     0
176
     1
 90
       50
176
     1
 90
       50
176
     1
 90
       50
176
     1
290
     0
176
     1
 90
       50
176
     1
 62
   256
176
     0
 40
1.0
176
     0
 90
        2
176
     1
  1
strokes_ogs.tif
176
     1
290
     0
176
     1
 40
1.0
176
     1
 40
1.0
176
     1
  0
VISUALSTYLE
  5
3C
102
{ACAD_REACTORS
330
2A
102
}
330
2A
100
AcDbVisualStyle
  2
OverhangOff
 70
    21
177
     3
291
     1
 70
    58
 90
        2
176
     0
 90
        2
176
     0
 90
        0
176
     0
 90
        0
176
     0
 40
0.6
176
     0
 40
30.0
176
     0
 62
     7
420
 16777215
176
     0
 90
        1
176
     0
 90
        4
176
     0
 62
     7
176
     0
 62
   257
176
     0
 90
        1
176
     0
 90
        1
176
     0
 40
1.0
176
     0
 90
        9
176
     2
 62
     7
176
     0
 40
1.0
176
     0
 90
        1
176
     0
 90
        6
176
     0
 90
        2
176
     0
 62
     7
176
     0
 90
        5
176
     0
 90
        0
176
     0
 90
        0
176
     0
290
     0
176
     0
 90
        1
176
     0
 40
0.0
176
     0
 90
        0
176
     0
290
     0
176
     0
290
     1
176
     0
290
     1
176
     0
290
     0
176
     0
290
     0
176
     0
290
     0
176
     0
290
     0
176
     0
290
     0
176
     0
290
     0
176
     0
 90
       50
176
     0
 40
0.0
176
     0
 40
1.0
176
     0
 90
        0
176
     0
 62
    18
420
        0
176
     0
 90
       50
176
     0
 90
        3
176
     0
 62
     5
420
      255
176
     0
290
     0
176
     0
 90
       50
176
     0
 90
       50
176
     0
 90
       50
176
     0
290
     0
176
     0
 90
       50
176
     0
 62
   256
176
     0
 40
1.0
176
     0
 90
        2
176
     0
  1
strokes_ogs.tif
176
     0
290
     0
176
     0
 40
1.0
176
     0
 40
1.0
176
     0
  0
VISUALSTYLE
  5
33
102
{ACAD_REACTORS
330
2A
102
}
330
2A
100
AcDbVisualStyle
  2
Realistic
 70
     8
177
     3
291
     0
 70
    58
 90
        2
176
     1
 90
        3
176
     1
 90
        0
176
     1
 90
        2
176
     1
 40
0.6
176
     1
 40
30.0
176
     1
 62
     7
420
 16777215
176
     1
 90
        0
176
     1
 90
        0
176
     1
 62
     7
176
     1
 62
   257
176
     1
 90
        1
176
     1
 90
        1
176
     1
 40
1.0
176
     1
 90
        8
176
     1
 62
   257
176
     1
 40
1.0
176
     1
 90
        1
176
     1
 90
        6
176
     1
 90
        2
176
     1
 62
     7
176
     1
 90
        3
176
     1
 90
        0
176
     1
 90
        0
176
     1
290
     0
176
     1
 90
       13
176
     1
 40
0.0
176
     1
 90
        0
176
     1
290
     0
176
     1
290
     1
176
     1
290
     1
176
     1
290
     0
176
     1
290
     0
176
     1
290
     0
176
     1
290
     0
176
     1
290
     0
176
     1
290
     0
176
     1
 90
       50
176
     1
 40
0.0
176
     1
 40
1.0
176
     1
 90
        0
176
     1
 62
    18
420
        0
176
     1
 90
       50
176
     1
 90
        3
176
     1
 62
     5
420
      255
176
     1
290
     0
176
     1
 90
       50
176
     1
 90
       50
176
     1
 90
       50
176
     1
290
     0
176
     1
 90
       50
176
     1
 62
   256
176
     0
 40
1.0
176
     0
 90
        2
176
     1
  1
strokes_ogs.tif
176
     1
290
     0
176
     1
 40
1.0
176
     1
 40
1.0
176
     1
  0
VISUALSTYLE
  5
42
102
{ACAD_REACTORS
330
2A
102
}
330
2A
100
AcDbVisualStyle
  2
Shaded
 70
    27
177
     3
291
     0
 70
    58
 90
        2
176
     1
 90
        2
176
     1
 90
        1
176
     1
 90
        2
176
     1
 40
0.6
176
     1
 40
30.0
176
     1
 62
     7
420
 16777215
176
     1
 90
        0
176
     1
 90
        4
176
     1
 62
     7
176
     1
 62
   257
176
     1
 90
        1
176
     1
 90
        1
176
     1
 40
1.0
176
     1
 90
        8
176
     1
 62
   257
176
     1
 40
1.0
176
     1
 90
        1
176
     1
 90
        6
176
     1
 90
        2
176
     1
 62
     8
420
  7895160
176
     1
 90
        3
176
     1
 90
        0
176
     1
 90
        0
176
     1
290
     0
176
     1
 90
        5
176
     1
 40
0.0
176
     1
 90
        0
176
     1
290
     0
176
     1
290
     1
176
     1
290
     1
176
     1
290
     0
176
     1
290
     0
176
     1
290
     0
176
     1
290
     0
176
     1
290
     0
176
     1
290
     0
176
     1
 90
       50
176
     1
 40
0.0
176
     1
 40
1.0
176
     1
 90
        0
176
     1
 62
    18
420
        0
176
     1
 90
       50
176
     1
 90
        3
176
     1
 62
     5
420
      255
176
     1
290
     0
176
     1
 90
       50
176
     1
 90
       50
176
     1
 90
       50
176
     1
290
     0
176
     1
 90
       50
176
     1
 62
   256
176
     0
 40
1.0
176
     0
 90
        2
176
     1
  1
strokes_ogs.tif
176
     1
290
     0
176
     1
 40
1.0
176
     1
 40
1.0
176
     1
  0
VISUALSTYLE
  5
41
102
{ACAD_REACTORS
330
2A
102
}
330
2A
100
AcDbVisualStyle
  2
Shaded with edges
 70
    26
177
     3
291
     0
 70
    58
 90
        2
176
     1
 90
        2
176
     1
 90
        1
176
     1
 90
        2
176
     1
 40
0.6
176
     1
 40
30.0
176
     1
 62
     7
420
 16777215
176
     1
 90
        1
176
     1
 90
       10
176
     1
 62
     7
176
     1
 62
   257
176
     1
 90
        2
176
     1
 90
        1
176
     1
 40
1.0
176
     1
 90
        8
176
     1
 62
   257
176
     1
 40
1.0
176
     1
 90
        1
176
     1
 90
        6
176
     1
 90
        2
176
     1
 62
     7
176
     1
 90
        3
176
     1
 90
        0
176
     1
 90
        0
176
     1
290
     0
176
     1
 90
        5
176
     1
 40
0.0
176
     1
 90
        0
176
     1
290
     0
176
     1
290
     1
176
     1
290
     1
176
     1
290
     0
176
     1
290
     0
176
     1
290
     0
176
     1
290
     0
176
     1
290
     0
176
     1
290
     0
176
     1
 90
       50
176
     1
 40
0.0
176
     1
 40
1.0
176
     1
 90
        0
176
     1
 62
    18
420
        0
176
     1
 90
       50
176
     1
 90
        3
176
     1
 62
     5
420
      255
176
     1
290
     0
176
     1
 90
       50
176
     1
 90
       50
176
     1
 90
       50
176
     1
290
     0
176
     1
 90
       50
176
     1
 62
   256
176
     0
 40
1.0
176
     0
 90
        2
176
     1
  1
strokes_ogs.tif
176
     1
290
     0
176
     1
 40
1.0
176
     1
 40
1.0
176
     1
  0
VISUALSTYLE
  5
3E
102
{ACAD_REACTORS
330
2A
102
}
330
2A
100
AcDbVisualStyle
  2
Shades of Gray
 70
    23
177
     3
291
     0
 70
    58
 90
        2
176
     1
 90
        2
176
     1
 90
        3
176
     1
 90
        0
176
     1
 40
0.6
176
     1
 40
30.0
176
     1
 62
     7
420
 16777215
176
     1
 90
        2
176
     1
 90
        2
176
     1
 62
     7
176
     1
 62
     7
176
     1
 90
        1
176
     1
 90
        1
176
     1
 40
40.0
176
     1
 90
        8
176
     1
 62
     7
176
     1
 40
1.0
176
     1
 90
        1
176
     1
 90
        6
176
     1
 90
        2
176
     1
 62
     7
176
     1
 90
        3
176
     1
 90
        0
176
     1
 90
        0
176
     1
290
     0
176
     1
 90
        1
176
     1
 40
0.0
176
     1
 90
        0
176
     1
290
     0
176
     1
290
     1
176
     1
290
     1
176
     1
290
     0
176
     1
290
     0
176
     1
290
     0
176
     1
290
     0
176
     1
290
     0
176
     1
290
     0
176
     1
 90
       50
176
     1
 40
0.0
176
     1
 40
1.0
176
     1
 90
        0
176
     1
 62
    18
420
        0
176
     1
 90
       50
176
     1
 90
        3
176
     1
 62
     5
420
      255
176
     1
290
     0
176
     1
 90
       50
176
     1
 90
       50
176
     1
 90
       50
176
     1
290
     0
176
     1
 90
       50
176
     1
 62
   256
176
     0
 40
1.0
176
     0
 90
        2
176
     1
  1
strokes_ogs.tif
176
     1
290
     0
176
     1
 40
1.0
176
     1
 40
1.0
176
     1
  0
VISUALSTYLE
  5
3F
102
{ACAD_REACTORS
330
2A
102
}
330
2A
100
AcDbVisualStyle
  2
Sketchy
 70
    24
177
     3
291
     0
 70
    58
 90
        1
176
     1
 90
        2
176
     1
 90
        2
176
     1
 90
        0
176
     1
 40
0.6
176
     1
 40
30.0
176
     1
 62
     7
420
 16777215
176
     1
 90
        2
176
     1
 90
        2
176
     1
 62
     7
176
     1
 62
     7
176
     1
 90
        1
176
     1
 90
        1
176
     1
 40
40.0
176
     1
 90
       11
176
     1
 62
     7
176
     1
 40
1.0
176
     1
 90
        1
176
     1
 90
        6
176
     1
 90
        2
176
     1
 62
     7
176
     1
 90
        6
176
     1
 90
        0
176
     1
 90
        0
176
     1
290
     0
176
     1
 90
        1
176
     1
 40
0.0
176
     1
 90
        0
176
     1
290
     0
176
     1
290
     1
176
     1
290
     1
176
     1
290
     0
176
     1
290
     0
176
     1
290
     0
176
     1
290
     0
176
     1
290
     0
176
     1
290
     0
176
     1
 90
       50
176
     1
 40
0.0
176
     1
 40
1.0
176
     1
 90
        0
176
     1
 62
    18
420
        0
176
     1
 90
       50
176
     1
 90
        3
176
     1
 62
     5
420
      255
176
     1
290
     0
176
     1
 90
       50
176
     1
 90
       50
176
     1
 90
       50
176
     1
290
     0
176
     1
 90
       50
176
     1
 62
   256
176
     0
 40
1.0
176
     0
 90
        2
176
     1
  1
strokes_ogs.tif
176
     1
290
     0
176
     1
 40
1.0
176
     1
 40
1.0
176
     1
  0
VISUALSTYLE
  5
37
102
{ACAD_REACTORS
330
2A
102
}
330
2A
100
AcDbVisualStyle
  2
Thicken
 70
    13
177
     3
291
     1
 70
    58
 90
        2
176
     1
 90
        2
176
     1
 90
        0
176
     1
 90
        0
176
     1
 40
0.6
176
     1
 40
30.0
176
     1
 62
     7
420
 16777215
176
     1
 90
        1
176
     1
 90
        4
176
     1
 62
     7
176
     1
 62
   257
176
     1
 90
        1
176
     1
 90
        1
176
     1
 40
1.0
176
     1
 90
       12
176
     1
 62
     7
176
     1
 40
1.0
176
     1
 90
        1
176
     1
 90
        6
176
     1
 90
        2
176
     1
 62
     7
176
     1
 90
        5
176
     1
 90
        0
176
     1
 90
        0
176
     1
290
     0
176
     1
 90
        1
176
     1
 40
0.0
176
     1
 90
        0
176
     1
290
     0
176
     1
290
     1
176
     1
290
     1
176
     1
290
     0
176
     1
290
     0
176
     1
290
     0
176
     1
290
     0
176
     1
290
     0
176
     1
290
     0
176
     1
 90
       50
176
     1
 40
0.0
176
     1
 40
1.0
176
     1
 90
        0
176
     1
 62
    18
420
        0
176
     1
 90
       50
176
     1
 90
        3
176
     1
 62
     5
420
      255
176
     1
290
     0
176
     1
 90
       50
176
     1
 90
       50
176
     1
 90
       50
176
     1
290
     0
176
     1
 90
       50
176
     1
 62
   256
176
     0
 40
1.0
176
     0
 90
        2
176
     1
  1
strokes_ogs.tif
176
     1
290
     0
176
     1
 40
1.0
176
     1
 40
1.0
176
     1
  0
VISUALSTYLE
  5
30
102
{ACAD_REACTORS
330
2A
102
}
330
2A
100
AcDbVisualStyle
  2
Wireframe
 70
     5
177
     3
291
     0
 70
    58
 90
        0
176
     1
 90
        2
176
     1
 90
        0
176
     1
 90
        0
176
     1
 40
0.6
176
     1
 40
30.0
176
     1
 62
     7
420
 16777215
176
     1
 90
        1
176
     1
 90
        4
176
     1
 62
     7
176
     1
 62
   257
176
     1
 90
        1
176
     1
 90
        1
176
     1
 40
1.0
176
     1
 90
        0
176
     1
 62
   257
176
     1
 40
1.0
176
     1
 90
        1
176
     1
 90
        6
176
     1
 90
        2
176
     1
 62
     7
176
     1
 90
        3
176
     1
 90
        0
176
     1
 90
        0
176
     1
290
     0
176
     1
 90
        1
176
     1
 40
0.0
176
     1
 90
        0
176
     1
290
     0
176
     1
290
     1
176
     1
290
     1
176
     1
290
     0
176
     1
290
     0
176
     1
290
     0
176
     1
290
     0
176
     1
290
     0
176
     1
290
     0
176
     1
 90
       50
176
     1
 40
0.0
176
     1
 40
1.0
176
     1
 90
        0
176
     1
 62
    18
420
        0
176
     1
 90
       50
176
     1
 90
        3
176
     1
 62
     5
420
      255
176
     1
290
     0
176
     1
 90
       50
176
     1
 90
       50
176
     1
 90
       50
176
     1
290
     0
176
     1
 90
       50
176
     1
 62
   256
176
     0
 40
1.0
176
     0
 90
        2
176
     1
  1
strokes_ogs.tif
176
     1
290
     0
176
     1
 40
1.0
176
     1
 40
1.0
176
     1
  0
VISUALSTYLE
  5
40
102
{ACAD_REACTORS
330
2A
102
}
330
2A
100
AcDbVisualStyle
  2
X-Ray
 70
    25
177
     3
291
     0
 70
    58
 90
        2
176
     1
 90
        2
176
     1
 90
        1
176
     1
 90
        1
176
     1
 40
0.5
176
     1
 40
30.0
176
     1
 62
     7
420
 16777215
176
     1
 90
        1
176
     1
 90
        0
176
     1
 62
     7
176
     1
 62
   257
176
     1
 90
        1
176
     1
 90
        1
176
     1
 40
1.0
176
     1
 90
        8
176
     1
 62
     7
176
     1
 40
1.0
176
     1
 90
        1
176
     1
 90
        6
176
     1
 90
        2
176
     1
 62
     7
176
     1
 90
        3
176
     1
 90
        0
176
     1
 90
        0
176
     1
290
     0
176
     1
 90
       13
176
     1
 40
0.0
176
     1
 90
        0
176
     1
290
     0
176
     1
290
     1
176
     1
290
     1
176
     1
290
     0
176
     1
290
     0
176
     1
290
     0
176
     1
290
     0
176
     1
290
     0
176
     1
290
     0
176
     1
 90
       50
176
     1
 40
0.0
176
     1
 40
1.0
176
     1
 90
        0
176
     1
 62
    18
420
        0
176
     1
 90
       50
176
     1
 90
        3
176
     1
 62
     5
420
      255
176
     1
290
     0
176
     1
 90
       50
176
     1
 90
       50
176
     1
 90
       50
176
     1
290
     0
176
     1
 90
       50
176
     1
 62
   256
176
     0
 40
1.0
176
     0
 90
        2
176
     1
  1
strokes_ogs.tif
176
     1
290
     0
176
     1
 40
1.0
176
     1
 40
1.0
176
     1
  0
DICTIONARYVAR
  5
4E5
102
{ACAD_REACTORS
330
4E4
102
}
330
4E4
100
DictionaryVariables
280
     0
  1
1:1
  0
DICTIONARYVAR
  5
4EA
102
{ACAD_REACTORS
330
4E4
102
}
330
4E4
100
DictionaryVariables
280
     0
  1
Standard
  0
DICTIONARYVAR
  5
4E9
102
{ACAD_REACTORS
330
4E4
102
}
330
4E4
100
DictionaryVariables
280
     0
  1
Standard
  0
DICTIONARY
  5
4E6
330
6A
100
AcDbDictionary
280
     1
281
     1
  3
ACAD_ROUNDTRIP_2008_TABLESTYLE_CELLSTYLEMAP
360
4E7
  0
CELLSTYLEMAP
  5
4E7
102
{ACAD_REACTORS
330
4E6
102
}
330
4E6
100
AcDbCellStyleMap
 90
        3
300
CELLSTYLE
  1
TABLEFORMAT_BEGIN
 90
        5
170
     1
 91
        0
 92
    32768
 62
   257
 93
        1
300
CONTENTFORMAT
  1
CONTENTFORMAT_BEGIN
 90
        0
 91
        0
 92
        4
 93
        0
300

 40
0.0
140
1.0
 94
        5
 62
     0
340
11
144
0.25
309
CONTENTFORMAT_END
171
     1
301
MARGIN
  1
CELLMARGIN_BEGIN
 40
0.06
 40
0.06
 40
0.06
 40
0.06
 40
0.06
 40
0.06
309
CELLMARGIN_END
 94
        6
 95
        1
302
GRIDFORMAT
  1
GRIDFORMAT_BEGIN
 90
        0
 91
        1
 62
     0
 92
       -2
340
14
 93
        0
 40
0.045
309
GRIDFORMAT_END
 95
        2
302
GRIDFORMAT
  1
GRIDFORMAT_BEGIN
 90
        0
 91
        1
 62
     0
 92
       -2
340
14
 93
        0
 40
0.045
309
GRIDFORMAT_END
 95
        4
302
GRIDFORMAT
  1
GRIDFORMAT_BEGIN
 90
        0
 91
        1
 62
     0
 92
       -2
340
14
 93
        0
 40
0.045
309
GRIDFORMAT_END
 95
        8
302
GRIDFORMAT
  1
GRIDFORMAT_BEGIN
 90
        0
 91
        1
 62
     0
 92
       -2
340
14
 93
        0
 40
0.045
309
GRIDFORMAT_END
 95
       16
302
GRIDFORMAT
  1
GRIDFORMAT_BEGIN
 90
        0
 91
        1
 62
     0
 92
       -2
340
14
 93
        0
 40
0.045
309
GRIDFORMAT_END
 95
       32
302
GRIDFORMAT
  1
GRIDFORMAT_BEGIN
 90
        0
 91
        1
 62
     0
 92
       -2
340
14
 93
        0
 40
0.045
309
GRIDFORMAT_END
309
TABLEFORMAT_END
  1
CELLSTYLE_BEGIN
 90
        1
 91
        1
300
_TITLE
309
CELLSTYLE_END
300
CELLSTYLE
  1
TABLEFORMAT_BEGIN
 90
        5
170
     1
 91
        0
 92
        0
 62
   257
 93
        1
300
CONTENTFORMAT
  1
CONTENTFORMAT_BEGIN
 90
        0
 91
        0
 92
        4
 93
        0
300

 40
0.0
140
1.0
 94
        5
 62
     0
340
11
144
0.18
309
CONTENTFORMAT_END
171
     1
301
MARGIN
  1
CELLMARGIN_BEGIN
 40
0.06
 40
0.06
 40
0.06
 40
0.06
 40
0.06
 40
0.06
309
CELLMARGIN_END
 94
        6
 95
        1
302
GRIDFORMAT
  1
GRIDFORMAT_BEGIN
 90
        0
 91
        1
 62
     0
 92
       -2
340
14
 93
        0
 40
0.045
309
GRIDFORMAT_END
 95
        2
302
GRIDFORMAT
  1
GRIDFORMAT_BEGIN
 90
        0
 91
        1
 62
     0
 92
       -2
340
14
 93
        0
 40
0.045
309
GRIDFORMAT_END
 95
        4
302
GRIDFORMAT
  1
GRIDFORMAT_BEGIN
 90
        0
 91
        1
 62
     0
 92
       -2
340
14
 93
        0
 40
0.045
309
GRIDFORMAT_END
 95
        8
302
GRIDFORMAT
  1
GRIDFORMAT_BEGIN
 90
        0
 91
        1
 62
     0
 92
       -2
340
14
 93
        0
 40
0.045
309
GRIDFORMAT_END
 95
       16
302
GRIDFORMAT
  1
GRIDFORMAT_BEGIN
 90
        0
 91
        1
 62
     0
 92
       -2
340
14
 93
        0
 40
0.045
309
GRIDFORMAT_END
 95
       32
302
GRIDFORMAT
  1
GRIDFORMAT_BEGIN
 90
        0
 91
        1
 62
     0
 92
       -2
340
14
 93
        0
 40
0.045
309
GRIDFORMAT_END
309
TABLEFORMAT_END
  1
CELLSTYLE_BEGIN
 90
        2
 91
        1
300
_HEADER
309
CELLSTYLE_END
300
CELLSTYLE
  1
TABLEFORMAT_BEGIN
 90
        5
170
     1
 91
        0
 92
        0
 62
   257
 93
        1
300
CONTENTFORMAT
  1
CONTENTFORMAT_BEGIN
 90
        0
 91
        0
 92
        4
 93
        0
300

 40
0.0
140
1.0
 94
        2
 62
     0
340
11
144
0.18
309
CONTENTFORMAT_END
171
     1
301
MARGIN
  1
CELLMARGIN_BEGIN
 40
0.06
 40
0.06
 40
0.06
 40
0.06
 40
0.06
 40
0.06
309
CELLMARGIN_END
 94
        6
 95
        1
302
GRIDFORMAT
  1
GRIDFORMAT_BEGIN
 90
        0
 91
        1
 62
     0
 92
       -2
340
14
 93
        0
 40
0.045
309
GRIDFORMAT_END
 95
        2
302
GRIDFORMAT
  1
GRIDFORMAT_BEGIN
 90
        0
 91
        1
 62
     0
 92
       -2
340
14
 93
        0
 40
0.045
309
GRIDFORMAT_END
 95
        4
302
GRIDFORMAT
  1
GRIDFORMAT_BEGIN
 90
        0
 91
        1
 62
     0
 92
       -2
340
14
 93
        0
 40
0.045
309
GRIDFORMAT_END
 95
        8
302
GRIDFORMAT
  1
GRIDFORMAT_BEGIN
 90
        0
 91
        1
 62
     0
 92
       -2
340
14
 93
        0
 40
0.045
309
GRIDFORMAT_END
 95
       16
302
GRIDFORMAT
  1
GRIDFORMAT_BEGIN
 90
        0
 91
        1
 62
     0
 92
       -2
340
14
 93
        0
 40
0.045
309
GRIDFORMAT_END
 95
       32
302
GRIDFORMAT
  1
GRIDFORMAT_BEGIN
 90
        0
 91
        1
 62
     0
 92
       -2
340
14
 93
        0
 40
0.045
309
GRIDFORMAT_END
309
TABLEFORMAT_END
  1
CELLSTYLE_BEGIN
 90
        3
 91
        2
300
_DATA
309
CELLSTYLE_END
  0
ENDSEC
  0
EOF
