  0
SECTION
  2
HEADER
  9
$ACADVER
  1
AC1032
  9
$ACADMAINTVER
 90
       55
  9
$DWGCODEPAGE
  3
ANSI_932
  9
$LASTSAVEDBY
  1
client05
  9
$REQUIREDVERSIONS
160
                 0
  9
$INSBASE
 10
0.0
 20
0.0
 30
0.0
  9
$EXTMIN
 10
-21.51656853181939
 20
-42.88407986305791
 30
0.0
  9
$EXTMAX
 10
253.4834314681806
 20
346.9184822922098
 30
0.0
  9
$LIMMIN
 10
0.0
 20
0.0
  9
$LIMMAX
 10
297.0
 20
210.0
  9
$ORTHOMODE
 70
     0
  9
$REGENMODE
 70
     1
  9
$FILLMODE
 70
     1
  9
$QTEXTMODE
 70
     0
  9
$MIRRTEXT
 70
     1
  9
$LTSCALE
 40
0.25
  9
$ATTMODE
 70
     1
  9
$TEXTSIZE
 40
5.0
  9
$TRACEWID
 40
0.05
  9
$TEXTSTYLE
  7
Standard
  9
$CLAYER
  8
0
  9
$CELTYPE
  6
ByLayer
  9
$CECOLOR
 62
   256
  9
$CELTSCALE
 40
1.0
  9
$DISPSILH
 70
     0
  9
$DIMSCALE
 40
1.0
  9
$DIMASZ
 40
4.0
  9
$DIMEXO
 40
2.0
  9
$DIMDLI
 40
10.0
  9
$DIMRND
 40
0.0
  9
$DIMDLE
 40
0.0
  9
$DIMEXE
 40
2.0
  9
$DIMTP
 40
0.0
  9
$DIMTM
 40
0.0
  9
$DIMTXT
 40
3.5
  9
$DIMCEN
 40
0.09
  9
$DIMTSZ
 40
0.0
  9
$DIMTOL
 70
     0
  9
$DIMLIM
 70
     0
  9
$DIMTIH
 70
     0
  9
$DIMTOH
 70
     0
  9
$DIMSE1
 70
     0
  9
$DIMSE2
 70
     0
  9
$DIMTAD
 70
     3
  9
$DIMZIN
 70
     8
  9
$DIMBLK
  1

  9
$DIMASO
 70
     1
  9
$DIMSHO
 70
     1
  9
$DIMPOST
  1

  9
$DIMAPOST
  1

  9
$DIMALT
 70
     0
  9
$DIMALTD
 70
     2
  9
$DIMALTF
 40
25.4
  9
$DIMLFAC
 40
1.0
  9
$DIMTOFL
 70
     1
  9
$DIMTVP
 40
0.7
  9
$DIMTIX
 70
     0
  9
$DIMSOXD
 70
     0
  9
$DIMSAH
 70
     0
  9
$DIMBLK1
  1

  9
$DIMBLK2
  1

  9
$DIMSTYLE
  2
Standard
  9
$DIMCLRD
 70
     0
  9
$DIMCLRE
 70
     0
  9
$DIMCLRT
 70
     0
  9
$DIMTFAC
 40
0.5
  9
$DIMGAP
 40
0.09
  9
$DIMJUST
 70
     0
  9
$DIMSD1
 70
     0
  9
$DIMSD2
 70
     0
  9
$DIMTOLJ
 70
     1
  9
$DIMTZIN
 70
     8
  9
$DIMALTZ
 70
     0
  9
$DIMALTTZ
 70
     0
  9
$DIMUPT
 70
     1
  9
$DIMDEC
 70
     2
  9
$DIMTDEC
 70
     4
  9
$DIMALTU
 70
     2
  9
$DIMALTTD
 70
     2
  9
$DIMTXSTY
  7
Standard
  9
$DIMAUNIT
 70
     0
  9
$DIMADEC
 70
     0
  9
$DIMALTRND
 40
0.0
  9
$DIMAZIN
 70
     0
  9
$DIMDSEP
 70
    46
  9
$DIMATFIT
 70
     2
  9
$DIMFRAC
 70
     0
  9
$DIMLDRBLK
  1

  9
$DIMLUNIT
 70
     2
  9
$DIMLWD
 70
    -2
  9
$DIMLWE
 70
    -2
  9
$DIMTMOVE
 70
     2
  9
$DIMFXL
 40
1.0
  9
$DIMFXLON
 70
     0
  9
$DIMJOGANG
 40
0.7853981633974483
  9
$DIMTFILL
 70
     0
  9
$DIMTFILLCLR
 70
     0
  9
$DIMARCSYM
 70
     0
  9
$DIMLTYPE
  6

  9
$DIMLTEX1
  6

  9
$DIMLTEX2
  6

  9
$DIMTXTDIRECTION
 70
     0
  9
$LUNITS
 70
     2
  9
$LUPREC
 70
     4
  9
$SKETCHINC
 40
0.1
  9
$FILLETRAD
 40
0.5
  9
$AUNITS
 70
     0
  9
$AUPREC
 70
     0
  9
$MENU
  1
.
  9
$ELEVATION
 40
0.0
  9
$PELEVATION
 40
0.0
  9
$THICKNESS
 40
0.0
  9
$LIMCHECK
 70
     0
  9
$CHAMFERA
 40
0.0
  9
$CHAMFERB
 40
0.0
  9
$CHAMFERC
 40
0.0
  9
$CHAMFERD
 40
0.0
  9
$SKPOLY
 70
     0
  9
$TDCREATE
 40
2459283.869641204
  9
$TDUCREATE
 40
2459283.494641204
  9
$TDUPDATE
 40
2459283.494649861
  9
$TDUUPDATE
 40
2459283.119649861
  9
$TDINDWG
 40
0.0000000116
  9
$TDUSRTIMER
 40
0.0000000116
  9
$USRTIMER
 70
     1
  9
$ANGBASE
 50
0.0
  9
$ANGDIR
 70
     0
  9
$PDMODE
 70
     0
  9
$PDSIZE
 40
0.0
  9
$PLINEWID
 40
0.0
  9
$SPLFRAME
 70
     0
  9
$SPLINETYPE
 70
     6
  9
$SPLINESEGS
 70
     8
  9
$HANDSEED
  5
3C6
  9
$SURFTAB1
 70
     6
  9
$SURFTAB2
 70
     6
  9
$SURFTYPE
 70
     6
  9
$SURFU
 70
     6
  9
$SURFV
 70
     6
  9
$UCSBASE
  2

  9
$UCSNAME
  2

  9
$UCSORG
 10
0.0
 20
0.0
 30
0.0
  9
$UCSXDIR
 10
1.0
 20
0.0
 30
0.0
  9
$UCSYDIR
 10
0.0
 20
1.0
 30
0.0
  9
$UCSORTHOREF
  2

  9
$UCSORTHOVIEW
 70
     0
  9
$UCSORGTOP
 10
0.0
 20
0.0
 30
0.0
  9
$UCSORGBOTTOM
 10
0.0
 20
0.0
 30
0.0
  9
$UCSORGLEFT
 10
0.0
 20
0.0
 30
0.0
  9
$UCSORGRIGHT
 10
0.0
 20
0.0
 30
0.0
  9
$UCSORGFRONT
 10
0.0
 20
0.0
 30
0.0
  9
$UCSORGBACK
 10
0.0
 20
0.0
 30
0.0
  9
$PUCSBASE
  2

  9
$PUCSNAME
  2

  9
$PUCSORG
 10
0.0
 20
0.0
 30
0.0
  9
$PUCSXDIR
 10
1.0
 20
0.0
 30
0.0
  9
$PUCSYDIR
 10
0.0
 20
1.0
 30
0.0
  9
$PUCSORTHOREF
  2

  9
$PUCSORTHOVIEW
 70
     0
  9
$PUCSORGTOP
 10
0.0
 20
0.0
 30
0.0
  9
$PUCSORGBOTTOM
 10
0.0
 20
0.0
 30
0.0
  9
$PUCSORGLEFT
 10
0.0
 20
0.0
 30
0.0
  9
$PUCSORGRIGHT
 10
0.0
 20
0.0
 30
0.0
  9
$PUCSORGFRONT
 10
0.0
 20
0.0
 30
0.0
  9
$PUCSORGBACK
 10
0.0
 20
0.0
 30
0.0
  9
$USERI1
 70
     0
  9
$USERI2
 70
     0
  9
$USERI3
 70
     0
  9
$USERI4
 70
     0
  9
$USERI5
 70
     0
  9
$USERR1
 40
0.0
  9
$USERR2
 40
0.0
  9
$USERR3
 40
0.0
  9
$USERR4
 40
0.0
  9
$USERR5
 40
0.0
  9
$WORLDVIEW
 70
     1
  9
$SHADEDGE
 70
     3
  9
$SHADEDIF
 70
    70
  9
$TILEMODE
 70
     1
  9
$MAXACTVP
 70
    64
  9
$PINSBASE
 10
0.0
 20
0.0
 30
0.0
  9
$PLIMCHECK
 70
     0
  9
$PEXTMIN
 10
0.0
 20
0.0
 30
0.0
  9
$PEXTMAX
 10
297.0
 20
210.0
 30
0.0
  9
$PLIMMIN
 10
0.0
 20
0.0
  9
$PLIMMAX
 10
297.0
 20
210.0
  9
$UNITMODE
 70
     0
  9
$VISRETAIN
 70
     1
  9
$PLINEGEN
 70
     0
  9
$PSLTSCALE
 70
     1
  9
$TREEDEPTH
 70
  3020
  9
$CMLSTYLE
  2
Standard
  9
$CMLJUST
 70
     0
  9
$CMLSCALE
 40
1.0
  9
$PROXYGRAPHICS
 70
     1
  9
$MEASUREMENT
 70
     1
  9
$CELWEIGHT
370
    -1
  9
$ENDCAPS
280
     0
  9
$JOINSTYLE
280
     0
  9
$LWDISPLAY
290
     0
  9
$INSUNITS
 70
     4
  9
$HYPERLINKBASE
  1

  9
$STYLESHEET
  1

  9
$XEDIT
290
     1
  9
$CEPSNTYPE
380
     0
  9
$PSTYLEMODE
290
     1
  9
$FINGERPRINTGUID
  2
{2cc01244-5b17-418c-8a0b-5506d44f1863}
  9
$VERSIONGUID
  2
{FAEB1C32-E019-11D5-929B-00C0DF256EC4}
  9
$EXTNAMES
290
     1
  9
$PSVPSCALE
 40
0.0
  9
$OLESTARTUP
290
     0
  9
$SORTENTS
280
   127
  9
$INDEXCTL
280
     0
  9
$HIDETEXT
280
     1
  9
$XCLIPFRAME
280
     2
  9
$HALOGAP
280
     0
  9
$OBSCOLOR
 70
   257
  9
$OBSLTYPE
280
     0
  9
$INTERSECTIONDISPLAY
280
     0
  9
$INTERSECTIONCOLOR
 70
   257
  9
$DIMASSOC
280
     1
  9
$PROJECTNAME
  1

  9
$CAMERADISPLAY
290
     0
  9
$LENSLENGTH
 40
50.0
  9
$CAMERAHEIGHT
 40
0.0
  9
$STEPSPERSEC
 40
2.0
  9
$STEPSIZE
 40
6.0
  9
$3DDWFPREC
 40
2.0
  9
$PSOLWIDTH
 40
0.25
  9
$PSOLHEIGHT
 40
4.0
  9
$LOFTANG1
 40
1.570796326794897
  9
$LOFTANG2
 40
1.570796326794897
  9
$LOFTMAG1
 40
0.0
  9
$LOFTMAG2
 40
0.0
  9
$LOFTPARAM
 70
     7
  9
$LOFTNORMALS
280
     1
  9
$LATITUDE
 40
37.795
  9
$LONGITUDE
 40
-122.394
  9
$NORTHDIRECTION
 40
0.0
  9
$TIMEZONE
 70
 -8000
  9
$LIGHTGLYPHDISPLAY
280
     1
  9
$TILEMODELIGHTSYNCH
280
     1
  9
$CMATERIAL
347
44
  9
$SOLIDHIST
280
     0
  9
$SHOWHIST
280
     1
  9
$DWFFRAME
280
     2
  9
$DGNFRAME
280
     2
  9
$REALWORLDSCALE
290
     1
  9
$INTERFERECOLOR
 62
   256
  9
$CSHADOW
280
     0
  9
$SHADOWPLANELOCATION
 40
0.0
  0
ENDSEC
  0
SECTION
  2
CLASSES
  0
CLASS
  1
ACDBDICTIONARYWDFLT
  2
AcDbDictionaryWithDefault
  3
ObjectDBX Classes
 90
        0
 91
        3
280
     0
281
     0
  0
CLASS
  1
VISUALSTYLE
  2
AcDbVisualStyle
  3
ObjectDBX Classes
 90
     4095
 91
        3
280
     0
281
     0
  0
CLASS
  1
MATERIAL
  2
AcDbMaterial
  3
ObjectDBX Classes
 90
     1153
 91
        3
280
     0
281
     0
  0
CLASS
  1
SCALE
  2
AcDbScale
  3
ObjectDBX Classes
 90
     1153
 91
        3
280
     0
281
     0
  0
CLASS
  1
TABLESTYLE
  2
AcDbTableStyle
  3
ObjectDBX Classes
 90
     4095
 91
        3
280
     0
281
     0
  0
CLASS
  1
MLEADERSTYLE
  2
AcDbMLeaderStyle
  3
ACDB_MLEADERSTYLE_CLASS
 90
     4095
 91
        3
280
     0
281
     0
  0
CLASS
  1
SUN
  2
AcDbSun
  3
SCENEOE
 90
     1153
 91
        3
280
     0
281
     0
  0
CLASS
  1
DICTIONARYVAR
  2
AcDbDictionaryVar
  3
ObjectDBX Classes
 90
        0
 91
        3
280
     0
281
     0
  0
CLASS
  1
CELLSTYLEMAP
  2
AcDbCellStyleMap
  3
ObjectDBX Classes
 90
     1152
 91
        3
280
     0
281
     0
  0
ENDSEC
  0
SECTION
  2
TABLES
  0
TABLE
  2
VPORT
  5
8
330
0
100
AcDbSymbolTable
 70
     1
  0
VPORT
  5
29
330
8
100
AcDbSymbolTableRecord
100
AcDbViewportTableRecord
  2
*Active
 70
     0
 10
0.0
 20
0.0
 11
1.0
 21
1.0
 12
10.42990654205607
 22
4.5
 13
0.0
 23
0.0
 14
0.5
 24
0.5
 15
0.5
 25
0.5
 16
0.0
 26
0.0
 36
1.0
 17
0.0
 27
0.0
 37
0.0
 40
9.0
 41
1.972972972850329
 42
50.0
 43
0.0
 44
0.0
 50
0.0
 51
0.0
 71
     0
 72
   100
 73
     1
 74
     3
 75
     0
 76
     0
 77
     0
 78
     0
281
     0
 65
     1
110
0.0
120
0.0
130
0.0
111
1.0
121
0.0
131
0.0
112
0.0
122
1.0
132
0.0
 79
     0
146
0.0
348
2F
 60
     3
 61
     5
292
     1
282
     1
141
0.0
142
0.0
 63
   250
361
6D
  0
ENDTAB
  0
TABLE
  2
LTYPE
  5
5
330
0
100
AcDbSymbolTable
 70
     9
  0
LTYPE
  5
14
330
5
100
AcDbSymbolTableRecord
100
AcDbLinetypeTableRecord
  2
ByBlock
 70
     0
  3

 72
    65
 73
     0
 40
0.0
  0
LTYPE
  5
15
330
5
100
AcDbSymbolTableRecord
100
AcDbLinetypeTableRecord
  2
ByLayer
 70
     0
  3

 72
    65
 73
     0
 40
0.0
  0
LTYPE
  5
16
330
5
100
AcDbSymbolTableRecord
100
AcDbLinetypeTableRecord
  2
Continuous
 70
     0
  3
Solid line
 72
    65
 73
     0
 40
0.0
  0
LTYPE
  5
BC
330
5
100
AcDbSymbolTableRecord
100
AcDbLinetypeTableRecord
  2
DOT
 70
     0
  3
DOT
 72
    65
 73
     2
 40
4.0
 49
6.0
 74
     0
 49
-2.0
 74
     0
  0
LTYPE
  5
BD
330
5
100
AcDbSymbolTableRecord
100
AcDbLinetypeTableRecord
  2
HIDDEN
 70
     0
  3
HIDDEN
 72
    65
 73
     2
 40
4.2
 49
8.4
 74
     0
 49
-4.2
 74
     0
  0
LTYPE
  5
BE
330
5
100
AcDbSymbolTableRecord
100
AcDbLinetypeTableRecord
  2
DASHDOT
 70
     0
  3
DASHDOT
 72
    65
 73
     4
 40
14.5
 49
30.0
 74
     0
 49
-9.0
 74
     0
 49
2.5
 74
     0
 49
-9.0
 74
     0
  0
LTYPE
  5
BF
330
5
100
AcDbSymbolTableRecord
100
AcDbLinetypeTableRecord
  2
PHANTOM
 70
     0
  3
PHANTOM
 72
    65
 73
     6
 40
12.0
 49
30.0
 74
     0
 49
-9.0
 74
     0
 49
2.5
 74
     0
 49
-5.0
 74
     0
 49
2.5
 74
     0
 49
-9.0
 74
     0
  0
LTYPE
  5
C0
330
5
100
AcDbSymbolTableRecord
100
AcDbLinetypeTableRecord
  2
ACAD_ISO14W100
 70
     0
  3
ACAD_ISO14W100
 72
    65
 73
     8
 40
1.5
 49
12.0
 74
     0
 49
-3.0
 74
     0
 49
0.5
 74
     0
 49
-3.0
 74
     0
 49
0.5
 74
     0
 49
-3.0
 74
     0
 49
0.5
 74
     0
 49
-3.0
 74
     0
  0
LTYPE
  5
C1
330
5
100
AcDbSymbolTableRecord
100
AcDbLinetypeTableRecord
  2
ACAD_ISO06W100
 70
     0
  3
ACAD_ISO06W100
 72
    65
 73
     8
 40
13.5
 49
24.0
 74
     0
 49
-3.0
 74
     0
 49
0.5
 74
     0
 49
-3.0
 74
     0
 49
0.5
 74
     0
 49
-3.0
 74
     0
 49
0.5
 74
     0
 49
-3.0
 74
     0
  0
LTYPE
  5
C2
330
5
100
AcDbSymbolTableRecord
100
AcDbLinetypeTableRecord
  2
ACAD_ISO11W100
 70
     0
  3
ACAD_ISO11W100
 72
    65
 73
     6
 40
15.5
 49
12.0
 74
     0
 49
-3.0
 74
     0
 49
12.0
 74
     0
 49
-3.0
 74
     0
 49
0.5
 74
     0
 49
-3.0
 74
     0
  0
LTYPE
  5
C3
330
5
100
AcDbSymbolTableRecord
100
AcDbLinetypeTableRecord
  2
ACAD_ISO13W100
 70
     0
  3
ACAD_ISO13W100
 72
    65
 73
     8
 40
13.0
 49
12.0
 74
     0
 49
-3.0
 74
     0
 49
12.0
 74
     0
 49
-3.0
 74
     0
 49
0.5
 74
     0
 49
-3.0
 74
     0
 49
0.5
 74
     0
 49
-3.0
 74
     0
  0
ENDTAB
  0
TABLE
  2
LAYER
  5
2
330
0
100
AcDbSymbolTable
 70
    25
  0
LAYER
  5
10
330
2
100
AcDbSymbolTableRecord
100
AcDbLayerTableRecord
  2
0
 70
     0
 62
     7
  6
Continuous
370
    -3
390
F
347
46
348
0
  0
LAYER
  5
C4
330
2
100
AcDbSymbolTableRecord
100
AcDbLayerTableRecord
  2
1
 70
     0
 62
     7
  6
Continuous
370
     9
390
F
347
46
348
0
  0
LAYER
  5
C5
330
2
100
AcDbSymbolTableRecord
100
AcDbLayerTableRecord
  2
2
 70
     0
 62
   136
420
    32896
  6
Continuous
370
     9
390
F
347
46
348
0
  0
LAYER
  5
C6
330
2
100
AcDbSymbolTableRecord
100
AcDbLayerTableRecord
  2
3
 70
     0
 62
   216
420
  8388736
  6
Continuous
370
     9
390
F
347
46
348
0
  0
LAYER
  5
C7
330
2
100
AcDbSymbolTableRecord
100
AcDbLayerTableRecord
  2
4
 70
     0
 62
    56
420
  8421376
  6
Continuous
370
     9
390
F
347
46
348
0
  0
LAYER
  5
C8
330
2
100
AcDbSymbolTableRecord
100
AcDbLayerTableRecord
  2
5
 70
     0
 62
    96
420
    32768
  6
Continuous
370
     9
390
F
347
46
348
0
  0
LAYER
  5
C9
330
2
100
AcDbSymbolTableRecord
100
AcDbLayerTableRecord
  2
6
 70
     0
 62
    16
420
  8388608
  6
Continuous
370
     9
390
F
347
46
348
0
  0
LAYER
  5
CA
330
2
100
AcDbSymbolTableRecord
100
AcDbLayerTableRecord
  2
7
 70
     0
 62
     4
  6
Continuous
370
     9
390
F
347
46
348
0
  0
LAYER
  5
CB
330
2
100
AcDbSymbolTableRecord
100
AcDbLayerTableRecord
  2
8
 70
     0
 62
     6
  6
Continuous
370
     9
390
F
347
46
348
0
  0
LAYER
  5
CC
330
2
100
AcDbSymbolTableRecord
100
AcDbLayerTableRecord
  2
9
 70
     0
 62
     2
  6
Continuous
370
     9
390
F
347
46
348
0
  0
LAYER
  5
CD
330
2
100
AcDbSymbolTableRecord
100
AcDbLayerTableRecord
  2
10
 70
     0
 62
     3
  6
Continuous
370
     9
390
F
347
46
348
0
  0
LAYER
  5
CE
330
2
100
AcDbSymbolTableRecord
100
AcDbLayerTableRecord
  2
11
 70
     0
 62
     8
420
  8421504
  6
Continuous
370
     9
390
F
347
46
348
0
  0
LAYER
  5
CF
330
2
100
AcDbSymbolTableRecord
100
AcDbLayerTableRecord
  2
12
 70
     0
 62
   138
420
    20560
  6
Continuous
370
     9
390
F
347
46
348
0
  0
LAYER
  5
D0
330
2
100
AcDbSymbolTableRecord
100
AcDbLayerTableRecord
  2
13
 70
     0
 62
   218
420
  5242960
  6
Continuous
370
     9
390
F
347
46
348
0
  0
LAYER
  5
D1
330
2
100
AcDbSymbolTableRecord
100
AcDbLayerTableRecord
  2
14
 70
     0
 62
    58
420
  5263360
  6
Continuous
370
     9
390
F
347
46
348
0
  0
LAYER
  5
D2
330
2
100
AcDbSymbolTableRecord
100
AcDbLayerTableRecord
  2
15
 70
     0
 62
    98
420
    20480
  6
Continuous
370
     9
390
F
347
46
348
0
  0
LAYER
  5
D3
330
2
100
AcDbSymbolTableRecord
100
AcDbLayerTableRecord
  2
16
 70
     0
 62
    18
420
  5242880
  6
Continuous
370
     9
390
F
347
46
348
0
  0
LAYER
  5
D4
330
2
100
AcDbSymbolTableRecord
100
AcDbLayerTableRecord
  2
17
 70
     0
 62
   132
420
    49344
  6
Continuous
370
     9
390
F
347
46
348
0
  0
LAYER
  5
D5
330
2
100
AcDbSymbolTableRecord
100
AcDbLayerTableRecord
  2
18
 70
     0
 62
   212
420
 12583104
  6
Continuous
370
     9
390
F
347
46
348
0
  0
LAYER
  5
D6
330
2
100
AcDbSymbolTableRecord
100
AcDbLayerTableRecord
  2
19
 70
     0
 62
    52
420
 12632064
  6
Continuous
370
     9
390
F
347
46
348
0
  0
LAYER
  5
D7
330
2
100
AcDbSymbolTableRecord
100
AcDbLayerTableRecord
  2
20
 70
     0
 62
   251
420
  5263440
  6
Continuous
370
     9
390
F
347
46
348
0
  0
LAYER
  5
D8
330
2
100
AcDbSymbolTableRecord
100
AcDbLayerTableRecord
  2
21
 70
     0
 62
     7
  6
Continuous
370
     9
390
F
347
46
348
0
  0
LAYER
  5
D9
330
2
100
AcDbSymbolTableRecord
100
AcDbLayerTableRecord
  2
100
 70
     0
 62
     7
  6
Continuous
370
     9
390
F
347
46
348
0
  0
LAYER
  5
DA
330
2
100
AcDbSymbolTableRecord
100
AcDbLayerTableRecord
  2
101
 70
     0
 62
     7
  6
Continuous
370
     9
390
F
347
46
348
0
  0
LAYER
  5
DB
330
2
100
AcDbSymbolTableRecord
100
AcDbLayerTableRecord
  2
102
 70
     0
 62
     7
  6
Continuous
370
     9
390
F
347
46
348
0
  0
ENDTAB
  0
TABLE
  2
STYLE
  5
3
330
0
100
AcDbSymbolTable
 70
     2
  0
STYLE
  5
11
330
3
100
AcDbSymbolTableRecord
100
AcDbTextStyleTableRecord
  2
Standard
 70
     0
 40
0.0
 41
1.0
 50
0.0
 71
     0
 42
5.0
  3
txt
  4
bigfont
  0
STYLE
  5
6F
330
3
100
AcDbSymbolTableRecord
100
AcDbTextStyleTableRecord
  2
T_STANDARD
 70
     4
 40
10.0
 41
1.0
 50
0.0
 71
     0
 42
5.0
  3
txt
  4
bigfont
1001
ACAD
1000

1071
      256
  0
ENDTAB
  0
TABLE
  2
VIEW
  5
6
330
0
100
AcDbSymbolTable
 70
     0
  0
ENDTAB
  0
TABLE
  2
UCS
  5
7
330
0
100
AcDbSymbolTable
 70
     0
  0
ENDTAB
  0
TABLE
  2
APPID
  5
9
330
0
100
AcDbSymbolTable
 70
     2
  0
APPID
  5
12
330
9
100
AcDbSymbolTableRecord
100
AcDbRegAppTableRecord
  2
ACAD
 70
     0
  0
APPID
  5
6E
330
9
100
AcDbSymbolTableRecord
100
AcDbRegAppTableRecord
  2
ODA
 70
     0
  0
ENDTAB
  0
TABLE
  2
DIMSTYLE
  5
A
330
0
100
AcDbSymbolTable
 70
     1
100
AcDbDimStyleTable
  0
DIMSTYLE
105
27
330
A
100
AcDbSymbolTableRecord
100
AcDbDimStyleTableRecord
  2
Standard
 70
     0
178
     0
340
11
  0
ENDTAB
  0
TABLE
  2
BLOCK_RECORD
  5
1
330
0
100
AcDbSymbolTable
 70
    16
  0
BLOCK_RECORD
  5
1F
330
1
100
AcDbSymbolTableRecord
100
AcDbBlockTableRecord
  2
*Model_Space
340
22
 70
     0
280
     1
281
     0
  0
BLOCK_RECORD
  5
1B
330
1
100
AcDbSymbolTableRecord
100
AcDbBlockTableRecord
  2
*Paper_Space
340
1E
 70
     0
280
     1
281
     0
  0
BLOCK_RECORD
  5
23
330
1
100
AcDbSymbolTableRecord
100
AcDbBlockTableRecord
  2
*Paper_Space0
340
26
 70
     0
280
     1
281
     0
  0
BLOCK_RECORD
  5
70
330
1
100
AcDbSymbolTableRecord
100
AcDbBlockTableRecord
  2
_ORIGIN
340
0
 70
     0
280
     1
281
     0
  0
BLOCK_RECORD
  5
75
330
1
100
AcDbSymbolTableRecord
100
AcDbBlockTableRecord
  2
_DOTBLANK
340
0
 70
     0
280
     1
281
     0
  0
BLOCK_RECORD
  5
7A
330
1
100
AcDbSymbolTableRecord
100
AcDbBlockTableRecord
  2
_DOT
340
0
 70
     0
280
     1
281
     0
  0
BLOCK_RECORD
  5
7F
330
1
100
AcDbSymbolTableRecord
100
AcDbBlockTableRecord
  2
_OPEN
340
0
 70
     0
280
     1
281
     0
  0
BLOCK_RECORD
  5
85
330
1
100
AcDbSymbolTableRecord
100
AcDbBlockTableRecord
  2
_CLOSED
340
0
 70
     0
280
     1
281
     0
  0
BLOCK_RECORD
  5
8C
330
1
100
AcDbSymbolTableRecord
100
AcDbBlockTableRecord
  2
_CLOSEDBLANK
340
0
 70
     0
280
     1
281
     0
  0
BLOCK_RECORD
  5
92
330
1
100
AcDbSymbolTableRecord
100
AcDbBlockTableRecord
  2
_ARROWFILLED
340
0
 70
     0
280
     1
281
     0
  0
BLOCK_RECORD
  5
96
330
1
100
AcDbSymbolTableRecord
100
AcDbBlockTableRecord
  2
_BOXBLANK
340
0
 70
     0
280
     1
281
     0
  0
BLOCK_RECORD
  5
9E
330
1
100
AcDbSymbolTableRecord
100
AcDbBlockTableRecord
  2
_BOXFILLED
340
0
 70
     0
280
     1
281
     0
  0
BLOCK_RECORD
  5
A3
330
1
100
AcDbSymbolTableRecord
100
AcDbBlockTableRecord
  2
_INTEGRAL
340
0
 70
     0
280
     1
281
     0
  0
BLOCK_RECORD
  5
A8
330
1
100
AcDbSymbolTableRecord
100
AcDbBlockTableRecord
  2
_OBLIQUE
340
0
 70
     0
280
     1
281
     0
  0
BLOCK_RECORD
  5
AC
330
1
100
AcDbSymbolTableRecord
100
AcDbBlockTableRecord
  2
_NONE
340
0
 70
     0
280
     1
281
     0
  0
BLOCK_RECORD
  5
AF
330
1
100
AcDbSymbolTableRecord
100
AcDbBlockTableRecord
  2
MARK_OPEN
340
0
 70
     0
280
     1
281
     0
  0
BLOCK_RECORD
  5
B4
330
1
100
AcDbSymbolTableRecord
100
AcDbBlockTableRecord
  2
MARK_ORIGIN
340
0
 70
     0
280
     1
281
     0
  0
BLOCK_RECORD
  5
B8
330
1
100
AcDbSymbolTableRecord
100
AcDbBlockTableRecord
  2
MARK_DOT
340
0
 70
     0
280
     1
281
     0
  0
ENDTAB
  0
ENDSEC
  0
SECTION
  2
BLOCKS
  0
BLOCK
  5
20
330
1F
100
AcDbEntity
  8
0
100
AcDbBlockBegin
  2
*Model_Space
 70
     0
 10
0.0
 20
0.0
 30
0.0
  3
*Model_Space
  1

  0
ENDBLK
  5
21
330
1F
100
AcDbEntity
  8
0
100
AcDbBlockEnd
  0
BLOCK
  5
1C
330
1B
100
AcDbEntity
 67
     1
  8
0
100
AcDbBlockBegin
  2
*Paper_Space
 70
     0
 10
0.0
 20
0.0
 30
0.0
  3
*Paper_Space
  1

  0
ENDBLK
  5
1D
330
1B
100
AcDbEntity
 67
     1
  8
0
100
AcDbBlockEnd
  0
BLOCK
  5
24
330
23
100
AcDbEntity
  8
0
100
AcDbBlockBegin
  2
*Paper_Space0
 70
     0
 10
0.0
 20
0.0
 30
0.0
  3
*Paper_Space0
  1

  0
ENDBLK
  5
25
330
23
100
AcDbEntity
  8
0
100
AcDbBlockEnd
  0
BLOCK
  5
73
330
70
100
AcDbEntity
  8
0
100
AcDbBlockBegin
  2
_ORIGIN
 70
     0
 10
0.0
 20
0.0
 30
0.0
  3
_ORIGIN
  1

  0
CIRCLE
  5
71
330
70
100
AcDbEntity
  8
0
 62
     0
100
AcDbCircle
 10
0.0
 20
0.0
 30
0.0
 40
0.5
  0
LINE
  5
72
330
70
100
AcDbEntity
  8
0
 62
     0
100
AcDbLine
 10
0.0
 20
0.0
 30
0.0
 11
-1.0
 21
0.0
 31
0.0
  0
ENDBLK
  5
74
330
70
100
AcDbEntity
  8
0
100
AcDbBlockEnd
  0
BLOCK
  5
78
330
75
100
AcDbEntity
  8
0
100
AcDbBlockBegin
  2
_DOTBLANK
 70
     0
 10
0.0
 20
0.0
 30
0.0
  3
_DOTBLANK
  1

  0
CIRCLE
  5
76
330
75
100
AcDbEntity
  8
0
 62
     0
100
AcDbCircle
 10
0.0
 20
0.0
 30
0.0
 40
0.5
  0
LINE
  5
77
330
75
100
AcDbEntity
  8
0
 62
     0
100
AcDbLine
 10
-0.5
 20
0.0
 30
0.0
 11
-1.0
 21
0.0
 31
0.0
  0
ENDBLK
  5
79
330
75
100
AcDbEntity
  8
0
100
AcDbBlockEnd
  0
BLOCK
  5
7D
330
7A
100
AcDbEntity
  8
0
100
AcDbBlockBegin
  2
_DOT
 70
     0
 10
0.0
 20
0.0
 30
0.0
  3
_DOT
  1

  0
LWPOLYLINE
  5
7B
330
7A
100
AcDbEntity
  8
0
 62
     0
100
AcDbPolyline
 90
        2
 70
     1
 43
0.5
 10
-0.25
 20
0.0
 42
1.0
 10
0.25
 20
0.0
 42
1.0
  0
LINE
  5
7C
330
7A
100
AcDbEntity
  8
0
 62
     0
100
AcDbLine
 10
-0.5
 20
0.0
 30
0.0
 11
-1.0
 21
0.0
 31
0.0
  0
ENDBLK
  5
7E
330
7A
100
AcDbEntity
  8
0
100
AcDbBlockEnd
  0
BLOCK
  5
83
330
7F
100
AcDbEntity
  8
0
100
AcDbBlockBegin
  2
_OPEN
 70
     0
 10
0.0
 20
0.0
 30
0.0
  3
_OPEN
  1

  0
LINE
  5
80
330
7F
100
AcDbEntity
  8
0
 62
     0
100
AcDbLine
 10
0.0
 20
0.0
 30
0.0
 11
-1.0
 21
0.1666666666666667
 31
0.0
  0
LINE
  5
81
330
7F
100
AcDbEntity
  8
0
 62
     0
100
AcDbLine
 10
0.0
 20
0.0
 30
0.0
 11
-1.0
 21
-0.1666666666666667
 31
0.0
  0
LINE
  5
82
330
7F
100
AcDbEntity
  8
0
 62
     0
100
AcDbLine
 10
0.0
 20
0.0
 30
0.0
 11
-1.0
 21
0.0
 31
0.0
  0
ENDBLK
  5
84
330
7F
100
AcDbEntity
  8
0
100
AcDbBlockEnd
  0
BLOCK
  5
8A
330
85
100
AcDbEntity
  8
0
100
AcDbBlockBegin
  2
_CLOSED
 70
     0
 10
0.0
 20
0.0
 30
0.0
  3
_CLOSED
  1

  0
LINE
  5
86
330
85
100
AcDbEntity
  8
0
 62
     0
100
AcDbLine
 10
0.0
 20
0.0
 30
0.0
 11
-1.0
 21
0.1666666666666667
 31
0.0
  0
LINE
  5
87
330
85
100
AcDbEntity
  8
0
 62
     0
100
AcDbLine
 10
0.0
 20
0.0
 30
0.0
 11
-1.0
 21
-0.1666666666666667
 31
0.0
  0
LINE
  5
88
330
85
100
AcDbEntity
  8
0
 62
     0
100
AcDbLine
 10
-1.0
 20
0.1666666666666667
 30
0.0
 11
-1.0
 21
-0.1666666666666667
 31
0.0
  0
LINE
  5
89
330
85
100
AcDbEntity
  8
0
 62
     0
100
AcDbLine
 10
0.0
 20
0.0
 30
0.0
 11
-1.0
 21
0.0
 31
0.0
  0
ENDBLK
  5
8B
330
85
100
AcDbEntity
  8
0
100
AcDbBlockEnd
  0
BLOCK
  5
90
330
8C
100
AcDbEntity
  8
0
100
AcDbBlockBegin
  2
_CLOSEDBLANK
 70
     0
 10
0.0
 20
0.0
 30
0.0
  3
_CLOSEDBLANK
  1

  0
LINE
  5
8D
330
8C
100
AcDbEntity
  8
0
 62
     0
100
AcDbLine
 10
0.0
 20
0.0
 30
0.0
 11
-1.0
 21
0.1666666666666667
 31
0.0
  0
LINE
  5
8E
330
8C
100
AcDbEntity
  8
0
 62
     0
100
AcDbLine
 10
0.0
 20
0.0
 30
0.0
 11
-1.0
 21
-0.1666666666666667
 31
0.0
  0
LINE
  5
8F
330
8C
100
AcDbEntity
  8
0
 62
     0
100
AcDbLine
 10
-1.0
 20
0.1666666666666667
 30
0.0
 11
-1.0
 21
-0.1666666666666667
 31
0.0
  0
ENDBLK
  5
91
330
8C
100
AcDbEntity
  8
0
100
AcDbBlockEnd
  0
BLOCK
  5
94
330
92
100
AcDbEntity
  8
0
100
AcDbBlockBegin
  2
_ARROWFILLED
 70
     0
 10
0.0
 20
0.0
 30
0.0
  3
_ARROWFILLED
  1

  0
SOLID
  5
93
330
92
100
AcDbEntity
  8
0
 62
     0
100
AcDbTrace
 10
0.0
 20
0.0
 30
0.0
 11
-1.0
 21
-0.1666666666666667
 31
0.0
 12
-1.0
 22
0.1666666666666667
 32
0.0
 13
0.0
 23
0.0
 33
0.0
  0
ENDBLK
  5
95
330
92
100
AcDbEntity
  8
0
100
AcDbBlockEnd
  0
BLOCK
  5
9C
330
96
100
AcDbEntity
  8
0
100
AcDbBlockBegin
  2
_BOXBLANK
 70
     0
 10
0.0
 20
0.0
 30
0.0
  3
_BOXBLANK
  1

  0
LINE
  5
97
330
96
100
AcDbEntity
  8
0
 62
     0
100
AcDbLine
 10
-0.5
 20
-0.5
 30
0.0
 11
0.5
 21
-0.5
 31
0.0
  0
LINE
  5
98
330
96
100
AcDbEntity
  8
0
 62
     0
100
AcDbLine
 10
0.5
 20
-0.5
 30
0.0
 11
0.5
 21
0.5
 31
0.0
  0
LINE
  5
99
330
96
100
AcDbEntity
  8
0
 62
     0
100
AcDbLine
 10
0.5
 20
0.5
 30
0.0
 11
-0.5
 21
0.5
 31
0.0
  0
LINE
  5
9A
330
96
100
AcDbEntity
  8
0
 62
     0
100
AcDbLine
 10
-0.5
 20
0.5
 30
0.0
 11
-0.5
 21
-0.5
 31
0.0
  0
LINE
  5
9B
330
96
100
AcDbEntity
  8
0
 62
     0
100
AcDbLine
 10
-0.5
 20
0.0
 30
0.0
 11
-1.0
 21
0.0
 31
0.0
  0
ENDBLK
  5
9D
330
96
100
AcDbEntity
  8
0
100
AcDbBlockEnd
  0
BLOCK
  5
A1
330
9E
100
AcDbEntity
  8
0
100
AcDbBlockBegin
  2
_BOXFILLED
 70
     0
 10
0.0
 20
0.0
 30
0.0
  3
_BOXFILLED
  1

  0
SOLID
  5
9F
330
9E
100
AcDbEntity
  8
0
 62
     0
100
AcDbTrace
 10
-0.5
 20
0.5
 30
0.0
 11
0.5
 21
0.5
 31
0.0
 12
-0.5
 22
-0.5
 32
0.0
 13
0.5
 23
-0.5
 33
0.0
  0
LINE
  5
A0
330
9E
100
AcDbEntity
  8
0
 62
     0
100
AcDbLine
 10
-0.5
 20
0.0
 30
0.0
 11
-1.0
 21
0.0
 31
0.0
  0
ENDBLK
  5
A2
330
9E
100
AcDbEntity
  8
0
100
AcDbBlockEnd
  0
BLOCK
  5
A6
330
A3
100
AcDbEntity
  8
0
100
AcDbBlockBegin
  2
_INTEGRAL
 70
     0
 10
0.0
 20
0.0
 30
0.0
  3
_INTEGRAL
  1

  0
ARC
  5
A4
330
A3
100
AcDbEntity
  8
0
 62
     0
100
AcDbCircle
 10
0.444888
 20
-0.0913346
 30
0.0
 40
0.4541666
100
AcDbArc
 50
101.9999999999999
 51
167.9999999999998
  0
ARC
  5
A5
330
A3
100
AcDbEntity
  8
0
 62
     0
100
AcDbCircle
 10
-0.444888
 20
0.0913346
 30
0.0
 40
0.4541666
100
AcDbArc
 50
281.9999999999997
 51
347.9999999999997
  0
ENDBLK
  5
A7
330
A3
100
AcDbEntity
  8
0
100
AcDbBlockEnd
  0
BLOCK
  5
AA
330
A8
100
AcDbEntity
  8
0
100
AcDbBlockBegin
  2
_OBLIQUE
 70
     0
 10
0.0
 20
0.0
 30
0.0
  3
_OBLIQUE
  1

  0
LINE
  5
A9
330
A8
100
AcDbEntity
  8
0
 62
     0
100
AcDbLine
 10
-0.5
 20
-0.5
 30
0.0
 11
0.5
 21
0.5
 31
0.0
  0
ENDBLK
  5
AB
330
A8
100
AcDbEntity
  8
0
100
AcDbBlockEnd
  0
BLOCK
  5
AD
330
AC
100
AcDbEntity
  8
0
100
AcDbBlockBegin
  2
_NONE
 70
     0
 10
0.0
 20
0.0
 30
0.0
  3
_NONE
  1

  0
ENDBLK
  5
AE
330
AC
100
AcDbEntity
  8
0
100
AcDbBlockEnd
  0
BLOCK
  5
B2
330
AF
100
AcDbEntity
  8
0
100
AcDbBlockBegin
  2
MARK_OPEN
 70
     0
 10
0.0
 20
0.0
 30
0.0
  3
MARK_OPEN
  1

  0
LINE
  5
B0
330
AF
100
AcDbEntity
  8
0
 62
     0
100
AcDbLine
 10
0.0
 20
0.0
 30
0.0
 11
-1.0
 21
0.1666666666666667
 31
0.0
  0
LINE
  5
B1
330
AF
100
AcDbEntity
  8
0
 62
     0
100
AcDbLine
 10
0.0
 20
0.0
 30
0.0
 11
-1.0
 21
-0.1666666666666667
 31
0.0
  0
ENDBLK
  5
B3
330
AF
100
AcDbEntity
  8
0
100
AcDbBlockEnd
  0
BLOCK
  5
B6
330
B4
100
AcDbEntity
  8
0
100
AcDbBlockBegin
  2
MARK_ORIGIN
 70
     0
 10
0.0
 20
0.0
 30
0.0
  3
MARK_ORIGIN
  1

  0
CIRCLE
  5
B5
330
B4
100
AcDbEntity
  8
0
 62
     0
100
AcDbCircle
 10
0.0
 20
0.0
 30
0.0
 40
0.5
  0
ENDBLK
  5
B7
330
B4
100
AcDbEntity
  8
0
100
AcDbBlockEnd
  0
BLOCK
  5
BA
330
B8
100
AcDbEntity
  8
0
100
AcDbBlockBegin
  2
MARK_DOT
 70
     0
 10
0.0
 20
0.0
 30
0.0
  3
MARK_DOT
  1

  0
LWPOLYLINE
  5
B9
330
B8
100
AcDbEntity
  8
0
 62
     0
100
AcDbPolyline
 90
        2
 70
     1
 43
0.5
 10
-0.25
 20
0.0
 42
1.0
 10
0.25
 20
0.0
 42
1.0
  0
ENDBLK
  5
BB
330
B8
100
AcDbEntity
  8
0
100
AcDbBlockEnd
  0
ENDSEC
  0
SECTION
  2
ENTITIES
  0
MTEXT
  5
DC
330
1F
100
AcDbEntity
  8
100
  6
Continuous
 62
     7
370
     9
100
AcDbMText
 10
-2.341891304805557
 20
-42.88407986305791
 30
0.0
 40
25.0
 41
293.4182016041797
 46
25.0
 71
     7
 72
     1
  1
{\fＭＳ ゴシック;\W0.714286;松本船舶電機製作所}
 73
     1
 44
1.0
  0
MTEXT
  5
DD
330
1F
100
AcDbEntity
  8
1
  6
DOT
 62
     7
370
     9
100
AcDbMText
 10
-21.51656853181939
 20
256.0544444216317
 30
0.0
 40
25.0
 41
349.4765505874703
 46
25.0
 71
     7
 72
     1
  1
{\fＭＳ ゴシック;\W0.714286;[電球色ＬＥＤランプ付]}
 73
     1
 44
1.0
  0
LINE
  5
DE
330
1F
100
AcDbEntity
  8
101
  6
Continuous
 62
     7
370
    30
100
AcDbLine
 10
34.64374083577684
 20
154.2439516129027
 30
0.0
 11
34.53010447214047
 21
150.9484970674482
 31
0.0
  0
LINE
  5
DF
330
1F
100
AcDbEntity
  8
101
  6
Continuous
 62
     7
370
    30
100
AcDbLine
 10
34.53010447214047
 20
150.9484970674482
 30
0.0
 11
34.81419538123134
 21
150.4371334310845
 31
0.0
  0
LINE
  5
E0
330
1F
100
AcDbEntity
  8
101
  6
Continuous
 62
     7
370
    30
100
AcDbLine
 10
34.81419538123134
 20
150.4371334310845
 30
0.0
 11
34.81419538123134
 21
139.2581561583573
 31
0.0
  0
LINE
  5
E1
330
1F
100
AcDbEntity
  8
101
  6
Continuous
 62
     7
370
    30
100
AcDbLine
 10
34.81419538123134
 20
139.2581561583573
 30
0.0
 11
34.97044538123134
 21
138.9314516129028
 31
0.0
  0
LINE
  5
E2
330
1F
100
AcDbEntity
  8
101
  6
Continuous
 62
     7
370
    30
100
AcDbLine
 10
34.97044538123134
 20
138.9314516129028
 30
0.0
 11
36.12101356304953
 21
137.9371334310846
 31
0.0
  0
LINE
  5
E3
330
1F
100
AcDbEntity
  8
101
  6
Continuous
 62
     7
370
    30
100
AcDbLine
 10
36.12101356304953
 20
137.9371334310846
 30
0.0
 11
37.59828629032228
 21
137.2837243401755
 31
0.0
  0
LINE
  5
E4
330
1F
100
AcDbEntity
  8
101
  6
Continuous
 62
     7
370
    30
100
AcDbLine
 10
37.59828629032228
 20
137.2837243401755
 30
0.0
 11
39.0471499266859
 21
136.6303152492664
 31
0.0
  0
LINE
  5
E5
330
1F
100
AcDbEntity
  8
101
  6
Continuous
 62
     7
370
    30
100
AcDbLine
 10
39.0471499266859
 20
136.6303152492664
 30
0.0
 11
40.63805901759503
 21
136.1473607038119
 31
0.0
  0
LINE
  5
E6
330
1F
100
AcDbEntity
  8
101
  6
Continuous
 62
     7
370
    30
100
AcDbLine
 10
40.63805901759503
 20
136.1473607038119
 30
0.0
 11
42.37101356304953
 21
135.550769794721
 31
0.0
  0
LINE
  5
E7
330
1F
100
AcDbEntity
  8
101
  6
Continuous
 62
     7
370
    30
100
AcDbLine
 10
42.37101356304953
 20
135.550769794721
 30
0.0
 11
42.89658174486772
 21
135.4087243401755
 31
0.0
  0
LINE
  5
E8
330
1F
100
AcDbEntity
  8
101
  6
Continuous
 62
     7
370
    30
100
AcDbLine
 10
34.81419538123134
 20
150.4371334310845
 30
0.0
 11
34.95624083577684
 21
151.4030425219937
 31
0.0
  0
LINE
  5
E9
330
1F
100
AcDbEntity
  8
101
  6
Continuous
 62
     7
370
    30
100
AcDbLine
 10
34.95624083577684
 20
151.4030425219937
 30
0.0
 11
35.41078629032228
 21
152.0990652492664
 31
0.0
  0
LINE
  5
EA
330
1F
100
AcDbEntity
  8
101
  6
Continuous
 62
     7
370
    30
100
AcDbLine
 10
35.41078629032228
 20
152.0990652492664
 30
0.0
 11
36.33408174486772
 21
152.8234970674482
 31
0.0
  0
LINE
  5
EB
330
1F
100
AcDbEntity
  8
101
  6
Continuous
 62
     7
370
    30
100
AcDbLine
 10
36.33408174486772
 20
152.8234970674482
 30
0.0
 11
37.58408174486772
 21
153.6047470674483
 31
0.0
  0
LINE
  5
EC
330
1F
100
AcDbEntity
  8
101
  6
Continuous
 62
     7
370
    30
100
AcDbLine
 10
37.58408174486772
 20
153.6047470674483
 30
0.0
 11
39.37385447214047
 21
154.3433834310846
 31
0.0
  0
LINE
  5
ED
330
1F
100
AcDbEntity
  8
101
  6
Continuous
 62
     7
370
    30
100
AcDbLine
 10
39.37385447214047
 20
154.3433834310846
 30
0.0
 11
41.19203629032228
 21
154.9399743401755
 31
0.0
  0
LINE
  5
EE
330
1F
100
AcDbEntity
  8
101
  6
Continuous
 62
     7
370
    30
100
AcDbLine
 10
41.19203629032228
 20
154.9399743401755
 30
0.0
 11
43.23749083577684
 21
155.394519794721
 31
0.0
  0
LINE
  5
EF
330
1F
100
AcDbEntity
  8
101
  6
Continuous
 62
     7
370
    30
100
AcDbLine
 10
43.23749083577684
 20
155.394519794721
 30
0.0
 11
45.48180901759503
 21
155.8490652492665
 31
0.0
  0
LINE
  5
F0
330
1F
100
AcDbEntity
  8
101
  6
Continuous
 62
     7
370
    30
100
AcDbLine
 10
45.48180901759503
 20
155.8490652492665
 30
0.0
 11
48.74885447214047
 21
156.332019794721
 31
0.0
  0
LINE
  5
F1
330
1F
100
AcDbEntity
  8
101
  6
Continuous
 62
     7
370
    30
100
AcDbLine
 10
48.74885447214047
 20
156.332019794721
 30
0.0
 11
52.27158174486777
 21
156.7581561583574
 31
0.0
  0
LINE
  5
F2
330
1F
100
AcDbEntity
  8
101
  6
Continuous
 62
     7
370
    30
100
AcDbLine
 10
52.27158174486777
 20
156.7581561583574
 30
0.0
 11
55.68067265395865
 21
157.1274743401756
 31
0.0
  0
LINE
  5
F3
330
1F
100
AcDbEntity
  8
101
  6
Continuous
 62
     7
370
    30
100
AcDbLine
 10
55.68067265395865
 20
157.1274743401756
 30
0.0
 11
59.9704453812314
 21
157.4115652492666
 31
0.0
  0
LINE
  5
F4
330
1F
100
AcDbEntity
  8
101
  6
Continuous
 62
     7
370
    30
100
AcDbLine
 10
59.9704453812314
 20
157.4115652492666
 30
0.0
 11
63.69203629032233
 21
157.4967925219938
 31
0.0
  0
LINE
  5
F5
330
1F
100
AcDbEntity
  8
101
  6
Continuous
 62
     7
370
    30
100
AcDbLine
 10
63.69203629032233
 20
157.4967925219938
 30
0.0
 11
67.92499083577684
 21
157.5536107038121
 31
0.0
  0
LINE
  5
F6
330
1F
100
AcDbEntity
  8
101
  6
Continuous
 62
     7
370
    30
100
AcDbLine
 10
67.92499083577684
 20
157.5536107038121
 30
0.0
 11
71.5329453812314
 21
157.5536107038121
 31
0.0
  0
LINE
  5
F7
330
1F
100
AcDbEntity
  8
101
  6
Continuous
 62
     7
370
    30
100
AcDbLine
 10
71.5329453812314
 20
157.5536107038121
 30
0.0
 11
74.88521810850415
 21
157.5536107038121
 31
0.0
  0
LINE
  5
F8
330
1F
100
AcDbEntity
  8
101
  6
Continuous
 62
     7
370
    30
100
AcDbLine
 10
74.88521810850415
 20
157.5536107038121
 30
0.0
 11
79.00453629032233
 21
157.3547470674484
 31
0.0
  0
LINE
  5
F9
330
1F
100
AcDbEntity
  8
101
  6
Continuous
 62
     7
370
    30
100
AcDbLine
 10
79.00453629032233
 20
157.3547470674484
 30
0.0
 11
83.03862719941321
 21
157.0422470674484
 31
0.0
  0
LINE
  5
FA
330
1F
100
AcDbEntity
  8
101
  6
Continuous
 62
     7
370
    30
100
AcDbLine
 10
83.03862719941321
 20
157.0422470674484
 30
0.0
 11
86.95908174486777
 21
156.7297470674484
 31
0.0
  0
LINE
  5
FB
330
1F
100
AcDbEntity
  8
101
  6
Continuous
 62
     7
370
    30
100
AcDbLine
 10
86.95908174486777
 20
156.7297470674484
 30
0.0
 11
90.53862719941321
 21
156.4172470674484
 31
0.0
  0
LINE
  5
FC
330
1F
100
AcDbEntity
  8
101
  6
Continuous
 62
     7
370
    30
100
AcDbLine
 10
90.53862719941321
 20
156.4172470674484
 30
0.0
 11
94.85680901759503
 21
155.8206561583575
 31
0.0
  0
LINE
  5
FD
330
1F
100
AcDbEntity
  8
101
  6
Continuous
 62
     7
370
    30
100
AcDbLine
 10
94.85680901759503
 20
155.8206561583575
 30
0.0
 11
98.54999083577684
 21
155.1956561583575
 31
0.0
  0
LINE
  5
FE
330
1F
100
AcDbEntity
  8
101
  6
Continuous
 62
     7
370
    30
100
AcDbLine
 10
98.54999083577684
 20
155.1956561583575
 30
0.0
 11
101.8170362903223
 21
154.4854288856303
 31
0.0
  0
LINE
  5
FF
330
1F
100
AcDbEntity
  8
101
  6
Continuous
 62
     7
370
    30
100
AcDbLine
 10
101.8170362903223
 20
154.4854288856303
 30
0.0
 11
104.9988544721405
 21
153.4911107038121
 31
0.0
  0
LINE
  5
100
330
1F
100
AcDbEntity
  8
101
  6
Continuous
 62
     7
370
    30
100
AcDbLine
 10
104.9988544721405
 20
153.4911107038121
 30
0.0
 11
107.7545362903223
 21
152.3831561583575
 31
0.0
  0
LINE
  5
101
330
1F
100
AcDbEntity
  8
101
  6
Continuous
 62
     7
370
    30
100
AcDbLine
 10
107.7545362903223
 20
152.3831561583575
 30
0.0
 11
109.9420362903223
 21
151.3888379765392
 31
0.0
  0
LINE
  5
102
330
1F
100
AcDbEntity
  8
101
  6
Continuous
 62
     7
370
    30
100
AcDbLine
 10
109.9420362903223
 20
151.3888379765392
 30
0.0
 11
111.4051044721405
 21
150.550769794721
 31
0.0
  0
LINE
  5
103
330
1F
100
AcDbEntity
  8
101
  6
Continuous
 62
     7
370
    30
100
AcDbLine
 10
111.4051044721405
 20
150.550769794721
 30
0.0
 11
112.356809017595
 21
149.6274743401756
 31
0.0
  0
LINE
  5
104
330
1F
100
AcDbEntity
  8
101
  6
Continuous
 62
     7
370
    30
100
AcDbLine
 10
112.356809017595
 20
149.6274743401756
 30
0.0
 11
112.7119226539587
 21
149.1587243401756
 31
0.0
  0
LINE
  5
105
330
1F
100
AcDbEntity
  8
101
  6
Continuous
 62
     7
370
    30
100
AcDbLine
 10
112.7119226539587
 20
149.1587243401756
 30
0.0
 11
112.825559017595
 21
148.6899743401756
 31
0.0
  0
LINE
  5
106
330
1F
100
AcDbEntity
  8
101
  6
Continuous
 62
     7
370
    30
100
AcDbLine
 10
112.825559017595
 20
148.6899743401756
 30
0.0
 11
112.9107862903223
 21
149.1303152492665
 31
0.0
  0
LINE
  5
107
330
1F
100
AcDbEntity
  8
101
  6
Continuous
 62
     7
370
    30
100
AcDbLine
 10
112.9107862903223
 20
149.1303152492665
 30
0.0
 11
112.8681726539587
 21
150.4229288856301
 31
0.0
  0
LINE
  5
108
330
1F
100
AcDbEntity
  8
101
  6
Continuous
 62
     7
370
    30
100
AcDbLine
 10
112.8681726539587
 20
150.4229288856301
 30
0.0
 11
112.9107862903223
 21
151.6871334310846
 31
0.0
  0
LINE
  5
109
330
1F
100
AcDbEntity
  8
101
  6
Continuous
 62
     7
370
    30
100
AcDbLine
 10
112.9107862903223
 20
151.6871334310846
 30
0.0
 11
112.2147635630496
 21
152.738269794721
 31
0.0
  0
LINE
  5
10A
330
1F
100
AcDbEntity
  8
101
  6
Continuous
 62
     7
370
    30
100
AcDbLine
 10
112.2147635630496
 20
152.738269794721
 30
0.0
 11
111.1068090175951
 21
153.6473607038118
 31
0.0
  0
LINE
  5
10B
330
1F
100
AcDbEntity
  8
101
  6
Continuous
 62
     7
370
    30
100
AcDbLine
 10
111.1068090175951
 20
153.6473607038118
 30
0.0
 11
108.9477181085041
 21
154.8121334310846
 31
0.0
  0
LINE
  5
10C
330
1F
100
AcDbEntity
  8
101
  6
Continuous
 62
     7
370
    30
100
AcDbLine
 10
108.9477181085041
 20
154.8121334310846
 30
0.0
 11
106.2204453812314
 21
156.1189516129028
 31
0.0
  0
LINE
  5
10D
330
1F
100
AcDbEntity
  8
101
  6
Continuous
 62
     7
370
    30
100
AcDbLine
 10
106.2204453812314
 20
156.1189516129028
 30
0.0
 11
103.4647635630496
 21
157.0280425219937
 31
0.0
  0
LINE
  5
10E
330
1F
100
AcDbEntity
  8
101
  6
Continuous
 62
     7
370
    30
100
AcDbLine
 10
103.4647635630496
 20
157.0280425219937
 30
0.0
 11
100.3113544721405
 21
157.76667888563
 31
0.0
  0
LINE
  5
10F
330
1F
100
AcDbEntity
  8
101
  6
Continuous
 62
     7
370
    30
100
AcDbLine
 10
100.3113544721405
 20
157.76667888563
 30
0.0
 11
96.73180901759508
 21
158.5337243401755
 31
0.0
  0
LINE
  5
110
330
1F
100
AcDbEntity
  8
101
  6
Continuous
 62
     7
370
    30
100
AcDbLine
 10
96.73180901759508
 20
158.5337243401755
 30
0.0
 11
92.81135447214052
 21
159.2439516129027
 31
0.0
  0
LINE
  5
111
330
1F
100
AcDbEntity
  8
101
  6
Continuous
 62
     7
370
    30
100
AcDbLine
 10
92.81135447214052
 20
159.2439516129027
 30
0.0
 11
88.89089992668596
 21
159.7553152492665
 31
0.0
  0
LINE
  5
112
330
1F
100
AcDbEntity
  8
101
  6
Continuous
 62
     7
370
    30
100
AcDbLine
 10
88.89089992668596
 20
159.7553152492665
 30
0.0
 11
85.25453629032233
 21
160.1814516129028
 31
0.0
  0
LINE
  5
113
330
1F
100
AcDbEntity
  8
101
  6
Continuous
 62
     7
370
    30
100
AcDbLine
 10
85.25453629032233
 20
160.1814516129028
 30
0.0
 11
81.61817265395871
 21
160.4655425219938
 31
0.0
  0
LINE
  5
114
330
1F
100
AcDbEntity
  8
101
  6
Continuous
 62
     7
370
    30
100
AcDbLine
 10
81.61817265395871
 20
160.4655425219938
 30
0.0
 11
77.6124908357769
 21
160.7212243401756
 31
0.0
  0
LINE
  5
115
330
1F
100
AcDbEntity
  8
101
  6
Continuous
 62
     7
370
    30
100
AcDbLine
 10
77.6124908357769
 20
160.7212243401756
 30
0.0
 11
73.69203629032233
 21
160.9200879765393
 31
0.0
  0
LINE
  5
116
330
1F
100
AcDbEntity
  8
101
  6
Continuous
 62
     7
370
    30
100
AcDbLine
 10
73.69203629032233
 20
160.9200879765393
 30
0.0
 11
68.2374908357769
 21
160.9484970674483
 31
0.0
  0
LINE
  5
117
330
1F
100
AcDbEntity
  8
101
  6
Continuous
 62
     7
370
    30
100
AcDbLine
 10
68.2374908357769
 20
160.9484970674483
 30
0.0
 11
64.14658174486777
 21
160.9484970674483
 31
0.0
  0
LINE
  5
118
330
1F
100
AcDbEntity
  8
101
  6
Continuous
 62
     7
370
    30
100
AcDbLine
 10
64.14658174486777
 20
160.9484970674483
 30
0.0
 11
59.62953629032233
 21
160.8064516129029
 31
0.0
  0
LINE
  5
119
330
1F
100
AcDbEntity
  8
101
  6
Continuous
 62
     7
370
    30
100
AcDbLine
 10
59.62953629032233
 20
160.8064516129029
 30
0.0
 11
54.06135447214052
 21
160.4655425219938
 31
0.0
  0
LINE
  5
11A
330
1F
100
AcDbEntity
  8
101
  6
Continuous
 62
     7
370
    30
100
AcDbLine
 10
54.06135447214052
 20
160.4655425219938
 30
0.0
 11
49.77158174486777
 21
160.0394061583575
 31
0.0
  0
LINE
  5
11B
330
1F
100
AcDbEntity
  8
101
  6
Continuous
 62
     7
370
    30
100
AcDbLine
 10
49.77158174486777
 20
160.0394061583575
 30
0.0
 11
44.45908174486777
 21
159.1303152492663
 31
0.0
  0
LINE
  5
11C
330
1F
100
AcDbEntity
  8
101
  6
Continuous
 62
     7
370
    30
100
AcDbLine
 10
44.45908174486777
 20
159.1303152492663
 30
0.0
 11
40.96476356304959
 21
158.2212243401754
 31
0.0
  0
LINE
  5
11D
330
1F
100
AcDbEntity
  8
101
  6
Continuous
 62
     7
370
    30
100
AcDbLine
 10
40.96476356304959
 20
158.2212243401754
 30
0.0
 11
38.69203629032233
 21
157.4257697947209
 31
0.0
  0
LINE
  5
11E
330
1F
100
AcDbEntity
  8
101
  6
Continuous
 62
     7
370
    30
100
AcDbLine
 10
38.69203629032233
 20
157.4257697947209
 30
0.0
 11
36.93067265395871
 21
156.5166788856299
 31
0.0
  0
LINE
  5
11F
330
1F
100
AcDbEntity
  8
101
  6
Continuous
 62
     7
370
    30
100
AcDbLine
 10
36.93067265395871
 20
156.5166788856299
 30
0.0
 11
35.62385447214052
 21
155.5791788856299
 31
0.0
  0
LINE
  5
120
330
1F
100
AcDbEntity
  8
101
  6
Continuous
 62
     7
370
    30
100
AcDbLine
 10
35.62385447214052
 20
155.5791788856299
 30
0.0
 11
35.14089992668596
 21
154.8689516129026
 31
0.0
  0
LINE
  5
121
330
1F
100
AcDbEntity
  8
101
  6
Continuous
 62
     7
370
    30
100
AcDbLine
 10
35.14089992668596
 20
154.8689516129026
 30
0.0
 11
34.64374083577684
 21
154.2439516129027
 31
0.0
  0
LINE
  5
122
330
1F
100
AcDbEntity
  8
101
  6
Continuous
 62
     7
370
    30
100
AcDbLine
 10
34.3454453812314
 20
152.1984970674481
 30
0.0
 11
33.7204453812314
 21
152.8519061583572
 31
0.0
  0
LINE
  5
123
330
1F
100
AcDbEntity
  8
101
  6
Continuous
 62
     7
370
    30
100
AcDbLine
 10
33.7204453812314
 20
152.8519061583572
 30
0.0
 11
33.32271810850415
 21
153.8178152492662
 31
0.0
  0
LINE
  5
124
330
1F
100
AcDbEntity
  8
101
  6
Continuous
 62
     7
370
    30
100
AcDbLine
 10
33.32271810850415
 20
153.8178152492662
 30
0.0
 11
33.26589992668596
 21
154.7269061583572
 31
0.0
  0
LINE
  5
125
330
1F
100
AcDbEntity
  8
101
  6
Continuous
 62
     7
370
    30
100
AcDbLine
 10
33.26589992668596
 20
154.7269061583572
 30
0.0
 11
33.32271810850415
 21
158.1359970674481
 31
0.0
  0
LINE
  5
126
330
1F
100
AcDbEntity
  8
101
  6
Continuous
 62
     7
370
    30
100
AcDbLine
 10
33.32271810850415
 20
158.1359970674481
 30
0.0
 11
33.89089992668596
 21
158.9314516129026
 31
0.0
  0
LINE
  5
127
330
1F
100
AcDbEntity
  8
101
  6
Continuous
 62
     7
370
    30
100
AcDbLine
 10
33.89089992668596
 20
158.9314516129026
 30
0.0
 11
35.22612719941321
 21
159.8689516129026
 31
0.0
  0
LINE
  5
128
330
1F
100
AcDbEntity
  8
101
  6
Continuous
 62
     7
370
    30
100
AcDbLine
 10
35.22612719941321
 20
159.8689516129026
 30
0.0
 11
37.35680901759508
 21
160.8348607038117
 31
0.0
  0
LINE
  5
129
330
1F
100
AcDbEntity
  8
101
  6
Continuous
 62
     7
370
    30
100
AcDbLine
 10
37.35680901759508
 20
160.8348607038117
 30
0.0
 11
40.14089992668596
 21
161.857587976539
 31
0.0
  0
LINE
  5
12A
330
1F
100
AcDbEntity
  8
101
  6
Continuous
 62
     7
370
    30
100
AcDbLine
 10
40.14089992668596
 20
161.857587976539
 30
0.0
 11
42.95339992668596
 21
162.6246334310845
 31
0.0
  0
LINE
  5
12B
330
1F
100
AcDbEntity
  8
101
  6
Continuous
 62
     7
370
    30
100
AcDbLine
 10
42.95339992668596
 20
162.6246334310845
 30
0.0
 11
45.93635447214052
 21
163.3064516129027
 31
0.0
  0
LINE
  5
12C
330
1F
100
AcDbEntity
  8
101
  6
Continuous
 62
     7
370
    30
100
AcDbLine
 10
45.93635447214052
 20
163.3064516129027
 30
0.0
 11
49.40226356304959
 21
163.7894061583572
 31
0.0
  0
LINE
  5
12D
330
1F
100
AcDbEntity
  8
101
  6
Continuous
 62
     7
370
    30
100
AcDbLine
 10
49.40226356304959
 20
163.7894061583572
 30
0.0
 11
51.47612719941321
 21
164.1303152492664
 31
0.0
  0
LINE
  5
12E
330
1F
100
AcDbEntity
  8
101
  6
Continuous
 62
     7
370
    30
100
AcDbLine
 10
51.47612719941321
 20
164.1303152492664
 30
0.0
 11
55.08408174486777
 21
164.5280425219937
 31
0.0
  0
LINE
  5
12F
330
1F
100
AcDbEntity
  8
101
  6
Continuous
 62
     7
370
    30
100
AcDbLine
 10
55.08408174486777
 20
164.5280425219937
 30
0.0
 11
59.40226356304959
 21
164.7837243401755
 31
0.0
  0
LINE
  5
130
330
1F
100
AcDbEntity
  8
101
  6
Continuous
 62
     7
370
    30
100
AcDbLine
 10
59.40226356304959
 20
164.7837243401755
 30
0.0
 11
62.78294538123146
 21
165.0109970674482
 31
0.0
  0
LINE
  5
131
330
1F
100
AcDbEntity
  8
101
  6
Continuous
 62
     7
370
    30
100
AcDbLine
 10
62.78294538123146
 20
165.0109970674482
 30
0.0
 11
65.48180901759508
 21
165.0962243401755
 31
0.0
  0
LINE
  5
132
330
1F
100
AcDbEntity
  8
101
  6
Continuous
 62
     7
370
    30
100
AcDbLine
 10
65.48180901759508
 20
165.0962243401755
 30
0.0
 11
70.36817265395871
 21
164.9541788856301
 31
0.0
  0
LINE
  5
133
330
1F
100
AcDbEntity
  8
101
  6
Continuous
 62
     7
370
    30
100
AcDbLine
 10
70.36817265395871
 20
164.9541788856301
 30
0.0
 11
74.74317265395871
 21
164.9825879765392
 31
0.0
  0
LINE
  5
134
330
1F
100
AcDbEntity
  8
101
  6
Continuous
 62
     7
370
    30
100
AcDbLine
 10
74.74317265395871
 20
164.9825879765392
 30
0.0
 11
78.63521810850415
 21
164.7553152492665
 31
0.0
  0
LINE
  5
135
330
1F
100
AcDbEntity
  8
101
  6
Continuous
 62
     7
370
    30
100
AcDbLine
 10
78.63521810850415
 20
164.7553152492665
 30
0.0
 11
81.87385447214052
 21
164.4996334310846
 31
0.0
  0
LINE
  5
136
330
1F
100
AcDbEntity
  8
101
  6
Continuous
 62
     7
370
    30
100
AcDbLine
 10
81.87385447214052
 20
164.4996334310846
 30
0.0
 11
84.91362719941327
 21
164.2439516129028
 31
0.0
  0
LINE
  5
137
330
1F
100
AcDbEntity
  8
101
  6
Continuous
 62
     7
370
    30
100
AcDbLine
 10
84.91362719941327
 20
164.2439516129028
 30
0.0
 11
88.18067265395877
 21
163.8746334310844
 31
0.0
  0
LINE
  5
138
330
1F
100
AcDbEntity
  8
101
  6
Continuous
 62
     7
370
    30
100
AcDbLine
 10
88.18067265395877
 20
163.8746334310844
 30
0.0
 11
91.47612719941333
 21
163.3348607038117
 31
0.0
  0
LINE
  5
139
330
1F
100
AcDbEntity
  8
101
  6
Continuous
 62
     7
370
    30
100
AcDbLine
 10
91.47612719941333
 20
163.3348607038117
 30
0.0
 11
94.85680901759514
 21
162.6814516129026
 31
0.0
  0
LINE
  5
13A
330
1F
100
AcDbEntity
  8
101
  6
Continuous
 62
     7
370
    30
100
AcDbLine
 10
94.85680901759514
 20
162.6814516129026
 30
0.0
 11
98.1522635630497
 21
162.0564516129026
 31
0.0
  0
LINE
  5
13B
330
1F
100
AcDbEntity
  8
101
  6
Continuous
 62
     7
370
    30
100
AcDbLine
 10
98.1522635630497
 20
162.0564516129026
 30
0.0
 11
102.3852181085042
 21
161.1473607038115
 31
0.0
  0
LINE
  5
13C
330
1F
100
AcDbEntity
  8
101
  6
Continuous
 62
     7
370
    30
100
AcDbLine
 10
102.3852181085042
 20
161.1473607038115
 30
0.0
 11
105.5102181085042
 21
160.3519061583569
 31
0.0
  0
LINE
  5
13D
330
1F
100
AcDbEntity
  8
101
  6
Continuous
 62
     7
370
    30
100
AcDbLine
 10
105.5102181085042
 20
160.3519061583569
 30
0.0
 11
108.2658999266861
 21
159.3291788856297
 31
0.0
  0
LINE
  5
13E
330
1F
100
AcDbEntity
  8
101
  6
Continuous
 62
     7
370
    30
100
AcDbLine
 10
108.2658999266861
 20
159.3291788856297
 30
0.0
 11
111.0215817448678
 21
158.1644061583569
 31
0.0
  0
LINE
  5
13F
330
1F
100
AcDbEntity
  8
101
  6
Continuous
 62
     7
370
    30
100
AcDbLine
 10
111.0215817448678
 20
158.1644061583569
 30
0.0
 11
112.5272635630497
 21
157.0848607038114
 31
0.0
  0
LINE
  5
140
330
1F
100
AcDbEntity
  8
101
  6
Continuous
 62
     7
370
    30
100
AcDbLine
 10
112.5272635630497
 20
157.0848607038114
 30
0.0
 11
113.7772635630497
 21
155.8916788856296
 31
0.0
  0
LINE
  5
141
330
1F
100
AcDbEntity
  8
101
  6
Continuous
 62
     7
370
    30
100
AcDbLine
 10
113.7772635630497
 20
155.8916788856296
 30
0.0
 11
114.3738544721406
 21
155.1530425219933
 31
0.0
  0
LINE
  5
142
330
1F
100
AcDbEntity
  8
101
  6
Continuous
 62
     7
370
    30
100
AcDbLine
 10
114.3738544721406
 20
155.1530425219933
 30
0.0
 11
114.3454453812315
 21
152.255315249266
 31
0.0
  0
LINE
  5
143
330
1F
100
AcDbEntity
  8
101
  6
Continuous
 62
     7
370
    30
100
AcDbLine
 10
114.3454453812315
 20
152.255315249266
 30
0.0
 11
114.4022635630497
 21
151.1473607038114
 31
0.0
  0
LINE
  5
144
330
1F
100
AcDbEntity
  8
101
  6
Continuous
 62
     7
370
    30
100
AcDbLine
 10
114.4022635630497
 20
151.1473607038114
 30
0.0
 11
113.9477181085042
 21
150.2098607038114
 31
0.0
  0
LINE
  5
145
330
1F
100
AcDbEntity
  8
101
  6
Continuous
 62
     7
370
    30
100
AcDbLine
 10
113.9477181085042
 20
150.2098607038114
 30
0.0
 11
113.2658999266861
 21
149.6700879765387
 31
0.0
  0
LINE
  5
146
330
1F
100
AcDbEntity
  8
101
  6
Continuous
 62
     7
370
    30
100
AcDbLine
 10
113.2658999266861
 20
149.6700879765387
 30
0.0
 11
112.9014770870106
 21
149.4126944163896
 31
0.0
  0
LINE
  5
147
330
1F
100
AcDbEntity
  8
101
  6
Continuous
 62
     7
370
    30
100
AcDbLine
 10
114.4022635630497
 20
151.1473607038114
 30
0.0
 11
114.2105021994133
 21
152.3050311583569
 31
0.0
  0
LINE
  5
148
330
1F
100
AcDbEntity
  8
101
  6
Continuous
 62
     7
370
    30
100
AcDbLine
 10
114.2105021994133
 20
152.3050311583569
 30
0.0
 11
113.9264112903224
 21
153.064974340175
 31
0.0
  0
LINE
  5
149
330
1F
100
AcDbEntity
  8
101
  6
Continuous
 62
     7
370
    30
100
AcDbLine
 10
113.9264112903224
 20
153.064974340175
 30
0.0
 11
112.9605021994133
 21
153.9740652492659
 31
0.0
  0
LINE
  5
14A
330
1F
100
AcDbEntity
  8
101
  6
Continuous
 62
     7
370
    30
100
AcDbLine
 10
112.9605021994133
 20
153.9740652492659
 30
0.0
 11
110.4889112903224
 21
155.2808834310841
 31
0.0
  0
LINE
  5
14B
330
1F
100
AcDbEntity
  8
101
  6
Continuous
 62
     7
370
    30
100
AcDbLine
 10
110.4889112903224
 20
155.2808834310841
 30
0.0
 11
107.3070931085042
 21
156.5024743401751
 31
0.0
  0
LINE
  5
14C
330
1F
100
AcDbEntity
  8
101
  6
Continuous
 62
     7
370
    30
100
AcDbLine
 10
107.3070931085042
 20
156.5024743401751
 30
0.0
 11
104.721865835777
 21
157.3263379765387
 31
0.0
  0
LINE
  5
14D
330
1F
100
AcDbEntity
  8
101
  6
Continuous
 62
     7
370
    30
100
AcDbLine
 10
104.721865835777
 20
157.3263379765387
 30
0.0
 11
101.3411840175951
 21
158.1786107038114
 31
0.0
  0
LINE
  5
14E
330
1F
100
AcDbEntity
  8
101
  6
Continuous
 62
     7
370
    30
100
AcDbLine
 10
101.3411840175951
 20
158.1786107038114
 30
0.0
 11
97.96050219941333
 21
158.8036107038114
 31
0.0
  0
LINE
  5
14F
330
1F
100
AcDbEntity
  8
101
  6
Continuous
 62
     7
370
    30
100
AcDbLine
 10
97.96050219941333
 20
158.8036107038114
 30
0.0
 11
94.7218658357769
 21
159.3433834310841
 31
0.0
  0
LINE
  5
150
330
1F
100
AcDbEntity
  8
101
  6
Continuous
 62
     7
370
    30
100
AcDbLine
 10
94.7218658357769
 20
159.3433834310841
 30
0.0
 11
92.54857038123146
 21
159.7269061583568
 31
0.0
  0
LINE
  5
151
330
1F
100
AcDbEntity
  8
101
  6
Continuous
 62
     7
370
    30
100
AcDbLine
 10
92.54857038123146
 20
159.7269061583568
 30
0.0
 11
90.98607038123146
 21
159.9541788856296
 31
0.0
  0
LINE
  5
152
330
1F
100
AcDbEntity
  8
101
  6
Continuous
 62
     7
370
    30
100
AcDbLine
 10
90.98607038123146
 20
159.9541788856296
 30
0.0
 11
88.85538856304964
 21
160.2382697947205
 31
0.0
  0
LINE
  5
153
330
1F
100
AcDbEntity
  8
101
  6
Continuous
 62
     7
370
    30
100
AcDbLine
 10
88.85538856304964
 20
160.2382697947205
 30
0.0
 11
86.36959310850415
 21
160.4797470674478
 31
0.0
  0
LINE
  5
154
330
1F
100
AcDbEntity
  8
101
  6
Continuous
 62
     7
370
    30
100
AcDbLine
 10
86.36959310850415
 20
160.4797470674478
 30
0.0
 11
84.30993401759508
 21
160.6928152492659
 31
0.0
  0
LINE
  5
155
330
1F
100
AcDbEntity
  8
101
  6
Continuous
 62
     7
370
    30
100
AcDbLine
 10
84.30993401759508
 20
160.6928152492659
 30
0.0
 11
81.58266129032233
 21
160.8916788856296
 31
0.0
  0
LINE
  5
156
330
1F
100
AcDbEntity
  8
101
  6
Continuous
 62
     7
370
    30
100
AcDbLine
 10
81.58266129032233
 20
160.8916788856296
 30
0.0
 11
79.13947947214052
 21
161.1189516129022
 31
0.0
  0
LINE
  5
157
330
1F
100
AcDbEntity
  8
101
  6
Continuous
 62
     7
370
    30
100
AcDbLine
 10
79.13947947214052
 20
161.1189516129022
 30
0.0
 11
76.75311583577684
 21
161.2894061583567
 31
0.0
  0
LINE
  5
158
330
1F
100
AcDbEntity
  8
101
  6
Continuous
 62
     7
370
    30
100
AcDbLine
 10
76.75311583577684
 20
161.2894061583567
 30
0.0
 11
74.38095674486777
 21
161.4882697947202
 31
0.0
  0
LINE
  5
159
330
1F
100
AcDbEntity
  8
101
  6
Continuous
 62
     7
370
    30
100
AcDbLine
 10
74.38095674486777
 20
161.4882697947202
 30
0.0
 11
72.26447947214052
 21
161.6019061583565
 31
0.0
  0
LINE
  5
15A
330
1F
100
AcDbEntity
  8
101
  6
Continuous
 62
     7
370
    30
100
AcDbLine
 10
72.26447947214052
 20
161.6019061583565
 30
0.0
 11
69.42357038123146
 21
161.7013379765385
 31
0.0
  0
LINE
  5
15B
330
1F
100
AcDbEntity
  8
101
  6
Continuous
 62
     7
370
    30
100
AcDbLine
 10
69.42357038123146
 20
161.7013379765385
 30
0.0
 11
66.68209310850415
 21
161.7865652492658
 31
0.0
  0
LINE
  5
15C
330
1F
100
AcDbEntity
  8
101
  6
Continuous
 62
     7
370
    30
100
AcDbLine
 10
66.68209310850415
 20
161.7865652492658
 30
0.0
 11
62.83266129032233
 21
161.7581561583567
 31
0.0
  0
LINE
  5
15D
330
1F
100
AcDbEntity
  8
101
  6
Continuous
 62
     7
370
    30
100
AcDbLine
 10
62.83266129032233
 20
161.7581561583567
 30
0.0
 11
59.19629765395865
 21
161.6729288856295
 31
0.0
  0
LINE
  5
15E
330
1F
100
AcDbEntity
  8
101
  6
Continuous
 62
     7
370
    30
100
AcDbLine
 10
59.19629765395865
 20
161.6729288856295
 30
0.0
 11
56.12811583577684
 21
161.4740652492659
 31
0.0
  0
LINE
  5
15F
330
1F
100
AcDbEntity
  8
101
  6
Continuous
 62
     7
370
    30
100
AcDbLine
 10
56.12811583577684
 20
161.4740652492659
 30
0.0
 11
52.93209310850409
 21
161.2183834310841
 31
0.0
  0
LINE
  5
160
330
1F
100
AcDbEntity
  8
101
  6
Continuous
 62
     7
370
    30
100
AcDbLine
 10
52.93209310850409
 20
161.2183834310841
 30
0.0
 11
49.42357038123134
 21
160.6928152492661
 31
0.0
  0
LINE
  5
161
330
1F
100
AcDbEntity
  8
101
  6
Continuous
 62
     7
370
    30
100
AcDbLine
 10
49.42357038123134
 20
160.6928152492661
 30
0.0
 11
46.83834310850409
 21
160.3661107038116
 31
0.0
  0
LINE
  5
162
330
1F
100
AcDbEntity
  8
101
  6
Continuous
 62
     7
370
    30
100
AcDbLine
 10
46.83834310850409
 20
160.3661107038116
 30
0.0
 11
43.13095674486772
 21
159.542247067448
 31
0.0
  0
LINE
  5
163
330
1F
100
AcDbEntity
  8
101
  6
Continuous
 62
     7
370
    30
100
AcDbLine
 10
43.13095674486772
 20
159.542247067448
 30
0.0
 11
39.89232038123134
 21
158.6899743401755
 31
0.0
  0
LINE
  5
164
330
1F
100
AcDbEntity
  8
101
  6
Continuous
 62
     7
370
    30
100
AcDbLine
 10
39.89232038123134
 20
158.6899743401755
 30
0.0
 11
37.1650476539586
 21
157.61042888563
 31
0.0
  0
LINE
  5
165
330
1F
100
AcDbEntity
  8
101
  6
Continuous
 62
     7
370
    30
100
AcDbLine
 10
37.1650476539586
 20
157.61042888563
 30
0.0
 11
35.10538856304953
 21
156.3746334310846
 31
0.0
  0
LINE
  5
166
330
1F
100
AcDbEntity
  8
101
  6
Continuous
 62
     7
370
    30
100
AcDbLine
 10
35.10538856304953
 20
156.3746334310846
 30
0.0
 11
34.62243401759497
 21
155.7638379765392
 31
0.0
  0
LINE
  5
167
330
1F
100
AcDbEntity
  8
101
  6
Continuous
 62
     7
370
    30
100
AcDbLine
 10
34.62243401759497
 20
155.7638379765392
 30
0.0
 11
34.52300219941316
 21
154.9541788856301
 31
0.0
  0
LINE
  5
168
330
1F
100
AcDbEntity
  8
101
  6
Continuous
 62
     7
370
    30
100
AcDbLine
 10
34.52300219941316
 20
154.9541788856301
 30
0.0
 11
34.64374083577684
 21
154.2439516129027
 31
0.0
  0
LINE
  5
169
330
1F
100
AcDbEntity
  8
101
  6
Continuous
 62
     7
370
    30
100
AcDbLine
 10
112.825559017595
 20
148.6899743401756
 30
0.0
 11
112.7332294721406
 21
138.1075879765392
 31
0.0
  0
LINE
  5
16A
330
1F
100
AcDbEntity
  8
101
  6
Continuous
 62
     7
370
    30
100
AcDbLine
 10
112.7332294721406
 20
138.1075879765392
 30
0.0
 11
112.3355021994133
 21
136.8859970674483
 31
0.0
  0
LINE
  5
16B
330
1F
100
AcDbEntity
  8
101
  6
Continuous
 62
     7
370
    30
100
AcDbLine
 10
112.3355021994133
 20
136.8859970674483
 30
0.0
 11
111.3695931085042
 21
136.1473607038119
 31
0.0
  0
LINE
  5
16C
330
1F
100
AcDbEntity
  8
101
  6
Continuous
 62
     7
370
    30
100
AcDbLine
 10
111.3695931085042
 20
136.1473607038119
 30
0.0
 11
109.8923203812315
 21
135.4655425219937
 31
0.0
  0
LINE
  5
16D
330
1F
100
AcDbEntity
  8
101
  6
Continuous
 62
     7
370
    30
100
AcDbLine
 10
109.8923203812315
 20
135.4655425219937
 30
0.0
 11
108.7275476539588
 21
134.9825879765392
 31
0.0
  0
LINE
  5
16E
330
1F
100
AcDbEntity
  8
101
  6
Continuous
 62
     7
370
    30
100
AcDbLine
 10
108.7275476539588
 20
134.9825879765392
 30
0.0
 11
107.9320931085042
 21
134.6700879765392
 31
0.0
  0
LINE
  5
16F
330
1F
100
AcDbEntity
  8
101
  6
Continuous
 62
     7
370
    30
100
AcDbLine
 10
112.6079794165727
 20
137.7228913772949
 30
0.0
 11
112.3355021994133
 21
138.5621334310846
 31
0.0
  0
LINE
  5
170
330
1F
100
AcDbEntity
  8
101
  6
Continuous
 62
     7
370
    30
100
AcDbLine
 10
112.3355021994133
 20
138.5621334310846
 30
0.0
 11
111.0002749266861
 21
139.5848607038119
 31
0.0
  0
LINE
  5
171
330
1F
100
AcDbEntity
  8
101
  6
Continuous
 62
     7
370
    30
100
AcDbLine
 10
111.0002749266861
 20
139.5848607038119
 30
0.0
 11
108.4150476539588
 21
140.7780425219937
 31
0.0
  0
LINE
  5
172
330
1F
100
AcDbEntity
  8
101
  6
Continuous
 62
     7
370
    30
100
AcDbLine
 10
108.4150476539588
 20
140.7780425219937
 30
0.0
 11
105.3752749266861
 21
141.7155425219937
 31
0.0
  0
LINE
  5
173
330
1F
100
AcDbEntity
  8
101
  6
Continuous
 62
     7
370
    30
100
AcDbLine
 10
105.3752749266861
 20
141.7155425219937
 30
0.0
 11
101.1707294721406
 21
142.7950879765392
 31
0.0
  0
LINE
  5
174
330
1F
100
AcDbEntity
  8
101
  6
Continuous
 62
     7
370
    30
100
AcDbLine
 10
101.1707294721406
 20
142.7950879765392
 30
0.0
 11
95.5741385630497
 21
143.5053152492665
 31
0.0
  0
LINE
  5
175
330
1F
100
AcDbEntity
  8
101
  6
Continuous
 62
     7
370
    30
100
AcDbLine
 10
95.5741385630497
 20
143.5053152492665
 30
0.0
 11
88.89800219941333
 21
144.1587243401756
 31
0.0
  0
LINE
  5
176
330
1F
100
AcDbEntity
  8
101
  6
Continuous
 62
     7
370
    30
100
AcDbLine
 10
88.89800219941333
 20
144.1587243401756
 30
0.0
 11
84.55141129032239
 21
144.5280425219938
 31
0.0
  0
LINE
  5
177
330
1F
100
AcDbEntity
  8
101
  6
Continuous
 62
     7
370
    30
100
AcDbLine
 10
84.55141129032239
 20
144.5280425219938
 30
0.0
 11
80.17641129032239
 21
144.7553152492665
 31
0.0
  0
LINE
  5
178
330
1F
100
AcDbEntity
  8
101
  6
Continuous
 62
     7
370
    30
100
AcDbLine
 10
80.17641129032239
 20
144.7553152492665
 30
0.0
 11
74.92072947214058
 21
144.9257697947211
 31
0.0
  0
LINE
  5
179
330
1F
100
AcDbEntity
  8
101
  6
Continuous
 62
     7
370
    30
100
AcDbLine
 10
74.92072947214058
 20
144.9257697947211
 30
0.0
 11
69.57982038123146
 21
145.0394061583575
 31
0.0
  0
LINE
  5
17A
330
1F
100
AcDbEntity
  8
101
  6
Continuous
 62
     7
370
    30
100
AcDbLine
 10
69.57982038123146
 20
145.0394061583575
 30
0.0
 11
63.35822947214058
 21
145.0109970674483
 31
0.0
  0
LINE
  5
17B
330
1F
100
AcDbEntity
  8
101
  6
Continuous
 62
     7
370
    30
100
AcDbLine
 10
63.35822947214058
 20
145.0109970674483
 30
0.0
 11
57.73322947214052
 21
144.7837243401756
 31
0.0
  0
LINE
  5
17C
330
1F
100
AcDbEntity
  8
101
  6
Continuous
 62
     7
370
    30
100
AcDbLine
 10
57.73322947214052
 20
144.7837243401756
 30
0.0
 11
51.9093658357769
 21
144.4712243401756
 31
0.0
  0
LINE
  5
17D
330
1F
100
AcDbEntity
  8
101
  6
Continuous
 62
     7
370
    30
100
AcDbLine
 10
51.9093658357769
 20
144.4712243401756
 30
0.0
 11
47.90368401759508
 21
144.2155425219938
 31
0.0
  0
LINE
  5
17E
330
1F
100
AcDbEntity
  8
101
  6
Continuous
 62
     7
370
    30
100
AcDbLine
 10
47.90368401759508
 20
144.2155425219938
 30
0.0
 11
43.07413856304959
 21
143.5053152492666
 31
0.0
  0
LINE
  5
17F
330
1F
100
AcDbEntity
  8
101
  6
Continuous
 62
     7
370
    30
100
AcDbLine
 10
43.07413856304959
 20
143.5053152492666
 30
0.0
 11
39.69345674486777
 21
142.8234970674484
 31
0.0
  0
LINE
  5
180
330
1F
100
AcDbEntity
  8
101
  6
Continuous
 62
     7
370
    30
100
AcDbLine
 10
39.69345674486777
 20
142.8234970674484
 30
0.0
 11
37.36391129032233
 21
142.084860703812
 31
0.0
  0
LINE
  5
181
330
1F
100
AcDbEntity
  8
101
  6
Continuous
 62
     7
370
    30
100
AcDbLine
 10
37.36391129032233
 20
142.084860703812
 30
0.0
 11
35.85822947214052
 21
141.147360703812
 31
0.0
  0
LINE
  5
182
330
1F
100
AcDbEntity
  8
101
  6
Continuous
 62
     7
370
    30
100
AcDbLine
 10
35.85822947214052
 20
141.147360703812
 30
0.0
 11
35.11959310850415
 21
140.2666788856302
 31
0.0
  0
LINE
  5
183
330
1F
100
AcDbEntity
  8
101
  6
Continuous
 62
     7
370
    30
100
AcDbLine
 10
35.11959310850415
 20
140.2666788856302
 30
0.0
 11
34.81419538123134
 21
139.2581561583573
 31
0.0
  0
LINE
  5
184
330
1F
100
AcDbEntity
  8
101
  6
Continuous
 62
     7
370
    30
100
AcDbLine
 10
44.12527492668596
 20
138.7752016129029
 30
0.0
 11
43.92641129032233
 21
138.1217925219938
 31
0.0
  0
LINE
  5
185
330
1F
100
AcDbEntity
  8
101
  6
Continuous
 62
     7
370
    30
100
AcDbLine
 10
43.92641129032233
 20
138.1217925219938
 30
0.0
 11
44.06845674486783
 21
136.9854288856302
 31
0.0
  0
LINE
  5
186
330
1F
100
AcDbEntity
  8
101
  6
Continuous
 62
     7
370
    30
100
AcDbLine
 10
44.06845674486783
 20
136.9854288856302
 30
0.0
 11
44.49459310850415
 21
134.3433834310847
 31
0.0
  0
LINE
  5
187
330
1F
100
AcDbEntity
  8
101
  6
Continuous
 62
     7
370
    30
100
AcDbLine
 10
44.49459310850415
 20
134.3433834310847
 30
0.0
 11
44.66504765395871
 21
132.9513379765393
 31
0.0
  0
LINE
  5
188
330
1F
100
AcDbEntity
  8
101
  6
Continuous
 62
     7
370
    30
100
AcDbLine
 10
44.66504765395871
 20
132.9513379765393
 30
0.0
 11
44.86391129032233
 21
132.3831561583575
 31
0.0
  0
LINE
  5
189
330
1F
100
AcDbEntity
  8
101
  6
Continuous
 62
     7
370
    30
100
AcDbLine
 10
44.86391129032233
 20
132.3831561583575
 30
0.0
 11
45.29004765395871
 21
132.0422470674483
 31
0.0
  0
LINE
  5
18A
330
1F
100
AcDbEntity
  8
101
  6
Continuous
 62
     7
370
    30
100
AcDbLine
 10
44.12527492668596
 20
138.7752016129029
 30
0.0
 11
45.48891129032233
 21
139.6558834310847
 31
0.0
  0
LINE
  5
18B
330
1F
100
AcDbEntity
  8
101
  6
Continuous
 62
     7
370
    30
100
AcDbLine
 10
45.48891129032233
 20
139.6558834310847
 30
0.0
 11
47.47754765395871
 21
140.2240652492665
 31
0.0
  0
LINE
  5
18C
330
1F
100
AcDbEntity
  8
101
  6
Continuous
 62
     7
370
    30
100
AcDbLine
 10
47.47754765395871
 20
140.2240652492665
 30
0.0
 11
50.06277492668602
 21
140.7922470674484
 31
0.0
  0
LINE
  5
18D
330
1F
100
AcDbEntity
  8
101
  6
Continuous
 62
     7
370
    30
100
AcDbLine
 10
50.06277492668602
 20
140.7922470674484
 30
0.0
 11
52.67641129032233
 21
141.1899743401756
 31
0.0
  0
LINE
  5
18E
330
1F
100
AcDbEntity
  8
101
  6
Continuous
 62
     7
370
    30
100
AcDbLine
 10
52.67641129032233
 20
141.1899743401756
 30
0.0
 11
55.9718658357769
 21
141.5877016129029
 31
0.0
  0
LINE
  5
18F
330
1F
100
AcDbEntity
  8
101
  6
Continuous
 62
     7
370
    30
100
AcDbLine
 10
55.9718658357769
 20
141.5877016129029
 30
0.0
 11
60.0343658357769
 21
141.9002016129029
 31
0.0
  0
LINE
  5
190
330
1F
100
AcDbEntity
  8
101
  6
Continuous
 62
     7
370
    30
100
AcDbLine
 10
63.44345674486783
 20
142.0422470674483
 30
0.0
 11
72.19345674486783
 21
142.0422470674483
 31
0.0
  0
LINE
  5
191
330
1F
100
AcDbEntity
  8
101
  6
Continuous
 62
     7
370
    30
100
AcDbLine
 10
72.19345674486783
 20
142.0422470674483
 30
0.0
 11
77.47754765395877
 21
141.928610703812
 31
0.0
  0
LINE
  5
192
330
1F
100
AcDbEntity
  8
101
  6
Continuous
 62
     7
370
    30
100
AcDbLine
 10
77.47754765395877
 20
141.928610703812
 30
0.0
 11
82.19345674486789
 21
141.7865652492665
 31
0.0
  0
LINE
  5
193
330
1F
100
AcDbEntity
  8
101
  6
Continuous
 62
     7
370
    30
100
AcDbLine
 10
82.19345674486789
 20
141.7865652492665
 30
0.0
 11
87.56277492668602
 21
141.303610703812
 31
0.0
  0
LINE
  5
194
330
1F
100
AcDbEntity
  8
101
  6
Continuous
 62
     7
370
    30
100
AcDbLine
 10
87.56277492668602
 20
141.303610703812
 30
0.0
 11
92.1366385630497
 21
140.7638379765393
 31
0.0
  0
LINE
  5
195
330
1F
100
AcDbEntity
  8
101
  6
Continuous
 62
     7
370
    30
100
AcDbLine
 10
92.1366385630497
 20
140.7638379765393
 30
0.0
 11
95.29004765395877
 21
140.2524743401756
 31
0.0
  0
LINE
  5
196
330
1F
100
AcDbEntity
  8
101
  6
Continuous
 62
     7
370
    30
100
AcDbLine
 10
95.29004765395877
 20
140.2524743401756
 30
0.0
 11
98.44345674486783
 21
139.6274743401756
 31
0.0
  0
LINE
  5
197
330
1F
100
AcDbEntity
  8
101
  6
Continuous
 62
     7
370
    30
100
AcDbLine
 10
98.44345674486783
 20
139.6274743401756
 30
0.0
 11
101.1707294721406
 21
138.8320197947211
 31
0.0
  0
LINE
  5
198
330
1F
100
AcDbEntity
  8
101
  6
Continuous
 62
     7
370
    30
100
AcDbLine
 10
101.1707294721406
 20
138.8320197947211
 30
0.0
 11
103.2445931085042
 21
137.9797470674483
 31
0.0
  0
LINE
  5
199
330
1F
100
AcDbEntity
  8
101
  6
Continuous
 62
     7
370
    30
100
AcDbLine
 10
103.2445931085042
 20
137.9797470674483
 30
0.0
 11
103.9548203812315
 21
137.2695197947211
 31
0.0
  0
LINE
  5
19A
330
1F
100
AcDbEntity
  8
101
  6
Continuous
 62
     7
370
    30
100
AcDbLine
 10
103.9548203812315
 20
137.2695197947211
 30
0.0
 11
103.9832294721406
 21
136.6445197947211
 31
0.0
  0
LINE
  5
19B
330
1F
100
AcDbEntity
  8
101
  6
Continuous
 62
     7
370
    30
100
AcDbLine
 10
103.9832294721406
 20
136.6445197947211
 30
0.0
 11
103.6707294721406
 21
136.2752016129029
 31
0.0
  0
LINE
  5
19C
330
1F
100
AcDbEntity
  8
101
  6
Continuous
 62
     7
370
    30
100
AcDbLine
 10
103.6991385630497
 20
137.5252016129029
 30
0.0
 11
103.6707294721406
 21
136.2752016129029
 31
0.0
  0
LINE
  5
19D
330
1F
100
AcDbEntity
  8
101
  6
Continuous
 62
     7
370
    30
100
AcDbLine
 10
103.6707294721406
 20
136.2752016129029
 30
0.0
 11
103.6423203812315
 21
134.7979288856301
 31
0.0
  0
LINE
  5
19E
330
1F
100
AcDbEntity
  8
101
  6
Continuous
 62
     7
370
    30
100
AcDbLine
 10
103.6423203812315
 20
134.7979288856301
 30
0.0
 11
103.159365835777
 21
133.7467925219938
 31
0.0
  0
LINE
  5
19F
330
1F
100
AcDbEntity
  8
101
  6
Continuous
 62
     7
370
    30
100
AcDbLine
 10
103.159365835777
 20
133.7467925219938
 30
0.0
 11
102.9605021994133
 21
131.5308834310847
 31
0.0
  0
LINE
  5
1A0
330
1F
100
AcDbEntity
  8
101
  6
Continuous
 62
     7
370
    30
100
AcDbLine
 10
102.9605021994133
 20
131.5308834310847
 30
0.0
 11
102.7332294721406
 21
131.2752016129028
 31
0.0
  0
LINE
  5
1A1
330
1F
100
AcDbEntity
  8
101
  6
Continuous
 62
     7
370
    30
100
AcDbLine
 10
102.7332294721406
 20
131.2752016129028
 30
0.0
 11
102.6480021994133
 21
132.241110703812
 31
0.0
  0
LINE
  5
1A2
330
1F
100
AcDbEntity
  8
101
  6
Continuous
 62
     7
370
    30
100
AcDbLine
 10
102.6480021994133
 20
132.241110703812
 30
0.0
 11
102.221865835777
 21
132.894519794721
 31
0.0
  0
LINE
  5
1A3
330
1F
100
AcDbEntity
  8
101
  6
Continuous
 62
     7
370
    30
100
AcDbLine
 10
102.221865835777
 20
132.894519794721
 30
0.0
 11
101.1423203812315
 21
133.5479288856301
 31
0.0
  0
LINE
  5
1A4
330
1F
100
AcDbEntity
  8
101
  6
Continuous
 62
     7
370
    30
100
AcDbLine
 10
101.1423203812315
 20
133.5479288856301
 30
0.0
 11
99.40936583577695
 21
134.2297470674483
 31
0.0
  0
LINE
  5
1A5
330
1F
100
AcDbEntity
  8
101
  6
Continuous
 62
     7
370
    30
100
AcDbLine
 10
99.40936583577695
 20
134.2297470674483
 30
0.0
 11
95.8866385630497
 21
134.8547470674483
 31
0.0
  0
LINE
  5
1A6
330
1F
100
AcDbEntity
  8
101
  6
Continuous
 62
     7
370
    30
100
AcDbLine
 10
95.8866385630497
 20
134.8547470674483
 30
0.0
 11
91.73891129032239
 21
135.4797470674483
 31
0.0
  0
LINE
  5
1A7
330
1F
100
AcDbEntity
  8
101
  6
Continuous
 62
     7
370
    30
100
AcDbLine
 10
91.73891129032239
 20
135.4797470674483
 30
0.0
 11
87.22186583577695
 21
135.991110703812
 31
0.0
  0
LINE
  5
1A8
330
1F
100
AcDbEntity
  8
101
  6
Continuous
 62
     7
370
    30
100
AcDbLine
 10
87.22186583577695
 20
135.991110703812
 30
0.0
 11
82.70482038123146
 21
136.2467925219938
 31
0.0
  0
LINE
  5
1A9
330
1F
100
AcDbEntity
  8
101
  6
Continuous
 62
     7
370
    30
100
AcDbLine
 10
82.70482038123146
 20
136.2467925219938
 30
0.0
 11
77.76163856304964
 21
136.5024743401756
 31
0.0
  0
LINE
  5
1AA
330
1F
100
AcDbEntity
  8
101
  6
Continuous
 62
     7
370
    30
100
AcDbLine
 10
77.76163856304964
 20
136.5024743401756
 30
0.0
 11
74.01163856304964
 21
136.4456561583575
 31
0.0
  0
LINE
  5
1AB
330
1F
100
AcDbEntity
  8
101
  6
Continuous
 62
     7
370
    30
100
AcDbLine
 10
74.01163856304964
 20
136.4456561583575
 30
0.0
 11
69.97754765395871
 21
136.4172470674484
 31
0.0
  0
LINE
  5
1AC
330
1F
100
AcDbEntity
  8
101
  6
Continuous
 62
     7
370
    30
100
AcDbLine
 10
69.97754765395871
 20
136.4172470674484
 30
0.0
 11
66.45482038123146
 21
136.3888379765393
 31
0.0
  0
LINE
  5
1AD
330
1F
100
AcDbEntity
  8
101
  6
Continuous
 62
     7
370
    30
100
AcDbLine
 10
66.45482038123146
 20
136.3888379765393
 30
0.0
 11
63.41504765395871
 21
136.3320197947211
 31
0.0
  0
LINE
  5
1AE
330
1F
100
AcDbEntity
  8
101
  6
Continuous
 62
     7
370
    30
100
AcDbLine
 10
60.14800219941327
 20
136.1899743401756
 30
0.0
 11
57.05141129032233
 21
135.9342925219938
 31
0.0
  0
LINE
  5
1AF
330
1F
100
AcDbEntity
  8
101
  6
Continuous
 62
     7
370
    30
100
AcDbLine
 10
57.05141129032233
 20
135.9342925219938
 30
0.0
 11
53.92641129032233
 21
135.6217925219938
 31
0.0
  0
LINE
  5
1B0
330
1F
100
AcDbEntity
  8
101
  6
Continuous
 62
     7
370
    30
100
AcDbLine
 10
53.92641129032233
 20
135.6217925219938
 30
0.0
 11
50.71618401759508
 21
135.1672470674484
 31
0.0
  0
LINE
  5
1B1
330
1F
100
AcDbEntity
  8
101
  6
Continuous
 62
     7
370
    30
100
AcDbLine
 10
50.71618401759508
 20
135.1672470674484
 30
0.0
 11
47.67641129032233
 21
134.3717925219938
 31
0.0
  0
LINE
  5
1B2
330
1F
100
AcDbEntity
  8
101
  6
Continuous
 62
     7
370
    30
100
AcDbLine
 10
47.67641129032233
 20
134.3717925219938
 30
0.0
 11
45.77300219941321
 21
133.7467925219938
 31
0.0
  0
LINE
  5
1B3
330
1F
100
AcDbEntity
  8
101
  6
Continuous
 62
     7
370
    30
100
AcDbLine
 10
45.77300219941321
 20
133.7467925219938
 30
0.0
 11
45.29004765395871
 21
133.0933834310848
 31
0.0
  0
LINE
  5
1B4
330
1F
100
AcDbEntity
  8
101
  6
Continuous
 62
     7
370
    30
100
AcDbLine
 10
45.29004765395871
 20
133.0933834310848
 30
0.0
 11
45.29004765395871
 21
132.0422470674483
 31
0.0
  0
LINE
  5
1B5
330
1F
100
AcDbEntity
  8
101
  6
Continuous
 62
     7
370
    30
100
AcDbLine
 10
103.159365835777
 20
133.7467925219938
 30
0.0
 11
105.0911840175951
 21
134.2013379765393
 31
0.0
  0
LINE
  5
1B6
330
1F
100
AcDbEntity
  8
101
  6
Continuous
 62
     7
370
    30
100
AcDbLine
 10
102.7332294721406
 20
131.2752016129028
 30
0.0
 11
102.0230021994133
 21
103.2354288856301
 31
0.0
  0
LINE
  5
1B7
330
1F
100
AcDbEntity
  8
101
  6
Continuous
 62
     7
370
    30
100
AcDbLine
 10
42.36391129032228
 20
103.0649743401756
 30
0.0
 11
38.10254765395865
 21
103.0081561583574
 31
0.0
  0
LINE
  5
1B8
330
1F
100
AcDbEntity
  8
101
  6
Continuous
 62
     7
370
    30
100
AcDbLine
 10
38.10254765395865
 20
103.0081561583574
 30
0.0
 11
36.54004765395865
 21
102.7808834310847
 31
0.0
  0
LINE
  5
1B9
330
1F
100
AcDbEntity
  8
101
  6
Continuous
 62
     7
370
    30
100
AcDbLine
 10
36.54004765395865
 20
102.7808834310847
 30
0.0
 11
35.71618401759497
 21
102.1842925219938
 31
0.0
  0
LINE
  5
1BA
330
1F
100
AcDbEntity
  8
101
  6
Continuous
 62
     7
370
    30
100
AcDbLine
 10
35.71618401759497
 20
102.1842925219938
 30
0.0
 11
35.20482038123134
 21
101.4740652492665
 31
0.0
  0
LINE
  5
1BB
330
1F
100
AcDbEntity
  8
101
  6
Continuous
 62
     7
370
    30
100
AcDbLine
 10
35.20482038123134
 20
101.4740652492665
 30
0.0
 11
35.20482038123134
 21
100.5933834310847
 31
0.0
  0
LINE
  5
1BC
330
1F
100
AcDbEntity
  8
101
  6
Continuous
 62
     7
370
    30
100
AcDbLine
 10
35.20482038123134
 20
100.5933834310847
 30
0.0
 11
35.48891129032228
 21
99.85474706744832
 31
0.0
  0
LINE
  5
1BD
330
1F
100
AcDbEntity
  8
101
  6
Continuous
 62
     7
370
    30
100
AcDbLine
 10
35.48891129032228
 20
99.85474706744832
 30
0.0
 11
36.42641129032228
 21
99.2865652492665
 31
0.0
  0
LINE
  5
1BE
330
1F
100
AcDbEntity
  8
101
  6
Continuous
 62
     7
370
    30
100
AcDbLine
 10
36.42641129032228
 20
99.2865652492665
 30
0.0
 11
37.5627749266859
 21
99.11611070381196
 31
0.0
  0
LINE
  5
1BF
330
1F
100
AcDbEntity
  8
101
  6
Continuous
 62
     7
370
    30
100
AcDbLine
 10
37.5627749266859
 20
99.11611070381196
 30
0.0
 11
45.46050219941321
 21
99.08770161290286
 31
0.0
  0
LINE
  5
1C0
330
1F
100
AcDbEntity
  8
101
  6
Continuous
 62
     7
370
    30
100
AcDbLine
 10
45.46050219941321
 20
99.08770161290286
 30
0.0
 11
56.36959310850415
 21
98.97406524926652
 31
0.0
  0
LINE
  5
1C1
330
1F
100
AcDbEntity
  8
101
  6
Continuous
 62
     7
370
    30
100
AcDbLine
 10
56.36959310850415
 20
98.97406524926652
 30
0.0
 11
63.84118401759503
 21
98.91724706744833
 31
0.0
  0
LINE
  5
1C2
330
1F
100
AcDbEntity
  8
101
  6
Continuous
 62
     7
370
    30
100
AcDbLine
 10
63.84118401759503
 20
98.91724706744833
 30
0.0
 11
73.98322947214052
 21
99.0592925219938
 31
0.0
  0
LINE
  5
1C3
330
1F
100
AcDbEntity
  8
101
  6
Continuous
 62
     7
370
    30
100
AcDbLine
 10
73.98322947214052
 20
99.0592925219938
 30
0.0
 11
84.7218658357769
 21
99.14451979472106
 31
0.0
  0
LINE
  5
1C4
330
1F
100
AcDbEntity
  8
101
  6
Continuous
 62
     7
370
    30
100
AcDbLine
 10
84.7218658357769
 20
99.14451979472106
 30
0.0
 11
93.47186583577695
 21
99.22974706744832
 31
0.0
  0
LINE
  5
1C5
330
1F
100
AcDbEntity
  8
101
  6
Continuous
 62
     7
370
    30
100
AcDbLine
 10
93.47186583577695
 20
99.22974706744832
 30
0.0
 11
102.4775476539588
 21
99.45701979472109
 31
0.0
  0
LINE
  5
1C6
330
1F
100
AcDbEntity
  8
101
  6
Continuous
 62
     7
370
    30
100
AcDbLine
 10
102.4775476539588
 20
99.45701979472109
 30
0.0
 11
107.9605021994133
 21
99.51383797653926
 31
0.0
  0
LINE
  5
1C7
330
1F
100
AcDbEntity
  8
101
  6
Continuous
 62
     7
370
    30
100
AcDbLine
 10
107.9605021994133
 20
99.51383797653926
 30
0.0
 11
110.2332294721406
 21
99.76951979472109
 31
0.0
  0
LINE
  5
1C8
330
1F
100
AcDbEntity
  8
101
  6
Continuous
 62
     7
370
    30
100
AcDbLine
 10
110.2332294721406
 20
99.76951979472109
 30
0.0
 11
111.4264112903224
 21
100.3092925219938
 31
0.0
  0
LINE
  5
1C9
330
1F
100
AcDbEntity
  8
101
  6
Continuous
 62
     7
370
    30
100
AcDbLine
 10
111.4264112903224
 20
100.3092925219938
 30
0.0
 11
111.6820931085042
 21
101.1899743401756
 31
0.0
  0
LINE
  5
1CA
330
1F
100
AcDbEntity
  8
101
  6
Continuous
 62
     7
370
    30
100
AcDbLine
 10
111.6820931085042
 20
101.1899743401756
 30
0.0
 11
111.5400476539588
 21
102.1558834310847
 31
0.0
  0
LINE
  5
1CB
330
1F
100
AcDbEntity
  8
101
  6
Continuous
 62
     7
370
    30
100
AcDbLine
 10
111.5400476539588
 20
102.1558834310847
 30
0.0
 11
111.0002749266861
 21
102.9229288856302
 31
0.0
  0
LINE
  5
1CC
330
1F
100
AcDbEntity
  8
101
  6
Continuous
 62
     7
370
    30
100
AcDbLine
 10
111.0002749266861
 20
102.9229288856302
 30
0.0
 11
109.9207294721406
 21
103.1502016129029
 31
0.0
  0
LINE
  5
1CD
330
1F
100
AcDbEntity
  8
101
  6
Continuous
 62
     7
370
    30
100
AcDbLine
 10
109.9207294721406
 20
103.1502016129029
 30
0.0
 11
102.0230021994133
 21
103.2354288856301
 31
0.0
  0
LINE
  5
1CE
330
1F
100
AcDbEntity
  8
101
  6
Continuous
 62
     7
370
    30
100
AcDbLine
 10
102.0230021994133
 20
103.2354288856301
 30
0.0
 11
82.25027492668602
 21
103.1502016129029
 31
0.0
  0
LINE
  5
1CF
330
1F
100
AcDbEntity
  8
101
  6
Continuous
 62
     7
370
    30
100
AcDbLine
 10
82.25027492668602
 20
103.1502016129029
 30
0.0
 11
59.52300219941321
 21
103.0081561583575
 31
0.0
  0
LINE
  5
1D0
330
1F
100
AcDbEntity
  8
101
  6
Continuous
 62
     7
370
    30
100
AcDbLine
 10
59.52300219941321
 20
103.0081561583575
 30
0.0
 11
42.36391129032228
 21
103.0649743401756
 31
0.0
  0
LINE
  5
1D1
330
1F
100
AcDbEntity
  8
101
  6
Continuous
 62
     7
370
    30
100
AcDbLine
 10
42.16504765395865
 20
63.57633797653921
 30
0.0
 11
42.56301680003548
 21
99.09812422225315
 31
0.0
  0
LINE
  5
1D2
330
1F
100
AcDbEntity
  8
101
  6
Continuous
 62
     7
370
    30
100
AcDbLine
 10
45.14831281184536
 20
99.08882459631138
 30
0.0
 11
44.69345674486777
 21
63.06497434017558
 31
0.0
  0
LINE
  5
1D3
330
1F
100
AcDbEntity
  8
101
  6
Continuous
 62
     7
370
    30
100
AcDbLine
 10
44.20834126450637
 20
136.1181448638711
 30
0.0
 11
43.30141129032233
 21
136.0195197947212
 31
0.0
  0
LINE
  5
1D4
330
1F
100
AcDbEntity
  8
101
  6
Continuous
 62
     7
370
    30
100
AcDbLine
 10
43.30141129032233
 20
136.0195197947212
 30
0.0
 11
42.89658174486772
 21
135.4087243401755
 31
0.0
  0
LINE
  5
1D5
330
1F
100
AcDbEntity
  8
101
  6
Continuous
 62
     7
370
    30
100
AcDbLine
 10
42.89658174486772
 20
135.4087243401755
 30
0.0
 11
42.93209310850415
 21
134.9967925219939
 31
0.0
  0
LINE
  5
1D6
330
1F
100
AcDbEntity
  8
101
  6
Continuous
 62
     7
370
    30
100
AcDbLine
 10
42.93209310850415
 20
134.9967925219939
 30
0.0
 11
42.36391129032228
 21
103.0649743401756
 31
0.0
  0
LINE
  5
1D7
330
1F
100
AcDbEntity
  8
101
  6
Continuous
 62
     7
370
    30
100
AcDbLine
 10
45.37533597796403
 20
103.0550027352497
 30
0.0
 11
45.29004765395871
 21
132.0422470674483
 31
0.0
  0
LINE
  5
1D8
330
1F
100
AcDbEntity
  8
101
  6
Continuous
 62
     7
370
    30
100
AcDbLine
 10
43.30141129032233
 20
136.0195197947212
 30
0.0
 11
41.99459310850409
 21
136.7013379765394
 31
0.0
  0
LINE
  5
1D9
330
1F
100
AcDbEntity
  8
101
  6
Continuous
 62
     7
370
    30
100
AcDbLine
 10
41.99459310850409
 20
136.7013379765394
 30
0.0
 11
40.2048203812314
 21
137.6104288856303
 31
0.0
  0
LINE
  5
1DA
330
1F
100
AcDbEntity
  8
101
  6
Continuous
 62
     7
370
    30
100
AcDbLine
 10
40.2048203812314
 20
137.6104288856303
 30
0.0
 11
39.66504765395865
 21
138.9172470674485
 31
0.0
  0
LINE
  5
1DB
330
1F
100
AcDbEntity
  8
101
  6
Continuous
 62
     7
370
    30
100
AcDbLine
 10
39.66504765395865
 20
138.9172470674485
 30
0.0
 11
40.57413856304959
 21
140.1388379765394
 31
0.0
  0
LINE
  5
1DC
330
1F
100
AcDbEntity
  8
101
  6
Continuous
 62
     7
370
    30
100
AcDbLine
 10
40.57413856304959
 20
140.1388379765394
 30
0.0
 11
42.47754765395865
 21
140.934292521994
 31
0.0
  0
LINE
  5
1DD
330
1F
100
AcDbEntity
  8
101
  6
Continuous
 62
     7
370
    30
100
AcDbLine
 10
42.47754765395865
 20
140.934292521994
 30
0.0
 11
45.8298203812314
 21
141.7865652492667
 31
0.0
  0
LINE
  5
1DE
330
1F
100
AcDbEntity
  8
101
  6
Continuous
 62
     7
370
    30
100
AcDbLine
 10
45.8298203812314
 20
141.7865652492667
 30
0.0
 11
50.54572947214047
 21
142.4115652492667
 31
0.0
  0
LINE
  5
1DF
330
1F
100
AcDbEntity
  8
101
  6
Continuous
 62
     7
370
    30
100
AcDbLine
 10
50.54572947214047
 20
142.4115652492667
 30
0.0
 11
55.5173203812314
 21
142.8945197947212
 31
0.0
  0
LINE
  5
1E0
330
1F
100
AcDbEntity
  8
101
  6
Continuous
 62
     7
370
    30
100
AcDbLine
 10
55.5173203812314
 20
142.8945197947212
 30
0.0
 11
59.06845674486777
 21
143.0933834310848
 31
0.0
  0
LINE
  5
1E1
330
1F
100
AcDbEntity
  8
101
  6
Continuous
 62
     7
370
    30
100
AcDbLine
 10
59.06845674486777
 20
143.0933834310848
 30
0.0
 11
60.91504765395871
 21
143.2354288856303
 31
0.0
  0
LINE
  5
1E2
330
1F
100
AcDbEntity
  8
101
  6
Continuous
 62
     7
370
    30
100
AcDbLine
 10
60.91504765395871
 20
143.2354288856303
 30
0.0
 11
63.3298203812314
 21
143.2354288856303
 31
0.0
  0
LINE
  5
1E3
330
1F
100
AcDbEntity
  8
101
  6
Continuous
 62
     7
370
    30
100
AcDbLine
 10
63.3298203812314
 20
143.2354288856303
 30
0.0
 11
71.71050219941327
 21
143.2638379765394
 31
0.0
  0
LINE
  5
1E4
330
1F
100
AcDbEntity
  8
101
  6
Continuous
 62
     7
370
    30
100
AcDbLine
 10
71.71050219941327
 20
143.2638379765394
 30
0.0
 11
78.13095674486783
 21
143.1217925219939
 31
0.0
  0
LINE
  5
1E5
330
1F
100
AcDbEntity
  8
101
  6
Continuous
 62
     7
370
    30
100
AcDbLine
 10
78.13095674486783
 20
143.1217925219939
 30
0.0
 11
85.82982038123146
 21
142.7524743401758
 31
0.0
  0
LINE
  5
1E6
330
1F
100
AcDbEntity
  8
101
  6
Continuous
 62
     7
370
    30
100
AcDbLine
 10
85.82982038123146
 20
142.7524743401758
 30
0.0
 11
90.6593658357769
 21
142.2979288856303
 31
0.0
  0
LINE
  5
1E7
330
1F
100
AcDbEntity
  8
101
  6
Continuous
 62
     7
370
    30
100
AcDbLine
 10
90.6593658357769
 20
142.2979288856303
 30
0.0
 11
95.34686583577695
 21
141.7297470674484
 31
0.0
  0
LINE
  5
1E8
330
1F
100
AcDbEntity
  8
101
  6
Continuous
 62
     7
370
    30
100
AcDbLine
 10
95.34686583577695
 20
141.7297470674484
 30
0.0
 11
100.375274926686
 21
140.8774743401757
 31
0.0
  0
LINE
  5
1E9
330
1F
100
AcDbEntity
  8
101
  6
Continuous
 62
     7
370
    30
100
AcDbLine
 10
100.375274926686
 20
140.8774743401757
 30
0.0
 11
104.0400476539588
 21
139.8831561583576
 31
0.0
  0
LINE
  5
1EA
330
1F
100
AcDbEntity
  8
101
  6
Continuous
 62
     7
370
    30
100
AcDbLine
 10
104.0400476539588
 20
139.8831561583576
 30
0.0
 11
105.4320931085042
 21
139.3433834310848
 31
0.0
  0
LINE
  5
1EB
330
1F
100
AcDbEntity
  8
101
  6
Continuous
 62
     7
370
    30
100
AcDbLine
 10
105.4320931085042
 20
139.3433834310848
 30
0.0
 11
107.1934567448678
 21
139.2013379765394
 31
0.0
  0
LINE
  5
1EC
330
1F
100
AcDbEntity
  8
101
  6
Continuous
 62
     7
370
    30
100
AcDbLine
 10
107.1934567448678
 20
139.2013379765394
 30
0.0
 11
108.471865835777
 21
137.9797470674484
 31
0.0
  0
LINE
  5
1ED
330
1F
100
AcDbEntity
  8
101
  6
Continuous
 62
     7
370
    30
100
AcDbLine
 10
108.471865835777
 20
137.9797470674484
 30
0.0
 11
109.096865835777
 21
137.3263379765394
 31
0.0
  0
LINE
  5
1EE
330
1F
100
AcDbEntity
  8
101
  6
Continuous
 62
     7
370
    30
100
AcDbLine
 10
109.096865835777
 20
137.3263379765394
 30
0.0
 11
108.9832294721406
 21
136.5308834310848
 31
0.0
  0
LINE
  5
1EF
330
1F
100
AcDbEntity
  8
101
  6
Continuous
 62
     7
370
    30
100
AcDbLine
 10
108.9832294721406
 20
136.5308834310848
 30
0.0
 11
107.8184567448678
 21
135.5933834310848
 31
0.0
  0
LINE
  5
1F0
330
1F
100
AcDbEntity
  8
101
  6
Continuous
 62
     7
370
    30
100
AcDbLine
 10
108.0187797021119
 20
138.4126960396172
 30
0.0
 11
107.8184567448678
 21
135.5933834310848
 31
0.0
  0
LINE
  5
1F1
330
1F
100
AcDbEntity
  8
101
  6
Continuous
 62
     7
370
    30
100
AcDbLine
 10
107.8184567448678
 20
135.5933834310848
 30
0.0
 11
107.9320931085042
 21
134.6700879765392
 31
0.0
  0
LINE
  5
1F2
330
1F
100
AcDbEntity
  8
101
  6
Continuous
 62
     7
370
    30
100
AcDbLine
 10
107.9320931085042
 20
134.6700879765392
 30
0.0
 11
107.8471073165414
 21
103.1725788304094
 31
0.0
  0
LINE
  5
1F3
330
1F
100
AcDbEntity
  8
101
  6
Continuous
 62
     7
370
    30
100
AcDbLine
 10
105.1763506444684
 20
103.2013999455756
 30
0.0
 11
105.0911840175951
 21
134.2013379765393
 31
0.0
  0
LINE
  5
1F4
330
1F
100
AcDbEntity
  8
101
  6
Continuous
 62
     7
370
    30
100
AcDbLine
 10
105.0911840175951
 20
134.2013379765393
 30
0.0
 11
105.0059567448679
 21
136.6161107038121
 31
0.0
  0
LINE
  5
1F5
330
1F
100
AcDbEntity
  8
101
  6
Continuous
 62
     7
370
    30
100
AcDbLine
 10
105.0059567448679
 20
136.6161107038121
 30
0.0
 11
105.1195931085043
 21
137.9229288856303
 31
0.0
  0
LINE
  5
1F6
330
1F
100
AcDbEntity
  8
101
  6
Continuous
 62
     7
370
    30
100
AcDbLine
 10
105.1195931085043
 20
137.9229288856303
 30
0.0
 11
105.4605021994133
 21
138.6615652492666
 31
0.0
  0
LINE
  5
1F7
330
1F
100
AcDbEntity
  8
101
  6
Continuous
 62
     7
370
    30
100
AcDbLine
 10
105.4605021994133
 20
138.6615652492666
 30
0.0
 11
106.6143782890771
 21
139.2480378520063
 31
0.0
  0
LINE
  5
1F8
330
1F
100
AcDbEntity
  8
101
  6
Continuous
 62
     7
370
    30
100
AcDbLine
 10
60.16554899085713
 20
143.1777751423148
 30
0.0
 11
60.0343658357769
 21
141.9002016129029
 31
0.0
  0
LINE
  5
1F9
330
1F
100
AcDbEntity
  8
101
  6
Continuous
 62
     7
370
    30
100
AcDbLine
 10
60.0343658357769
 20
141.9002016129029
 30
0.0
 11
60.14800219941327
 21
136.1899743401756
 31
0.0
  0
LINE
  5
1FA
330
1F
100
AcDbEntity
  8
101
  6
Continuous
 62
     7
370
    30
100
AcDbLine
 10
60.14800219941327
 20
136.1899743401756
 30
0.0
 11
59.52300219941321
 21
103.0081561583575
 31
0.0
  0
LINE
  5
1FB
330
1F
100
AcDbEntity
  8
101
  6
Continuous
 62
     7
370
    30
100
AcDbLine
 10
63.35843476419234
 20
103.0321276118873
 30
0.0
 11
63.41504765395871
 21
136.3320197947211
 31
0.0
  0
LINE
  5
1FC
330
1F
100
AcDbEntity
  8
101
  6
Continuous
 62
     7
370
    30
100
AcDbLine
 10
63.41504765395871
 20
136.3320197947211
 30
0.0
 11
63.44345674486783
 21
142.0422470674483
 31
0.0
  0
LINE
  5
1FD
330
1F
100
AcDbEntity
  8
101
  6
Continuous
 62
     7
370
    30
100
AcDbLine
 10
63.44345674486783
 20
142.0422470674483
 30
0.0
 11
63.3298203812314
 21
143.2354288856303
 31
0.0
  0
LINE
  5
1FE
330
1F
100
AcDbEntity
  8
101
  6
Continuous
 62
     7
370
    30
100
AcDbLine
 10
59.52346792894775
 20
98.95008141032778
 30
0.0
 11
59.52300219941321
 21
61.61611070381198
 31
0.0
  0
LINE
  5
1FF
330
1F
100
AcDbEntity
  8
101
  6
Continuous
 62
     7
370
    30
100
AcDbLine
 10
63.04572947214052
 20
61.67292888563016
 30
0.0
 11
63.16005334128022
 21
98.9224267684089
 31
0.0
  0
LINE
  5
200
330
1F
100
AcDbEntity
  8
101
  6
Continuous
 62
     7
370
    30
100
AcDbLine
 10
102.4775476539588
 20
99.45701979472109
 30
0.0
 11
100.971865835777
 21
64.25815615835744
 31
0.0
  0
LINE
  5
201
330
1F
100
AcDbEntity
  8
101
  6
Continuous
 62
     7
370
    30
100
AcDbLine
 10
105.0059567448679
 20
65.16724706744836
 30
0.0
 11
105.1471267360583
 21
99.48468382665995
 31
0.0
  0
LINE
  5
202
330
1F
100
AcDbEntity
  8
101
  6
Continuous
 62
     7
370
    30
100
AcDbLine
 10
108.241042520071
 20
99.54539876261325
 30
0.0
 11
107.4491385630497
 21
66.18997434017564
 31
0.0
  0
LINE
  5
203
330
1F
100
AcDbEntity
  8
101
  6
Continuous
 62
     7
370
    30
100
AcDbLine
 10
105.0151874903376
 20
67.4111766818543
 30
0.0
 11
102.4491385630497
 21
67.9229288856302
 31
0.0
  0
LINE
  5
204
330
1F
100
AcDbEntity
  8
101
  6
Continuous
 62
     7
370
    30
100
AcDbLine
 10
102.4491385630497
 20
67.9229288856302
 30
0.0
 11
101.1408388295827
 21
68.20829840977805
 31
0.0
  0
LINE
  5
205
330
1F
100
AcDbEntity
  8
101
  6
Continuous
 62
     7
370
    30
100
AcDbLine
 10
101.2818604758569
 20
71.50501198966083
 30
0.0
 11
102.8184567448679
 21
71.24679252199384
 31
0.0
  0
LINE
  5
206
330
1F
100
AcDbEntity
  8
101
  6
Continuous
 62
     7
370
    30
100
AcDbLine
 10
102.8184567448679
 20
71.24679252199384
 30
0.0
 11
105.0286277123421
 21
70.67840057822943
 31
0.0
  0
LINE
  5
207
330
1F
100
AcDbEntity
  8
101
  6
Continuous
 62
     7
370
    30
100
AcDbLine
 10
107.540942996758
 20
70.05682690865972
 30
0.0
 11
108.8980021994133
 21
69.37179252199383
 31
0.0
  0
LINE
  5
208
330
1F
100
AcDbEntity
  8
101
  6
Continuous
 62
     7
370
    30
100
AcDbLine
 10
108.8980021994133
 20
69.37179252199383
 30
0.0
 11
110.2900476539588
 21
68.32065615835747
 31
0.0
  0
LINE
  5
209
330
1F
100
AcDbEntity
  8
101
  6
Continuous
 62
     7
370
    30
100
AcDbLine
 10
110.2900476539588
 20
68.32065615835747
 30
0.0
 11
111.2559567448679
 21
67.04224706744837
 31
0.0
  0
LINE
  5
20A
330
1F
100
AcDbEntity
  8
101
  6
Continuous
 62
     7
370
    30
100
AcDbLine
 10
111.2559567448679
 20
67.04224706744837
 30
0.0
 11
111.1139112903224
 21
65.25247434017564
 31
0.0
  0
LINE
  5
20B
330
1F
100
AcDbEntity
  8
101
  6
Continuous
 62
     7
370
    30
100
AcDbLine
 10
111.1139112903224
 20
65.25247434017564
 30
0.0
 11
110.2332294721406
 21
63.94565615835745
 31
0.0
  0
LINE
  5
20C
330
1F
100
AcDbEntity
  8
101
  6
Continuous
 62
     7
370
    30
100
AcDbLine
 10
110.2332294721406
 20
63.94565615835745
 30
0.0
 11
108.9548203812315
 21
63.03656524926656
 31
0.0
  0
LINE
  5
20D
330
1F
100
AcDbEntity
  8
101
  6
Continuous
 62
     7
370
    30
100
AcDbLine
 10
108.9548203812315
 20
63.03656524926656
 30
0.0
 11
107.2786840175952
 21
62.07065615835747
 31
0.0
  0
LINE
  5
20E
330
1F
100
AcDbEntity
  8
101
  6
Continuous
 62
     7
370
    30
100
AcDbLine
 10
107.2786840175952
 20
62.07065615835747
 30
0.0
 11
104.6366385630497
 21
61.10474706744837
 31
0.0
  0
LINE
  5
20F
330
1F
100
AcDbEntity
  8
101
  6
Continuous
 62
     7
370
    30
100
AcDbLine
 10
104.6366385630497
 20
61.10474706744837
 30
0.0
 11
101.5400476539588
 21
60.25247434017564
 31
0.0
  0
LINE
  5
210
330
1F
100
AcDbEntity
  8
101
  6
Continuous
 62
     7
370
    30
100
AcDbLine
 10
101.5400476539588
 20
60.25247434017564
 30
0.0
 11
97.36391129032239
 21
59.31497434017564
 31
0.0
  0
LINE
  5
211
330
1F
100
AcDbEntity
  8
101
  6
Continuous
 62
     7
370
    30
100
AcDbLine
 10
97.36391129032239
 20
59.31497434017564
 30
0.0
 11
93.35822947214058
 21
58.71838343108473
 31
0.0
  0
LINE
  5
212
330
1F
100
AcDbEntity
  8
101
  6
Continuous
 62
     7
370
    30
100
AcDbLine
 10
93.35822947214058
 20
58.71838343108473
 30
0.0
 11
88.58550219941327
 21
58.26383797653926
 31
0.0
  0
LINE
  5
213
330
1F
100
AcDbEntity
  8
101
  6
Continuous
 62
     7
370
    30
100
AcDbLine
 10
88.58550219941327
 20
58.26383797653926
 30
0.0
 11
83.4718658357769
 21
57.72406524926653
 31
0.0
  0
LINE
  5
214
330
1F
100
AcDbEntity
  8
101
  6
Continuous
 62
     7
370
    30
100
AcDbLine
 10
83.4718658357769
 20
57.72406524926653
 30
0.0
 11
76.54004765395871
 21
57.38315615835744
 31
0.0
  0
LINE
  5
215
330
1F
100
AcDbEntity
  8
101
  6
Continuous
 62
     7
370
    30
100
AcDbLine
 10
76.54004765395871
 20
57.38315615835744
 30
0.0
 11
70.40368401759508
 21
57.32633797653925
 31
0.0
  0
LINE
  5
216
330
1F
100
AcDbEntity
  8
101
  6
Continuous
 62
     7
370
    30
100
AcDbLine
 10
70.40368401759508
 20
57.32633797653925
 30
0.0
 11
63.67072947214052
 21
57.35474706744834
 31
0.0
  0
LINE
  5
217
330
1F
100
AcDbEntity
  8
101
  6
Continuous
 62
     7
370
    30
100
AcDbLine
 10
63.67072947214052
 20
57.35474706744834
 30
0.0
 11
59.46618401759503
 21
57.4683834310847
 31
0.0
  0
LINE
  5
218
330
1F
100
AcDbEntity
  8
101
  6
Continuous
 62
     7
370
    30
100
AcDbLine
 10
59.46618401759503
 20
57.4683834310847
 30
0.0
 11
53.27300219941321
 21
57.7808834310847
 31
0.0
  0
LINE
  5
219
330
1F
100
AcDbEntity
  8
101
  6
Continuous
 62
     7
370
    30
100
AcDbLine
 10
53.27300219941321
 20
57.7808834310847
 30
0.0
 11
48.84118401759503
 21
58.23542888563017
 31
0.0
  0
LINE
  5
21A
330
1F
100
AcDbEntity
  8
101
  6
Continuous
 62
     7
370
    30
100
AcDbLine
 10
48.84118401759503
 20
58.23542888563017
 30
0.0
 11
45.29004765395865
 21
58.80361070381198
 31
0.0
  0
LINE
  5
21B
330
1F
100
AcDbEntity
  8
101
  6
Continuous
 62
     7
370
    30
100
AcDbLine
 10
45.29004765395865
 20
58.80361070381198
 30
0.0
 11
42.05141129032228
 21
59.51383797653926
 31
0.0
  0
LINE
  5
21C
330
1F
100
AcDbEntity
  8
101
  6
Continuous
 62
     7
370
    30
100
AcDbLine
 10
42.05141129032228
 20
59.51383797653926
 30
0.0
 11
38.38663856304953
 21
60.65020161290289
 31
0.0
  0
LINE
  5
21D
330
1F
100
AcDbEntity
  8
101
  6
Continuous
 62
     7
370
    30
100
AcDbLine
 10
38.38663856304953
 20
60.65020161290289
 30
0.0
 11
36.36959310850409
 21
61.53088343108473
 31
0.0
  0
LINE
  5
21E
330
1F
100
AcDbEntity
  8
101
  6
Continuous
 62
     7
370
    30
100
AcDbLine
 10
36.36959310850409
 20
61.53088343108473
 30
0.0
 11
35.3752749266859
 21
62.80929252199383
 31
0.0
  0
LINE
  5
21F
330
1F
100
AcDbEntity
  8
101
  6
Continuous
 62
     7
370
    30
100
AcDbLine
 10
35.3752749266859
 20
62.80929252199383
 30
0.0
 11
34.92072947214047
 21
64.54224706744839
 31
0.0
  0
LINE
  5
220
330
1F
100
AcDbEntity
  8
101
  6
Continuous
 62
     7
370
    30
100
AcDbLine
 10
34.92072947214047
 20
64.54224706744839
 30
0.0
 11
35.40368401759497
 21
66.27520161290293
 31
0.0
  0
LINE
  5
221
330
1F
100
AcDbEntity
  8
101
  6
Continuous
 62
     7
370
    30
100
AcDbLine
 10
35.40368401759497
 20
66.27520161290293
 30
0.0
 11
37.02300219941316
 21
67.35474706744839
 31
0.0
  0
LINE
  5
222
330
1F
100
AcDbEntity
  8
101
  6
Continuous
 62
     7
370
    30
100
AcDbLine
 10
37.02300219941316
 20
67.35474706744839
 30
0.0
 11
38.98322947214047
 21
68.37747434017567
 31
0.0
  0
LINE
  5
223
330
1F
100
AcDbEntity
  8
101
  6
Continuous
 62
     7
370
    30
100
AcDbLine
 10
38.98322947214047
 20
68.37747434017567
 30
0.0
 11
40.85822947214047
 21
69.11611070381203
 31
0.0
  0
LINE
  5
224
330
1F
100
AcDbEntity
  8
101
  6
Continuous
 62
     7
370
    30
100
AcDbLine
 10
40.85822947214047
 20
69.11611070381203
 30
0.0
 11
42.23188203004867
 21
69.54181656888548
 31
0.0
  0
LINE
  5
225
330
1F
100
AcDbEntity
  8
101
  6
Continuous
 62
     7
370
    30
100
AcDbLine
 10
42.18859755866708
 20
65.67834686191506
 30
0.0
 11
40.94345674486772
 21
65.30929252199384
 31
0.0
  0
LINE
  5
226
330
1F
100
AcDbEntity
  8
101
  6
Continuous
 62
     7
370
    30
100
AcDbLine
 10
40.94345674486772
 20
65.30929252199384
 30
0.0
 11
40.26163856304953
 21
64.93997434017567
 31
0.0
  0
LINE
  5
227
330
1F
100
AcDbEntity
  8
101
  6
Continuous
 62
     7
370
    30
100
AcDbLine
 10
40.26163856304953
 20
64.93997434017567
 30
0.0
 11
40.00595674486772
 21
64.37179252199384
 31
0.0
  0
LINE
  5
228
330
1F
100
AcDbEntity
  8
101
  6
Continuous
 62
     7
370
    30
100
AcDbLine
 10
40.00595674486772
 20
64.37179252199384
 30
0.0
 11
40.65936583577684
 21
64.08770161290292
 31
0.0
  0
LINE
  5
229
330
1F
100
AcDbEntity
  8
101
  6
Continuous
 62
     7
370
    30
100
AcDbLine
 10
40.65936583577684
 20
64.08770161290292
 30
0.0
 11
42.16504765395865
 21
63.57633797653921
 31
0.0
  0
LINE
  5
22A
330
1F
100
AcDbEntity
  8
101
  6
Continuous
 62
     7
370
    30
100
AcDbLine
 10
42.16504765395865
 20
63.57633797653921
 30
0.0
 11
44.69345674486777
 21
63.06497434017558
 31
0.0
  0
LINE
  5
22B
330
1F
100
AcDbEntity
  8
101
  6
Continuous
 62
     7
370
    30
100
AcDbLine
 10
44.69345674486777
 20
63.06497434017558
 30
0.0
 11
49.92072947214047
 21
62.24111070381201
 31
0.0
  0
LINE
  5
22C
330
1F
100
AcDbEntity
  8
101
  6
Continuous
 62
     7
370
    30
100
AcDbLine
 10
49.92072947214047
 20
62.24111070381201
 30
0.0
 11
58.18777492668596
 21
61.6729288856302
 31
0.0
  0
LINE
  5
22D
330
1F
100
AcDbEntity
  8
101
  6
Continuous
 62
     7
370
    30
100
AcDbLine
 10
58.18777492668596
 20
61.6729288856302
 30
0.0
 11
59.52300219941321
 21
61.61611070381198
 31
0.0
  0
LINE
  5
22E
330
1F
100
AcDbEntity
  8
101
  6
Continuous
 62
     7
370
    30
100
AcDbLine
 10
59.52300219941321
 20
61.61611070381198
 30
0.0
 11
63.04572947214052
 21
61.67292888563016
 31
0.0
  0
LINE
  5
22F
330
1F
100
AcDbEntity
  8
101
  6
Continuous
 62
     7
370
    30
100
AcDbLine
 10
63.04572947214052
 20
61.67292888563016
 30
0.0
 11
69.60822947214052
 21
61.44565615835747
 31
0.0
  0
LINE
  5
230
330
1F
100
AcDbEntity
  8
101
  6
Continuous
 62
     7
370
    30
100
AcDbLine
 10
69.60822947214052
 20
61.44565615835747
 30
0.0
 11
76.96618401759508
 21
61.67292888563021
 31
0.0
  0
LINE
  5
231
330
1F
100
AcDbEntity
  8
101
  6
Continuous
 62
     7
370
    30
100
AcDbLine
 10
76.96618401759508
 20
61.67292888563021
 30
0.0
 11
83.69913856304964
 21
61.95701979472112
 31
0.0
  0
LINE
  5
232
330
1F
100
AcDbEntity
  8
101
  6
Continuous
 62
     7
370
    30
100
AcDbLine
 10
83.69913856304964
 20
61.95701979472112
 30
0.0
 11
90.51732038123151
 21
62.41156524926657
 31
0.0
  0
LINE
  5
233
330
1F
100
AcDbEntity
  8
101
  6
Continuous
 62
     7
370
    30
100
AcDbLine
 10
90.51732038123151
 20
62.41156524926657
 30
0.0
 11
94.3241385630497
 21
62.89451979472112
 31
0.0
  0
LINE
  5
234
330
1F
100
AcDbEntity
  8
101
  6
Continuous
 62
     7
370
    30
100
AcDbLine
 10
94.3241385630497
 20
62.89451979472112
 30
0.0
 11
97.84686583577695
 21
63.46270161290295
 31
0.0
  0
LINE
  5
235
330
1F
100
AcDbEntity
  8
101
  6
Continuous
 62
     7
370
    30
100
AcDbLine
 10
97.84686583577695
 20
63.46270161290295
 30
0.0
 11
100.971865835777
 21
64.25815615835744
 31
0.0
  0
LINE
  5
236
330
1F
100
AcDbEntity
  8
101
  6
Continuous
 62
     7
370
    30
100
AcDbLine
 10
100.971865835777
 20
64.25815615835744
 30
0.0
 11
105.0059567448679
 21
65.16724706744836
 31
0.0
  0
LINE
  5
237
330
1F
100
AcDbEntity
  8
101
  6
Continuous
 62
     7
370
    30
100
AcDbLine
 10
105.0059567448679
 20
65.16724706744836
 30
0.0
 11
107.4491385630497
 21
66.18997434017564
 31
0.0
  0
LINE
  5
238
330
1F
100
AcDbEntity
  8
101
  6
Continuous
 62
     7
370
    30
100
AcDbLine
 10
42.05141129032228
 20
59.51383797653926
 30
0.0
 11
42.19345674486772
 21
56.27520161290292
 31
0.0
  0
LINE
  5
239
330
1F
100
AcDbEntity
  8
101
  6
Continuous
 62
     7
370
    30
100
AcDbLine
 10
42.19345674486772
 20
56.27520161290292
 30
0.0
 11
42.39232038123134
 21
53.17861070381201
 31
0.0
  0
LINE
  5
23A
330
1F
100
AcDbEntity
  8
101
  6
Continuous
 62
     7
370
    30
100
AcDbLine
 10
42.39232038123134
 20
53.17861070381201
 30
0.0
 11
42.70482038123134
 21
51.04792888563018
 31
0.0
  0
LINE
  5
23B
330
1F
100
AcDbEntity
  8
101
  6
Continuous
 62
     7
370
    30
100
AcDbLine
 10
42.70482038123134
 20
51.04792888563018
 30
0.0
 11
43.27300219941316
 21
47.75247434017563
 31
0.0
  0
LINE
  5
23C
330
1F
100
AcDbEntity
  8
101
  6
Continuous
 62
     7
370
    30
100
AcDbLine
 10
43.27300219941316
 20
47.75247434017563
 30
0.0
 11
44.32413856304953
 21
44.6842925219938
 31
0.0
  0
LINE
  5
23D
330
1F
100
AcDbEntity
  8
101
  6
Continuous
 62
     7
370
    30
100
AcDbLine
 10
44.32413856304953
 20
44.6842925219938
 30
0.0
 11
45.34686583577678
 21
42.12747434017561
 31
0.0
  0
LINE
  5
23E
330
1F
100
AcDbEntity
  8
101
  6
Continuous
 62
     7
370
    30
100
AcDbLine
 10
45.34686583577678
 20
42.12747434017561
 30
0.0
 11
46.68209310850409
 21
39.6274743401756
 31
0.0
  0
LINE
  5
23F
330
1F
100
AcDbEntity
  8
101
  6
Continuous
 62
     7
370
    30
100
AcDbLine
 10
46.68209310850409
 20
39.6274743401756
 30
0.0
 11
48.04572947214047
 21
37.61042888563014
 31
0.0
  0
LINE
  5
240
330
1F
100
AcDbEntity
  8
101
  6
Continuous
 62
     7
370
    30
100
AcDbLine
 10
48.04572947214047
 20
37.61042888563014
 30
0.0
 11
50.34686583577684
 21
34.57065615835741
 31
0.0
  0
LINE
  5
241
330
1F
100
AcDbEntity
  8
101
  6
Continuous
 62
     7
370
    30
100
AcDbLine
 10
50.34686583577684
 20
34.57065615835741
 30
0.0
 11
51.85254765395865
 21
32.92292888563013
 31
0.0
  0
LINE
  5
242
330
1F
100
AcDbEntity
  8
101
  6
Continuous
 62
     7
370
    30
100
AcDbLine
 10
51.85254765395865
 20
32.92292888563013
 30
0.0
 11
53.5002749266859
 21
31.4172470674483
 31
0.0
  0
LINE
  5
243
330
1F
100
AcDbEntity
  8
101
  6
Continuous
 62
     7
370
    30
100
AcDbLine
 10
53.5002749266859
 20
31.4172470674483
 30
0.0
 11
56.56845674486772
 21
29.08770161290283
 31
0.0
  0
LINE
  5
244
330
1F
100
AcDbEntity
  8
101
  6
Continuous
 62
     7
370
    30
100
AcDbLine
 10
56.56845674486772
 20
29.08770161290283
 30
0.0
 11
58.69913856304953
 21
27.61042888563011
 31
0.0
  0
LINE
  5
245
330
1F
100
AcDbEntity
  8
101
  6
Continuous
 62
     7
370
    30
100
AcDbLine
 10
58.69913856304953
 20
27.61042888563011
 30
0.0
 11
62.22186583577684
 21
25.47974706744829
 31
0.0
  0
LINE
  5
246
330
1F
100
AcDbEntity
  8
101
  6
Continuous
 62
     7
370
    30
100
AcDbLine
 10
62.22186583577684
 20
25.47974706744829
 30
0.0
 11
62.98891129032228
 21
24.99679252199374
 31
0.0
  0
LINE
  5
247
330
1F
100
AcDbEntity
  8
101
  6
Continuous
 62
     7
370
    30
100
AcDbLine
 10
61.85254765395865
 20
28.40588343108466
 30
0.0
 11
59.7502749266859
 21
29.76951979472102
 31
0.0
  0
LINE
  5
248
330
1F
100
AcDbEntity
  8
101
  6
Continuous
 62
     7
370
    30
100
AcDbLine
 10
59.7502749266859
 20
29.76951979472102
 30
0.0
 11
57.10822947214047
 21
31.50247434017558
 31
0.0
  0
LINE
  5
249
330
1F
100
AcDbEntity
  8
101
  6
Continuous
 62
     7
370
    30
100
AcDbLine
 10
57.10822947214047
 20
31.50247434017558
 30
0.0
 11
55.14800219941316
 21
33.23542888563013
 31
0.0
  0
LINE
  5
24A
330
1F
100
AcDbEntity
  8
101
  6
Continuous
 62
     7
370
    30
100
AcDbLine
 10
55.14800219941316
 20
33.23542888563013
 30
0.0
 11
52.96050219941316
 21
35.2240652492665
 31
0.0
  0
LINE
  5
24B
330
1F
100
AcDbEntity
  8
101
  6
Continuous
 62
     7
370
    30
100
AcDbLine
 10
52.96050219941316
 20
35.2240652492665
 30
0.0
 11
51.90936583577678
 21
36.41724706744833
 31
0.0
  0
LINE
  5
24C
330
1F
100
AcDbEntity
  8
101
  6
Continuous
 62
     7
370
    30
100
AcDbLine
 10
51.90936583577678
 20
36.41724706744833
 30
0.0
 11
50.51732038123134
 21
38.12179252199379
 31
0.0
  0
LINE
  5
24D
330
1F
100
AcDbEntity
  8
101
  6
Continuous
 62
     7
370
    30
100
AcDbLine
 10
50.51732038123134
 20
38.12179252199379
 30
0.0
 11
48.86959310850403
 21
40.53656524926652
 31
0.0
  0
LINE
  5
24E
330
1F
100
AcDbEntity
  8
101
  6
Continuous
 62
     7
370
    30
100
AcDbLine
 10
48.86959310850403
 20
40.53656524926652
 30
0.0
 11
47.36391129032222
 21
43.40588343108471
 31
0.0
  0
LINE
  5
24F
330
1F
100
AcDbEntity
  8
101
  6
Continuous
 62
     7
370
    30
100
AcDbLine
 10
47.36391129032222
 20
43.40588343108471
 30
0.0
 11
46.31277492668585
 21
46.10474706744836
 31
0.0
  0
LINE
  5
250
330
1F
100
AcDbEntity
  8
101
  6
Continuous
 62
     7
370
    30
100
AcDbLine
 10
46.31277492668585
 20
46.10474706744836
 30
0.0
 11
45.57413856304947
 21
49.22974706744836
 31
0.0
  0
LINE
  5
251
330
1F
100
AcDbEntity
  8
101
  6
Continuous
 62
     7
370
    30
100
AcDbLine
 10
45.57413856304947
 20
49.22974706744836
 30
0.0
 11
45.11959310850403
 21
52.52520161290292
 31
0.0
  0
LINE
  5
252
330
1F
100
AcDbEntity
  8
101
  6
Continuous
 62
     7
370
    30
100
AcDbLine
 10
45.11959310850403
 20
52.52520161290292
 30
0.0
 11
44.89232038123134
 21
54.99679252199383
 31
0.0
  0
LINE
  5
253
330
1F
100
AcDbEntity
  8
101
  6
Continuous
 62
     7
370
    30
100
AcDbLine
 10
44.89232038123134
 20
54.99679252199383
 30
0.0
 11
44.72416008730016
 21
58.92770885439498
 31
0.0
  0
LINE
  5
254
330
1F
100
AcDbEntity
  8
101
  6
Continuous
 62
     7
370
    30
100
AcDbLine
 10
47.18562060251287
 20
43.86365681870343
 30
0.0
 11
50.03436583577678
 21
40.62179252199378
 31
0.0
  0
LINE
  5
255
330
1F
100
AcDbEntity
  8
101
  6
Continuous
 62
     7
370
    30
100
AcDbLine
 10
50.03436583577678
 20
40.62179252199378
 30
0.0
 11
51.73891129032222
 21
38.74679252199378
 31
0.0
  0
LINE
  5
256
330
1F
100
AcDbEntity
  8
101
  6
Continuous
 62
     7
370
    30
100
AcDbLine
 10
51.73891129032222
 20
38.74679252199378
 30
0.0
 11
53.55709310850409
 21
36.87179252199377
 31
0.0
  0
LINE
  5
257
330
1F
100
AcDbEntity
  8
101
  6
Continuous
 62
     7
370
    30
100
AcDbLine
 10
53.55709310850409
 20
36.87179252199377
 30
0.0
 11
56.25595674486772
 21
34.88315615835739
 31
0.0
  0
LINE
  5
258
330
1F
100
AcDbEntity
  8
101
  6
Continuous
 62
     7
370
    30
100
AcDbLine
 10
56.25595674486772
 20
34.88315615835739
 30
0.0
 11
58.15936583577678
 21
33.54792888563011
 31
0.0
  0
LINE
  5
259
330
1F
100
AcDbEntity
  8
101
  6
Continuous
 62
     7
370
    30
100
AcDbLine
 10
58.15936583577678
 20
33.54792888563011
 30
0.0
 11
60.85822947214047
 21
32.32633797653921
 31
0.0
  0
LINE
  5
25A
330
1F
100
AcDbEntity
  8
101
  6
Continuous
 62
     7
370
    30
100
AcDbLine
 10
64.52300219941321
 20
30.96270161290283
 30
0.0
 11
67.59118401759503
 21
30.36611070381193
 31
0.0
  0
LINE
  5
25B
330
1F
100
AcDbEntity
  8
101
  6
Continuous
 62
     7
370
    30
100
AcDbLine
 10
67.59118401759503
 20
30.36611070381193
 30
0.0
 11
71.54004765395865
 21
30.08201979472101
 31
0.0
  0
LINE
  5
25C
330
1F
100
AcDbEntity
  8
101
  6
Continuous
 62
     7
370
    30
100
AcDbLine
 10
71.54004765395865
 20
30.08201979472101
 30
0.0
 11
75.23322947214047
 21
30.45133797653919
 31
0.0
  0
LINE
  5
25D
330
1F
100
AcDbEntity
  8
101
  6
Continuous
 62
     7
370
    30
100
AcDbLine
 10
75.23322947214047
 20
30.45133797653919
 30
0.0
 11
78.38663856304959
 21
30.99111070381193
 31
0.0
  0
LINE
  5
25E
330
1F
100
AcDbEntity
  8
101
  6
Continuous
 62
     7
370
    30
100
AcDbLine
 10
78.38663856304959
 20
30.99111070381193
 30
0.0
 11
81.4548203812314
 21
31.84338343108465
 31
0.0
  0
LINE
  5
25F
330
1F
100
AcDbEntity
  8
101
  6
Continuous
 62
     7
370
    30
100
AcDbLine
 10
81.4548203812314
 20
31.84338343108465
 30
0.0
 11
85.20482038123146
 21
33.46270161290284
 31
0.0
  0
LINE
  5
260
330
1F
100
AcDbEntity
  8
101
  6
Continuous
 62
     7
370
    30
100
AcDbLine
 10
85.20482038123146
 20
33.46270161290284
 30
0.0
 11
88.52868401759508
 21
35.53656524926648
 31
0.0
  0
LINE
  5
261
330
1F
100
AcDbEntity
  8
101
  6
Continuous
 62
     7
370
    30
100
AcDbLine
 10
88.52868401759508
 20
35.53656524926648
 30
0.0
 11
92.10822947214052
 21
38.54792888563013
 31
0.0
  0
LINE
  5
262
330
1F
100
AcDbEntity
  8
101
  6
Continuous
 62
     7
370
    30
100
AcDbLine
 10
92.10822947214052
 20
38.54792888563013
 30
0.0
 11
94.97754765395871
 21
42.18429252199377
 31
0.0
  0
LINE
  5
263
330
1F
100
AcDbEntity
  8
101
  6
Continuous
 62
     7
370
    30
100
AcDbLine
 10
94.97754765395871
 20
42.18429252199377
 30
0.0
 11
97.10822947214058
 21
45.47974706744833
 31
0.0
  0
LINE
  5
264
330
1F
100
AcDbEntity
  8
101
  6
Continuous
 62
     7
370
    30
100
AcDbLine
 10
97.10822947214058
 20
45.47974706744833
 30
0.0
 11
98.67072947214058
 21
49.0592925219938
 31
0.0
  0
LINE
  5
265
330
1F
100
AcDbEntity
  8
101
  6
Continuous
 62
     7
370
    30
100
AcDbLine
 10
98.67072947214058
 20
49.0592925219938
 30
0.0
 11
99.72186583577695
 21
52.69565615835744
 31
0.0
  0
LINE
  5
266
330
1F
100
AcDbEntity
  8
101
  6
Continuous
 62
     7
370
    30
100
AcDbLine
 10
99.72186583577695
 20
52.69565615835744
 30
0.0
 11
100.346865835777
 21
56.44565615835745
 31
0.0
  0
LINE
  5
267
330
1F
100
AcDbEntity
  8
101
  6
Continuous
 62
     7
370
    30
100
AcDbLine
 10
100.346865835777
 20
56.44565615835745
 30
0.0
 11
100.574667994958
 21
60.03575645754282
 31
0.0
  0
LINE
  5
268
330
1F
100
AcDbEntity
  8
101
  6
Continuous
 62
     7
370
    30
100
AcDbLine
 10
104.8621757425963
 20
61.18720152018585
 30
0.0
 11
104.721865835777
 21
56.5877016129029
 31
0.0
  0
LINE
  5
269
330
1F
100
AcDbEntity
  8
101
  6
Continuous
 62
     7
370
    30
100
AcDbLine
 10
104.721865835777
 20
56.5877016129029
 30
0.0
 11
104.4945931085043
 21
52.89451979472108
 31
0.0
  0
LINE
  5
26A
330
1F
100
AcDbEntity
  8
101
  6
Continuous
 62
     7
370
    30
100
AcDbLine
 10
104.4945931085043
 20
52.89451979472108
 30
0.0
 11
104.1536840175952
 21
49.57065615835742
 31
0.0
  0
LINE
  5
26B
330
1F
100
AcDbEntity
  8
101
  6
Continuous
 62
     7
370
    30
100
AcDbLine
 10
104.1536840175952
 20
49.57065615835742
 30
0.0
 11
103.4434567448679
 21
46.64451979472105
 31
0.0
  0
LINE
  5
26C
330
1F
100
AcDbEntity
  8
101
  6
Continuous
 62
     7
370
    30
100
AcDbLine
 10
103.4434567448679
 20
46.64451979472105
 30
0.0
 11
102.3923203812315
 21
43.77520161290286
 31
0.0
  0
LINE
  5
26D
330
1F
100
AcDbEntity
  8
101
  6
Continuous
 62
     7
370
    30
100
AcDbLine
 10
102.3923203812315
 20
43.77520161290286
 30
0.0
 11
101.596865835777
 21
41.98542888563013
 31
0.0
  0
LINE
  5
26E
330
1F
100
AcDbEntity
  8
101
  6
Continuous
 62
     7
370
    30
100
AcDbLine
 10
101.596865835777
 20
41.98542888563013
 30
0.0
 11
100.4889112903224
 21
39.79792888563012
 31
0.0
  0
LINE
  5
26F
330
1F
100
AcDbEntity
  8
101
  6
Continuous
 62
     7
370
    30
100
AcDbLine
 10
100.4889112903224
 20
39.79792888563012
 30
0.0
 11
98.6991385630497
 21
37.12747434017557
 31
0.0
  0
LINE
  5
270
330
1F
100
AcDbEntity
  8
101
  6
Continuous
 62
     7
370
    30
100
AcDbLine
 10
98.6991385630497
 20
37.12747434017557
 30
0.0
 11
97.10822947214058
 21
35.19565615835737
 31
0.0
  0
LINE
  5
271
330
1F
100
AcDbEntity
  8
101
  6
Continuous
 62
     7
370
    30
100
AcDbLine
 10
97.10822947214058
 20
35.19565615835737
 30
0.0
 11
95.14800219941327
 21
33.29224706744827
 31
0.0
  0
LINE
  5
272
330
1F
100
AcDbEntity
  8
101
  6
Continuous
 62
     7
370
    30
100
AcDbLine
 10
95.14800219941327
 20
33.29224706744827
 30
0.0
 11
93.01732038123146
 21
31.53088343108463
 31
0.0
  0
LINE
  5
273
330
1F
100
AcDbEntity
  8
101
  6
Continuous
 62
     7
370
    30
100
AcDbLine
 10
93.01732038123146
 20
31.53088343108463
 30
0.0
 11
90.71618401759508
 21
29.96838343108462
 31
0.0
  0
LINE
  5
274
330
1F
100
AcDbEntity
  8
101
  6
Continuous
 62
     7
370
    30
100
AcDbLine
 10
90.71618401759508
 20
29.96838343108462
 30
0.0
 11
88.38663856304959
 21
28.63315615835734
 31
0.0
  0
LINE
  5
275
330
1F
100
AcDbEntity
  8
101
  6
Continuous
 62
     7
370
    30
100
AcDbLine
 10
88.38663856304959
 20
28.63315615835734
 30
0.0
 11
85.91504765395865
 21
27.46838343108462
 31
0.0
  0
LINE
  5
276
330
1F
100
AcDbEntity
  8
101
  6
Continuous
 62
     7
370
    30
100
AcDbLine
 10
85.91504765395865
 20
27.46838343108462
 30
0.0
 11
83.58550219941321
 21
26.47406524926643
 31
0.0
  0
LINE
  5
277
330
1F
100
AcDbEntity
  8
101
  6
Continuous
 62
     7
370
    30
100
AcDbLine
 10
83.58550219941321
 20
26.47406524926643
 30
0.0
 11
81.99459310850409
 21
25.90588343108462
 31
0.0
  0
LINE
  5
278
330
1F
100
AcDbEntity
  8
101
  6
Continuous
 62
     7
370
    30
100
AcDbLine
 10
81.99459310850409
 20
25.90588343108462
 30
0.0
 11
80.40368401759503
 21
25.67861070381188
 31
0.0
  0
LINE
  5
279
330
1F
100
AcDbEntity
  8
101
  6
Continuous
 62
     7
370
    30
100
AcDbLine
 10
80.40368401759503
 20
25.67861070381188
 30
0.0
 11
78.75595674486772
 21
25.96270161290279
 31
0.0
  0
LINE
  5
27A
330
1F
100
AcDbEntity
  8
101
  6
Continuous
 62
     7
370
    30
100
AcDbLine
 10
78.75595674486772
 20
25.96270161290279
 30
0.0
 11
77.13663856304959
 21
26.50247434017552
 31
0.0
  0
LINE
  5
27B
330
1F
100
AcDbEntity
  8
101
  6
Continuous
 62
     7
370
    30
100
AcDbLine
 10
77.13663856304959
 20
26.50247434017552
 30
0.0
 11
75.6877749266859
 21
26.98542888563007
 31
0.0
  0
LINE
  5
27C
330
1F
100
AcDbEntity
  8
101
  6
Continuous
 62
     7
370
    30
100
AcDbLine
 10
75.6877749266859
 20
26.98542888563007
 30
0.0
 11
74.18209310850409
 21
27.04224706744824
 31
0.0
  0
LINE
  5
27D
330
1F
100
AcDbEntity
  8
101
  6
Continuous
 62
     7
370
    30
100
AcDbLine
 10
74.18209310850409
 20
27.04224706744824
 30
0.0
 11
71.90936583577684
 21
26.84338343108462
 31
0.0
  0
LINE
  5
27E
330
1F
100
AcDbEntity
  8
101
  6
Continuous
 62
     7
370
    30
100
AcDbLine
 10
71.90936583577684
 20
26.84338343108462
 30
0.0
 11
69.86391129032228
 21
26.33201979472098
 31
0.0
  0
LINE
  5
27F
330
1F
100
AcDbEntity
  8
101
  6
Continuous
 62
     7
370
    30
100
AcDbLine
 10
69.86391129032228
 20
26.33201979472098
 30
0.0
 11
68.52868401759497
 21
26.21838343108462
 31
0.0
  0
LINE
  5
280
330
1F
100
AcDbEntity
  8
101
  6
Continuous
 62
     7
370
    30
100
AcDbLine
 10
68.52868401759497
 20
26.21838343108462
 30
0.0
 11
66.9377749266859
 21
26.58770161290279
 31
0.0
  0
LINE
  5
281
330
1F
100
AcDbEntity
  8
101
  6
Continuous
 62
     7
370
    30
100
AcDbLine
 10
66.9377749266859
 20
26.58770161290279
 30
0.0
 11
65.77300219941316
 21
27.04224706744824
 31
0.0
  0
LINE
  5
282
330
1F
100
AcDbEntity
  8
101
  6
Continuous
 62
     7
370
    30
100
AcDbLine
 10
68.10254765395865
 20
23.26383797653915
 30
0.0
 11
69.7502749266859
 21
23.34906524926642
 31
0.0
  0
LINE
  5
283
330
1F
100
AcDbEntity
  8
101
  6
Continuous
 62
     7
370
    30
100
AcDbLine
 10
69.7502749266859
 20
23.34906524926642
 30
0.0
 11
71.36959310850409
 21
23.7183834310846
 31
0.0
  0
LINE
  5
284
330
1F
100
AcDbEntity
  8
101
  6
Continuous
 62
     7
370
    30
100
AcDbLine
 10
71.36959310850409
 20
23.7183834310846
 30
0.0
 11
72.67641129032228
 21
24.11611070381187
 31
0.0
  0
LINE
  5
285
330
1F
100
AcDbEntity
  8
101
  6
Continuous
 62
     7
370
    30
100
AcDbLine
 10
72.67641129032228
 20
24.11611070381187
 30
0.0
 11
74.01163856304953
 21
24.17292888563006
 31
0.0
  0
LINE
  5
286
330
1F
100
AcDbEntity
  8
101
  6
Continuous
 62
     7
370
    30
100
AcDbLine
 10
74.01163856304953
 20
24.17292888563006
 30
0.0
 11
75.60254765395865
 21
24.08770161290279
 31
0.0
  0
LINE
  5
287
330
1F
100
AcDbEntity
  8
101
  6
Continuous
 62
     7
370
    30
100
AcDbLine
 10
75.60254765395865
 20
24.08770161290279
 30
0.0
 11
76.96618401759503
 21
23.49111070381187
 31
0.0
  0
LINE
  5
288
330
1F
100
AcDbEntity
  8
101
  6
Continuous
 62
     7
370
    30
100
AcDbLine
 10
76.96618401759503
 20
23.49111070381187
 30
0.0
 11
79.04004765395865
 21
22.89451979472096
 31
0.0
  0
LINE
  5
289
330
1F
100
AcDbEntity
  8
101
  6
Continuous
 62
     7
370
    30
100
AcDbLine
 10
79.04004765395865
 20
22.89451979472096
 30
0.0
 11
82.5627749266859
 21
22.86611070381187
 31
0.0
  0
LINE
  5
28A
330
1F
100
AcDbEntity
  8
101
  6
Continuous
 62
     7
370
    30
100
AcDbLine
 10
82.5627749266859
 20
22.86611070381187
 30
0.0
 11
86.36959310850409
 21
24.45701979472096
 31
0.0
  0
LINE
  5
28B
330
1F
100
AcDbEntity
  8
101
  6
Continuous
 62
     7
370
    30
100
AcDbLine
 10
86.36959310850409
 20
24.45701979472096
 30
0.0
 11
88.84118401759503
 21
25.73542888563006
 31
0.0
  0
LINE
  5
28C
330
1F
100
AcDbEntity
  8
101
  6
Continuous
 62
     7
370
    30
100
AcDbLine
 10
88.84118401759503
 20
25.73542888563006
 30
0.0
 11
92.79004765395871
 21
27.8377016129028
 31
0.0
  0
LINE
  5
28D
330
1F
100
AcDbEntity
  8
101
  6
Continuous
 62
     7
370
    30
100
AcDbLine
 10
92.79004765395871
 20
27.8377016129028
 30
0.0
 11
95.88663856304959
 21
30.22406524926645
 31
0.0
  0
LINE
  5
28E
330
1F
100
AcDbEntity
  8
101
  6
Continuous
 62
     7
370
    30
100
AcDbLine
 10
95.88663856304959
 20
30.22406524926645
 30
0.0
 11
99.57982038123146
 21
33.63315615835737
 31
0.0
  0
LINE
  5
28F
330
1F
100
AcDbEntity
  8
101
  6
Continuous
 62
     7
370
    30
100
AcDbLine
 10
99.57982038123146
 20
33.63315615835737
 30
0.0
 11
102.0798203812315
 21
37.04224706744829
 31
0.0
  0
LINE
  5
290
330
1F
100
AcDbEntity
  8
101
  6
Continuous
 62
     7
370
    30
100
AcDbLine
 10
102.0798203812315
 20
37.04224706744829
 30
0.0
 11
103.8980021994133
 21
40.39451979472102
 31
0.0
  0
LINE
  5
291
330
1F
100
AcDbEntity
  8
101
  6
Continuous
 62
     7
370
    30
100
AcDbLine
 10
103.8980021994133
 20
40.39451979472102
 30
0.0
 11
105.4605021994132
 21
44.11611070381193
 31
0.0
  0
LINE
  5
292
330
1F
100
AcDbEntity
  8
101
  6
Continuous
 62
     7
370
    30
100
AcDbLine
 10
105.4605021994132
 20
44.11611070381193
 30
0.0
 11
106.4264112903223
 21
47.49679252199375
 31
0.0
  0
LINE
  5
293
330
1F
100
AcDbEntity
  8
101
  6
Continuous
 62
     7
370
    30
100
AcDbLine
 10
106.4264112903223
 20
47.49679252199375
 30
0.0
 11
106.9945931085042
 21
50.47974706744831
 31
0.0
  0
LINE
  5
294
330
1F
100
AcDbEntity
  8
101
  6
Continuous
 62
     7
370
    30
100
AcDbLine
 10
106.9945931085042
 20
50.47974706744831
 30
0.0
 11
107.3355021994132
 21
53.94565615835741
 31
0.0
  0
LINE
  5
295
330
1F
100
AcDbEntity
  8
101
  6
Continuous
 62
     7
370
    30
100
AcDbLine
 10
107.3355021994132
 20
53.94565615835741
 30
0.0
 11
107.6846148212103
 21
62.30458238416955
 31
0.0
  0
LINE
  5
296
330
1F
100
AcDbEntity
  8
101
  6
Continuous
 62
     7
370
    30
100
AcDbLine
 10
77.3505042244737
 20
30.81375437558722
 30
0.0
 11
76.19913856304947
 21
28.1786107038119
 31
0.0
  0
LINE
  5
297
330
1F
100
AcDbEntity
  8
101
  6
Continuous
 62
     7
370
    30
100
AcDbLine
 10
76.19913856304947
 20
28.1786107038119
 30
0.0
 11
75.6877749266859
 21
26.98542888563007
 31
0.0
  0
LINE
  5
298
330
1F
100
AcDbEntity
  8
101
  6
Continuous
 62
     7
370
    30
100
AcDbLine
 10
78.39800219941316
 20
26.08201979472099
 30
0.0
 11
79.29572947214041
 21
28.1786107038119
 31
0.0
  0
LINE
  5
299
330
1F
100
AcDbEntity
  8
101
  6
Continuous
 62
     7
370
    30
100
AcDbLine
 10
79.29572947214041
 20
28.1786107038119
 30
0.0
 11
80.63575942785803
 21
31.61586649959206
 31
0.0
  0
LINE
  5
29A
330
1F
100
AcDbEntity
  8
101
  6
Continuous
 62
     7
370
    30
100
AcDbLine
 10
74.01163856304953
 20
24.17292888563006
 30
0.0
 11
73.13095674486766
 21
23.32065615835732
 31
0.0
  0
LINE
  5
29B
330
1F
100
AcDbEntity
  8
101
  6
Continuous
 62
     7
370
    30
100
AcDbLine
 10
73.13095674486766
 20
23.32065615835732
 30
0.0
 11
71.76732038123129
 21
22.52520161290278
 31
0.0
  0
LINE
  5
29C
330
1F
100
AcDbEntity
  8
101
  6
Continuous
 62
     7
370
    30
100
AcDbLine
 10
71.76732038123129
 20
22.52520161290278
 30
0.0
 11
70.80141129032222
 21
22.24111070381187
 31
0.0
  0
LINE
  5
29D
330
1F
100
AcDbEntity
  8
101
  6
Continuous
 62
     7
370
    30
100
AcDbLine
 10
70.80141129032222
 20
22.24111070381187
 30
0.0
 11
69.40936583577673
 21
22.41156524926642
 31
0.0
  0
LINE
  5
29E
330
1F
100
AcDbEntity
  8
101
  6
Continuous
 62
     7
370
    30
100
AcDbLine
 10
69.40936583577673
 20
22.41156524926642
 30
0.0
 11
68.10254765395865
 21
23.26383797653915
 31
0.0
  0
LINE
  5
29F
330
1F
100
AcDbEntity
  8
101
  6
Continuous
 62
     7
370
    30
100
AcDbLine
 10
68.10254765395865
 20
23.26383797653915
 30
0.0
 11
66.99459310850403
 21
24.76951979472096
 31
0.0
  0
LINE
  5
2A0
330
1F
100
AcDbEntity
  8
101
  6
Continuous
 62
     7
370
    30
100
AcDbLine
 10
66.99459310850403
 20
24.76951979472096
 30
0.0
 11
65.77300219941316
 21
27.04224706744824
 31
0.0
  0
LINE
  5
2A1
330
1F
100
AcDbEntity
  8
101
  6
Continuous
 62
     7
370
    30
100
AcDbLine
 10
65.77300219941316
 20
27.04224706744824
 30
0.0
 11
64.92072947214035
 21
29.45701979472099
 31
0.0
  0
LINE
  5
2A2
330
1F
100
AcDbEntity
  8
101
  6
Continuous
 62
     7
370
    30
100
AcDbLine
 10
64.92072947214035
 20
29.45701979472099
 30
0.0
 11
64.52300219941321
 21
30.96270161290283
 31
0.0
  0
LINE
  5
2A3
330
1F
100
AcDbEntity
  8
101
  6
Continuous
 62
     7
370
    30
100
AcDbLine
 10
64.52300219941321
 20
30.96270161290283
 30
0.0
 11
63.86959310850398
 21
34.17292888563009
 31
0.0
  0
LINE
  5
2A4
330
1F
100
AcDbEntity
  8
101
  6
Continuous
 62
     7
370
    30
100
AcDbLine
 10
63.86959310850398
 20
34.17292888563009
 30
0.0
 11
63.41504765395854
 21
38.91724706744829
 31
0.0
  0
LINE
  5
2A5
330
1F
100
AcDbEntity
  8
101
  6
Continuous
 62
     7
370
    30
100
AcDbLine
 10
63.41504765395854
 20
38.91724706744829
 30
0.0
 11
63.18777492668579
 21
43.80361070381195
 31
0.0
  0
LINE
  5
2A6
330
1F
100
AcDbEntity
  8
101
  6
Continuous
 62
     7
370
    30
100
AcDbLine
 10
63.18777492668579
 20
43.80361070381195
 30
0.0
 11
63.07413856304942
 21
51.95701979472106
 31
0.0
  0
LINE
  5
2A7
330
1F
100
AcDbEntity
  8
101
  6
Continuous
 62
     7
370
    30
100
AcDbLine
 10
63.07413856304942
 20
51.95701979472106
 30
0.0
 11
62.9057784104283
 21
57.37542142046759
 31
0.0
  0
LINE
  5
2A8
330
1F
100
AcDbEntity
  8
101
  6
Continuous
 62
     7
370
    30
100
AcDbLine
 10
59.46618401759503
 20
57.4683834310847
 30
0.0
 11
59.60822947214029
 21
51.1615652492665
 31
0.0
  0
LINE
  5
2A9
330
1F
100
AcDbEntity
  8
101
  6
Continuous
 62
     7
370
    30
100
AcDbLine
 10
59.60822947214029
 20
51.1615652492665
 30
0.0
 11
59.66504765395848
 21
45.62179252199375
 31
0.0
  0
LINE
  5
2AA
330
1F
100
AcDbEntity
  8
101
  6
Continuous
 62
     7
370
    30
100
AcDbLine
 10
59.66504765395848
 20
45.62179252199375
 30
0.0
 11
59.72186583577667
 21
41.27520161290283
 31
0.0
  0
LINE
  5
2AB
330
1F
100
AcDbEntity
  8
101
  6
Continuous
 62
     7
370
    30
100
AcDbLine
 10
59.72186583577667
 20
41.27520161290283
 30
0.0
 11
60.09118401759486
 21
37.07065615835735
 31
0.0
  0
LINE
  5
2AC
330
1F
100
AcDbEntity
  8
101
  6
Continuous
 62
     7
370
    30
100
AcDbLine
 10
60.09118401759486
 20
37.07065615835735
 30
0.0
 11
60.57413856304942
 21
33.71838343108462
 31
0.0
  0
LINE
  5
2AD
330
1F
100
AcDbEntity
  8
101
  6
Continuous
 62
     7
370
    30
100
AcDbLine
 10
60.57413856304942
 20
33.71838343108462
 30
0.0
 11
60.85822947214047
 21
32.32633797653921
 31
0.0
  0
LINE
  5
2AE
330
1F
100
AcDbEntity
  8
101
  6
Continuous
 62
     7
370
    30
100
AcDbLine
 10
60.85822947214047
 20
32.32633797653921
 30
0.0
 11
61.85254765395865
 21
28.40588343108466
 31
0.0
  0
LINE
  5
2AF
330
1F
100
AcDbEntity
  8
101
  6
Continuous
 62
     7
370
    30
100
AcDbLine
 10
61.85254765395865
 20
28.40588343108466
 30
0.0
 11
62.98891129032228
 21
24.99679252199374
 31
0.0
  0
LINE
  5
2B0
330
1F
100
AcDbEntity
  8
101
  6
Continuous
 62
     7
370
    30
100
AcDbLine
 10
62.98891129032228
 20
24.99679252199374
 30
0.0
 11
64.46618401759491
 21
22.32633797653912
 31
0.0
  0
LINE
  5
2B1
330
1F
100
AcDbEntity
  8
101
  6
Continuous
 62
     7
370
    30
100
AcDbLine
 10
64.46618401759491
 20
22.32633797653912
 30
0.0
 11
65.65936583577673
 21
20.99111070381184
 31
0.0
  0
LINE
  5
2B2
330
1F
100
AcDbEntity
  8
101
  6
Continuous
 62
     7
370
    30
100
AcDbLine
 10
65.65936583577673
 20
20.99111070381184
 30
0.0
 11
66.93777492668585
 21
20.11042888563001
 31
0.0
  0
LINE
  5
2B3
330
1F
100
AcDbEntity
  8
101
  6
Continuous
 62
     7
370
    30
100
AcDbLine
 10
66.93777492668585
 20
20.11042888563001
 30
0.0
 11
68.7275476539586
 21
19.34338343108456
 31
0.0
  0
LINE
  5
2B4
330
1F
100
AcDbEntity
  8
101
  6
Continuous
 62
     7
370
    30
100
AcDbLine
 10
68.7275476539586
 20
19.34338343108456
 30
0.0
 11
70.57413856304947
 21
19.00247434017547
 31
0.0
  0
LINE
  5
2B5
330
1F
100
AcDbEntity
  8
101
  6
Continuous
 62
     7
370
    30
100
AcDbLine
 10
70.57413856304947
 20
19.00247434017547
 30
0.0
 11
72.6480021994131
 21
19.62747434017547
 31
0.0
  0
LINE
  5
2B6
330
1F
100
AcDbEntity
  8
101
  6
Continuous
 62
     7
370
    30
100
AcDbLine
 10
72.6480021994131
 20
19.62747434017547
 30
0.0
 11
74.49459310850403
 21
20.82065615835729
 31
0.0
  0
LINE
  5
2B7
330
1F
100
AcDbEntity
  8
101
  6
Continuous
 62
     7
370
    30
100
AcDbLine
 10
74.49459310850403
 20
20.82065615835729
 30
0.0
 11
75.88663856304947
 21
22.29792888563003
 31
0.0
  0
LINE
  5
2B8
330
1F
100
AcDbEntity
  8
101
  6
Continuous
 62
     7
370
    30
100
AcDbLine
 10
75.88663856304947
 20
22.29792888563003
 30
0.0
 11
76.68302455410765
 21
23.61499296908761
 31
0.0
  0
LINE
  5
2B9
330
1F
100
AcDbEntity
  8
101
  6
Continuous
 62
     7
370
    30
100
AcDbLine
 10
64.98746048955945
 20
165.080613334027
 30
0.0
 11
65.37527492668585
 21
167.4967925219942
 31
0.0
  0
LINE
  5
2BA
330
1F
100
AcDbEntity
  8
101
  6
Continuous
 62
     7
370
    30
100
AcDbLine
 10
65.37527492668585
 20
167.4967925219942
 30
0.0
 11
65.7730021994131
 21
174.5422470674488
 31
0.0
  0
LINE
  5
2BB
330
1F
100
AcDbEntity
  8
101
  6
Continuous
 62
     7
370
    30
100
AcDbLine
 10
65.7730021994131
 20
174.5422470674488
 30
0.0
 11
66.56845674486766
 21
175.9058834310852
 31
0.0
  0
LINE
  5
2BC
330
1F
100
AcDbEntity
  8
101
  6
Continuous
 62
     7
370
    30
100
AcDbLine
 10
66.56845674486766
 20
175.9058834310852
 30
0.0
 11
70.31845674486766
 21
177.3263379765397
 31
0.0
  0
LINE
  5
2BD
330
1F
100
AcDbEntity
  8
101
  6
Continuous
 62
     7
370
    30
100
AcDbLine
 10
70.31845674486766
 20
177.3263379765397
 30
0.0
 11
74.86391129032222
 21
177.5536107038125
 31
0.0
  0
LINE
  5
2BE
330
1F
100
AcDbEntity
  8
101
  6
Continuous
 62
     7
370
    30
100
AcDbLine
 10
74.86391129032222
 20
177.5536107038125
 30
0.0
 11
79.86391129032222
 21
176.8717925219943
 31
0.0
  0
LINE
  5
2BF
330
1F
100
AcDbEntity
  8
101
  6
Continuous
 62
     7
370
    30
100
AcDbLine
 10
79.86391129032222
 20
176.8717925219943
 30
0.0
 11
82.98891129032228
 21
175.6786107038125
 31
0.0
  0
LINE
  5
2C0
330
1F
100
AcDbEntity
  8
101
  6
Continuous
 62
     7
370
    30
100
AcDbLine
 10
82.98891129032228
 20
175.6786107038125
 30
0.0
 11
84.09686583577678
 21
174.4286107038125
 31
0.0
  0
LINE
  5
2C1
330
1F
100
AcDbEntity
  8
101
  6
Continuous
 62
     7
370
    30
100
AcDbLine
 10
84.09686583577678
 20
174.4286107038125
 30
0.0
 11
84.49459310850409
 21
173.661565249267
 31
0.0
  0
LINE
  5
2C2
330
1F
100
AcDbEntity
  8
101
  6
Continuous
 62
     7
370
    30
100
AcDbLine
 10
84.49459310850409
 20
173.661565249267
 30
0.0
 11
84.6650476539586
 21
171.3036107038124
 31
0.0
  0
LINE
  5
2C3
330
1F
100
AcDbEntity
  8
101
  6
Continuous
 62
     7
370
    30
100
AcDbLine
 10
84.6650476539586
 20
171.3036107038124
 30
0.0
 11
84.72186583577678
 21
167.3263379765397
 31
0.0
  0
LINE
  5
2C4
330
1F
100
AcDbEntity
  8
101
  6
Continuous
 62
     7
370
    30
100
AcDbLine
 10
84.72186583577678
 20
167.3263379765397
 30
0.0
 11
84.83550219941316
 21
165.5081561583578
 31
0.0
  0
LINE
  5
2C5
330
1F
100
AcDbEntity
  8
101
  6
Continuous
 62
     7
370
    30
100
AcDbLine
 10
84.83550219941316
 20
165.5081561583578
 30
0.0
 11
85.03436583577678
 21
164.7979288856306
 31
0.0
  0
LINE
  5
2C6
330
1F
100
AcDbEntity
  8
101
  6
Continuous
 62
     7
370
    30
100
AcDbLine
 10
85.03436583577678
 20
164.7979288856306
 30
0.0
 11
85.66422564834545
 21
164.1591013534582
 31
0.0
  0
LINE
  5
2C7
330
1F
100
AcDbEntity
  8
101
  6
Continuous
 62
     7
370
    30
100
AcDbLine
 10
67.386440081547
 20
176.2157256040698
 30
0.0
 11
67.36391129032222
 21
176.786565249267
 31
0.0
  0
LINE
  5
2C8
330
1F
100
AcDbEntity
  8
101
  6
Continuous
 62
     7
370
    30
100
AcDbLine
 10
67.36391129032222
 20
176.786565249267
 30
0.0
 11
67.42072947214035
 21
177.5820197947215
 31
0.0
  0
LINE
  5
2C9
330
1F
100
AcDbEntity
  8
101
  6
Continuous
 62
     7
370
    30
100
AcDbLine
 10
67.42072947214035
 20
177.5820197947215
 30
0.0
 11
68.10254765395854
 21
178.349065249267
 31
0.0
  0
LINE
  5
2CA
330
1F
100
AcDbEntity
  8
101
  6
Continuous
 62
     7
370
    30
100
AcDbLine
 10
68.10254765395854
 20
178.349065249267
 30
0.0
 11
69.80709310850403
 21
179.0024743401761
 31
0.0
  0
LINE
  5
2CB
330
1F
100
AcDbEntity
  8
101
  6
Continuous
 62
     7
370
    30
100
AcDbLine
 10
69.80709310850403
 20
179.0024743401761
 30
0.0
 11
72.07982038123129
 21
179.3149743401761
 31
0.0
  0
LINE
  5
2CC
330
1F
100
AcDbEntity
  8
101
  6
Continuous
 62
     7
370
    30
100
AcDbLine
 10
72.07982038123129
 20
179.3149743401761
 30
0.0
 11
74.77868401759497
 21
179.3717925219942
 31
0.0
  0
LINE
  5
2CD
330
1F
100
AcDbEntity
  8
101
  6
Continuous
 62
     7
370
    30
100
AcDbLine
 10
74.77868401759497
 20
179.3717925219942
 30
0.0
 11
77.27868401759497
 21
179.2297470674488
 31
0.0
  0
LINE
  5
2CE
330
1F
100
AcDbEntity
  8
101
  6
Continuous
 62
     7
370
    30
100
AcDbLine
 10
77.27868401759497
 20
179.2297470674488
 30
0.0
 11
79.26732038123134
 21
178.8320197947215
 31
0.0
  0
LINE
  5
2CF
330
1F
100
AcDbEntity
  8
101
  6
Continuous
 62
     7
370
    30
100
AcDbLine
 10
79.26732038123134
 20
178.8320197947215
 30
0.0
 11
80.97186583577678
 21
178.377474340176
 31
0.0
  0
LINE
  5
2D0
330
1F
100
AcDbEntity
  8
101
  6
Continuous
 62
     7
370
    30
100
AcDbLine
 10
80.97186583577678
 20
178.377474340176
 30
0.0
 11
82.10822947214041
 21
177.6104288856306
 31
0.0
  0
LINE
  5
2D1
330
1F
100
AcDbEntity
  8
101
  6
Continuous
 62
     7
370
    30
100
AcDbLine
 10
82.10822947214041
 20
177.6104288856306
 30
0.0
 11
82.7900476539586
 21
176.8717925219942
 31
0.0
  0
LINE
  5
2D2
330
1F
100
AcDbEntity
  8
101
  6
Continuous
 62
     7
370
    30
100
AcDbLine
 10
82.7900476539586
 20
176.8717925219942
 30
0.0
 11
82.98891129032228
 21
175.6786107038125
 31
0.0
  0
LINE
  5
2D3
330
1F
100
AcDbEntity
  8
101
  6
Continuous
 62
     7
370
    30
100
AcDbLine
 10
82.90406792422891
 20
176.1876709003726
 30
0.0
 11
81.6962976539586
 21
176.7155425219942
 31
0.0
  0
LINE
  5
2D4
330
1F
100
AcDbEntity
  8
101
  6
Continuous
 62
     7
370
    30
100
AcDbLine
 10
81.6962976539586
 20
176.7155425219942
 30
0.0
 11
80.43209310850409
 21
177.3547470674488
 31
0.0
  0
LINE
  5
2D5
330
1F
100
AcDbEntity
  8
101
  6
Continuous
 62
     7
370
    30
100
AcDbLine
 10
80.43209310850409
 20
177.3547470674488
 30
0.0
 11
78.37243401759497
 21
177.8945197947215
 31
0.0
  0
LINE
  5
2D6
330
1F
100
AcDbEntity
  8
101
  6
Continuous
 62
     7
370
    30
100
AcDbLine
 10
78.37243401759497
 20
177.8945197947215
 30
0.0
 11
75.77300219941316
 21
178.1786107038124
 31
0.0
  0
LINE
  5
2D7
330
1F
100
AcDbEntity
  8
101
  6
Continuous
 62
     7
370
    30
100
AcDbLine
 10
75.77300219941316
 20
178.1786107038124
 30
0.0
 11
72.93209310850403
 21
178.1644061583577
 31
0.0
  0
LINE
  5
2D8
330
1F
100
AcDbEntity
  8
101
  6
Continuous
 62
     7
370
    30
100
AcDbLine
 10
72.93209310850403
 20
178.1644061583577
 30
0.0
 11
70.88663856304947
 21
177.9513379765395
 31
0.0
  0
LINE
  5
2D9
330
1F
100
AcDbEntity
  8
101
  6
Continuous
 62
     7
370
    30
100
AcDbLine
 10
70.88663856304947
 20
177.9513379765395
 30
0.0
 11
69.40936583577673
 21
177.5536107038123
 31
0.0
  0
LINE
  5
2DA
330
1F
100
AcDbEntity
  8
101
  6
Continuous
 62
     7
370
    30
100
AcDbLine
 10
69.40936583577673
 20
177.5536107038123
 30
0.0
 11
68.20197947214041
 21
177.0422470674486
 31
0.0
  0
LINE
  5
2DB
330
1F
100
AcDbEntity
  8
101
  6
Continuous
 62
     7
370
    30
100
AcDbLine
 10
68.20197947214041
 20
177.0422470674486
 30
0.0
 11
67.37752142651595
 21
176.441708517345
 31
0.0
  0
LINE
  5
2DC
330
1F
100
AcDbEntity
  8
101
  6
Continuous
 62
     7
370
    30
100
AcDbLine
 10
69.50387474174124
 20
178.886240632917
 30
0.0
 11
69.65084310850403
 21
188.7894061583578
 31
0.0
  0
LINE
  5
2DD
330
1F
100
AcDbEntity
  8
101
  6
Continuous
 62
     7
370
    30
100
AcDbLine
 10
69.65084310850403
 20
188.7894061583578
 30
0.0
 11
70.73038856304947
 21
194.8121334310852
 31
0.0
  0
LINE
  5
2DE
330
1F
100
AcDbEntity
  8
101
  6
Continuous
 62
     7
370
    30
100
AcDbLine
 10
70.73038856304947
 20
194.8121334310852
 30
0.0
 11
72.60538856304947
 21
200.5507697947215
 31
0.0
  0
LINE
  5
2DF
330
1F
100
AcDbEntity
  8
101
  6
Continuous
 62
     7
370
    30
100
AcDbLine
 10
72.60538856304947
 20
200.5507697947215
 30
0.0
 11
75.4462976539586
 21
205.4939516129033
 31
0.0
  0
LINE
  5
2E0
330
1F
100
AcDbEntity
  8
101
  6
Continuous
 62
     7
370
    30
100
AcDbLine
 10
75.4462976539586
 20
205.4939516129033
 30
0.0
 11
78.51447947214041
 21
209.4144061583579
 31
0.0
  0
LINE
  5
2E1
330
1F
100
AcDbEntity
  8
101
  6
Continuous
 62
     7
370
    30
100
AcDbLine
 10
78.51447947214041
 20
209.4144061583579
 30
0.0
 11
82.60538856304953
 21
212.7098607038125
 31
0.0
  0
LINE
  5
2E2
330
1F
100
AcDbEntity
  8
101
  6
Continuous
 62
     7
370
    30
100
AcDbLine
 10
82.60538856304953
 20
212.7098607038125
 30
0.0
 11
87.26447947214047
 21
215.1530425219943
 31
0.0
  0
LINE
  5
2E3
330
1F
100
AcDbEntity
  8
101
  6
Continuous
 62
     7
370
    30
100
AcDbLine
 10
87.26447947214047
 20
215.1530425219943
 30
0.0
 11
93.74175219941316
 21
217.0848607038125
 31
0.0
  0
LINE
  5
2E4
330
1F
100
AcDbEntity
  8
101
  6
Continuous
 62
     7
370
    30
100
AcDbLine
 10
93.74175219941316
 20
217.0848607038125
 30
0.0
 11
100.219024926686
 21
217.0280425219943
 31
0.0
  0
LINE
  5
2E5
330
1F
100
AcDbEntity
  8
101
  6
Continuous
 62
     7
370
    30
100
AcDbLine
 10
100.219024926686
 20
217.0280425219943
 30
0.0
 11
105.219024926686
 21
216.4030425219943
 31
0.0
  0
LINE
  5
2E6
330
1F
100
AcDbEntity
  8
101
  6
Continuous
 62
     7
370
    30
100
AcDbLine
 10
105.219024926686
 20
216.4030425219943
 30
0.0
 11
110.0485703812314
 21
214.8689516129034
 31
0.0
  0
LINE
  5
2E7
330
1F
100
AcDbEntity
  8
101
  6
Continuous
 62
     7
370
    30
100
AcDbLine
 10
110.0485703812314
 20
214.8689516129034
 30
0.0
 11
114.7076612903223
 21
212.4257697947216
 31
0.0
  0
LINE
  5
2E8
330
1F
100
AcDbEntity
  8
101
  6
Continuous
 62
     7
370
    30
100
AcDbLine
 10
114.7076612903223
 20
212.4257697947216
 30
0.0
 11
118.6849340175951
 21
209.4144061583579
 31
0.0
  0
LINE
  5
2E9
330
1F
100
AcDbEntity
  8
101
  6
Continuous
 62
     7
370
    30
100
AcDbLine
 10
118.6849340175951
 20
209.4144061583579
 30
0.0
 11
121.9235703812315
 21
206.1757697947215
 31
0.0
  0
LINE
  5
2EA
330
1F
100
AcDbEntity
  8
101
  6
Continuous
 62
     7
370
    30
100
AcDbLine
 10
121.9235703812315
 20
206.1757697947215
 30
0.0
 11
124.3099340175951
 21
203.3348607038125
 31
0.0
  0
LINE
  5
2EB
330
1F
100
AcDbEntity
  8
101
  6
Continuous
 62
     7
370
    30
100
AcDbLine
 10
124.3099340175951
 20
203.3348607038125
 30
0.0
 11
126.7531158357769
 21
199.8689516129033
 31
0.0
  0
LINE
  5
2EC
330
1F
100
AcDbEntity
  8
101
  6
Continuous
 62
     7
370
    30
100
AcDbLine
 10
126.7531158357769
 20
199.8689516129033
 30
0.0
 11
128.5144794721406
 21
196.8007697947215
 31
0.0
  0
LINE
  5
2ED
330
1F
100
AcDbEntity
  8
101
  6
Continuous
 62
     7
370
    30
100
AcDbLine
 10
128.5144794721406
 20
196.8007697947215
 30
0.0
 11
130.1053885630496
 21
192.3689516129033
 31
0.0
  0
LINE
  5
2EE
330
1F
100
AcDbEntity
  8
101
  6
Continuous
 62
     7
370
    30
100
AcDbLine
 10
130.1053885630496
 20
192.3689516129033
 30
0.0
 11
130.844024926686
 21
188.505315249267
 31
0.0
  0
LINE
  5
2EF
330
1F
100
AcDbEntity
  8
101
  6
Continuous
 62
     7
370
    30
100
AcDbLine
 10
130.844024926686
 20
188.505315249267
 30
0.0
 11
131.4122067448678
 21
184.755315249267
 31
0.0
  0
LINE
  5
2F0
330
1F
100
AcDbEntity
  8
101
  6
Continuous
 62
     7
370
    30
100
AcDbLine
 10
131.4122067448678
 20
184.755315249267
 30
0.0
 11
131.5826612903224
 21
181.5734970674488
 31
0.0
  0
LINE
  5
2F1
330
1F
100
AcDbEntity
  8
101
  6
Continuous
 62
     7
370
    30
100
AcDbLine
 10
131.5826612903224
 20
181.5734970674488
 30
0.0
 11
132.719024926686
 21
111.971224340176
 31
0.0
  0
LINE
  5
2F2
330
1F
100
AcDbEntity
  8
101
  6
Continuous
 62
     7
370
    30
100
AcDbLine
 10
132.719024926686
 20
111.971224340176
 30
0.0
 11
133.003115835777
 21
108.9598607038123
 31
0.0
  0
LINE
  5
2F3
330
1F
100
AcDbEntity
  8
101
  6
Continuous
 62
     7
370
    30
100
AcDbLine
 10
133.003115835777
 20
108.9598607038123
 30
0.0
 11
133.5712976539588
 21
106.1757697947214
 31
0.0
  0
LINE
  5
2F4
330
1F
100
AcDbEntity
  8
101
  6
Continuous
 62
     7
370
    30
100
AcDbLine
 10
133.5712976539588
 20
106.1757697947214
 30
0.0
 11
135.7303885630497
 21
100.7212243401759
 31
0.0
  0
LINE
  5
2F5
330
1F
100
AcDbEntity
  8
101
  6
Continuous
 62
     7
370
    30
100
AcDbLine
 10
135.7303885630497
 20
100.7212243401759
 30
0.0
 11
138.4576612903224
 21
96.80076979472136
 31
0.0
  0
LINE
  5
2F6
330
1F
100
AcDbEntity
  8
101
  6
Continuous
 62
     7
370
    30
100
AcDbLine
 10
138.4576612903224
 20
96.80076979472136
 30
0.0
 11
141.9803885630497
 21
94.01667888563044
 31
0.0
  0
LINE
  5
2F7
330
1F
100
AcDbEntity
  8
101
  6
Continuous
 62
     7
370
    30
100
AcDbLine
 10
141.9803885630497
 20
94.01667888563044
 30
0.0
 11
145.3894794721406
 21
92.31213343108499
 31
0.0
  0
LINE
  5
2F8
330
1F
100
AcDbEntity
  8
101
  6
Continuous
 62
     7
370
    30
100
AcDbLine
 10
145.3894794721406
 20
92.31213343108499
 30
0.0
 11
148.628115835777
 21
91.6303152492668
 31
0.0
  0
LINE
  5
2F9
330
1F
100
AcDbEntity
  8
101
  6
Continuous
 62
     7
370
    30
100
AcDbLine
 10
148.628115835777
 20
91.6303152492668
 30
0.0
 11
156.5258431085043
 21
91.9144061583577
 31
0.0
  0
LINE
  5
2FA
330
1F
100
AcDbEntity
  8
101
  6
Continuous
 62
     7
370
    30
100
AcDbLine
 10
156.5258431085043
 20
91.9144061583577
 30
0.0
 11
157.8326612903224
 21
91.9712243401759
 31
0.0
  0
LINE
  5
2FB
330
1F
100
AcDbEntity
  8
101
  6
Continuous
 62
     7
370
    30
100
AcDbLine
 10
157.3212976539588
 20
81.97122434017588
 30
0.0
 11
149.7644794721407
 21
81.9144061583577
 31
0.0
  0
LINE
  5
2FC
330
1F
100
AcDbEntity
  8
101
  6
Continuous
 62
     7
370
    30
100
AcDbLine
 10
149.7644794721407
 20
81.9144061583577
 30
0.0
 11
145.3894794721406
 21
82.08486070381225
 31
0.0
  0
LINE
  5
2FD
330
1F
100
AcDbEntity
  8
101
  6
Continuous
 62
     7
370
    30
100
AcDbLine
 10
145.3894794721406
 20
82.08486070381225
 30
0.0
 11
140.8440249266861
 21
83.33486070381225
 31
0.0
  0
LINE
  5
2FE
330
1F
100
AcDbEntity
  8
101
  6
Continuous
 62
     7
370
    30
100
AcDbLine
 10
140.8440249266861
 20
83.33486070381225
 30
0.0
 11
135.503115835777
 21
86.06213343108499
 31
0.0
  0
LINE
  5
2FF
330
1F
100
AcDbEntity
  8
101
  6
Continuous
 62
     7
370
    30
100
AcDbLine
 10
135.503115835777
 20
86.06213343108499
 30
0.0
 11
131.9803885630497
 21
89.01667888563044
 31
0.0
  0
LINE
  5
300
330
1F
100
AcDbEntity
  8
101
  6
Continuous
 62
     7
370
    30
100
AcDbLine
 10
131.9803885630497
 20
89.01667888563044
 30
0.0
 11
128.7417521994133
 21
92.82349706744863
 31
0.0
  0
LINE
  5
301
330
1F
100
AcDbEntity
  8
101
  6
Continuous
 62
     7
370
    30
100
AcDbLine
 10
128.7417521994133
 20
92.82349706744863
 30
0.0
 11
125.9576612903224
 21
96.7439516129032
 31
0.0
  0
LINE
  5
302
330
1F
100
AcDbEntity
  8
101
  6
Continuous
 62
     7
370
    30
100
AcDbLine
 10
125.9576612903224
 20
96.7439516129032
 30
0.0
 11
123.9122067448678
 21
102.4257697947214
 31
0.0
  0
LINE
  5
303
330
1F
100
AcDbEntity
  8
101
  6
Continuous
 62
     7
370
    30
100
AcDbLine
 10
123.9122067448678
 20
102.4257697947214
 30
0.0
 11
122.8326612903224
 21
108.5053152492669
 31
0.0
  0
LINE
  5
304
330
1F
100
AcDbEntity
  8
101
  6
Continuous
 62
     7
370
    30
100
AcDbLine
 10
122.8326612903224
 20
108.5053152492669
 30
0.0
 11
122.6053885630497
 21
116.8575879765396
 31
0.0
  0
LINE
  5
305
330
1F
100
AcDbEntity
  8
101
  6
Continuous
 62
     7
370
    30
100
AcDbLine
 10
122.6053885630497
 20
116.8575879765396
 30
0.0
 11
121.2417521994133
 21
182.880315249267
 31
0.0
  0
LINE
  5
306
330
1F
100
AcDbEntity
  8
101
  6
Continuous
 62
     7
370
    30
100
AcDbLine
 10
121.2417521994133
 20
182.880315249267
 30
0.0
 11
120.3326612903224
 21
188.3348607038125
 31
0.0
  0
LINE
  5
307
330
1F
100
AcDbEntity
  8
101
  6
Continuous
 62
     7
370
    30
100
AcDbLine
 10
120.3326612903224
 20
188.3348607038125
 30
0.0
 11
117.8326612903224
 21
194.130315249267
 31
0.0
  0
LINE
  5
308
330
1F
100
AcDbEntity
  8
101
  6
Continuous
 62
     7
370
    30
100
AcDbLine
 10
117.8326612903224
 20
194.130315249267
 30
0.0
 11
116.0144794721406
 21
196.630315249267
 31
0.0
  0
LINE
  5
309
330
1F
100
AcDbEntity
  8
101
  6
Continuous
 62
     7
370
    30
100
AcDbLine
 10
116.0144794721406
 20
196.630315249267
 30
0.0
 11
112.5485703812315
 21
199.8689516129033
 31
0.0
  0
LINE
  5
30A
330
1F
100
AcDbEntity
  8
101
  6
Continuous
 62
     7
370
    30
100
AcDbLine
 10
112.5485703812315
 20
199.8689516129033
 30
0.0
 11
108.4576612903223
 21
202.6530425219943
 31
0.0
  0
LINE
  5
30B
330
1F
100
AcDbEntity
  8
101
  6
Continuous
 62
     7
370
    30
100
AcDbLine
 10
108.4576612903223
 20
202.6530425219943
 30
0.0
 11
104.8212976539587
 21
204.4712243401761
 31
0.0
  0
LINE
  5
30C
330
1F
100
AcDbEntity
  8
101
  6
Continuous
 62
     7
370
    30
100
AcDbLine
 10
104.8212976539587
 20
204.4712243401761
 30
0.0
 11
100.2758431085042
 21
205.4371334310852
 31
0.0
  0
LINE
  5
30D
330
1F
100
AcDbEntity
  8
101
  6
Continuous
 62
     7
370
    30
100
AcDbLine
 10
100.2758431085042
 20
205.4371334310852
 30
0.0
 11
95.55993401759508
 21
205.1530425219943
 31
0.0
  0
LINE
  5
30E
330
1F
100
AcDbEntity
  8
101
  6
Continuous
 62
     7
370
    30
100
AcDbLine
 10
95.55993401759508
 20
205.1530425219943
 30
0.0
 11
91.46902492668596
 21
204.2439516129033
 31
0.0
  0
LINE
  5
30F
330
1F
100
AcDbEntity
  8
101
  6
Continuous
 62
     7
370
    30
100
AcDbLine
 10
91.46902492668596
 20
204.2439516129033
 30
0.0
 11
88.23038856304959
 21
202.3121334310852
 31
0.0
  0
LINE
  5
310
330
1F
100
AcDbEntity
  8
101
  6
Continuous
 62
     7
370
    30
100
AcDbLine
 10
88.23038856304959
 20
202.3121334310852
 30
0.0
 11
84.76447947214052
 21
198.9598607038125
 31
0.0
  0
LINE
  5
311
330
1F
100
AcDbEntity
  8
101
  6
Continuous
 62
     7
370
    30
100
AcDbLine
 10
84.76447947214052
 20
198.9598607038125
 30
0.0
 11
82.43493401759508
 21
195.0394061583579
 31
0.0
  0
LINE
  5
312
330
1F
100
AcDbEntity
  8
101
  6
Continuous
 62
     7
370
    30
100
AcDbLine
 10
82.43493401759508
 20
195.0394061583579
 30
0.0
 11
81.41220674486777
 21
191.630315249267
 31
0.0
  0
LINE
  5
313
330
1F
100
AcDbEntity
  8
101
  6
Continuous
 62
     7
370
    30
100
AcDbLine
 10
81.41220674486777
 20
191.630315249267
 30
0.0
 11
81.01447947214052
 21
188.1075879765397
 31
0.0
  0
LINE
  5
314
330
1F
100
AcDbEntity
  8
101
  6
Continuous
 62
     7
370
    30
100
AcDbLine
 10
81.01447947214052
 20
188.1075879765397
 30
0.0
 11
80.73038856304959
 21
184.3575879765397
 31
0.0
  0
LINE
  5
315
330
1F
100
AcDbEntity
  8
101
  6
Continuous
 62
     7
370
    30
100
AcDbLine
 10
80.73038856304959
 20
184.3575879765397
 30
0.0
 11
80.97186583577678
 21
178.377474340176
 31
0.0
  0
LINE
  5
316
330
1F
100
AcDbEntity
  8
101
  6
Continuous
 62
     7
370
    30
100
AcDbLine
 10
156.1937826206693
 20
80.81809036658197
 30
0.0
 11
156.8721534071861
 21
79.69730384972803
 31
0.0
  0
LINE
  5
317
330
1F
100
AcDbEntity
  8
101
  6
Continuous
 62
     7
370
    30
100
AcDbLine
 10
156.8721534071861
 20
79.69730384972803
 30
0.0
 11
158.3173781262872
 21
79.07792182725612
 31
0.0
  0
LINE
  5
318
330
1F
100
AcDbEntity
  8
101
  6
Continuous
 62
     7
370
    30
100
AcDbLine
 10
158.3173781262872
 20
79.07792182725612
 30
0.0
 11
164.0392882386467
 21
79.28438250141343
 31
0.0
  0
LINE
  5
319
330
1F
100
AcDbEntity
  8
101
  6
Continuous
 62
     7
370
    30
100
AcDbLine
 10
161.0862451240048
 20
79.17782939933872
 30
0.0
 11
162.2696253172984
 21
76.8953375575932
 31
0.0
  0
LINE
  5
31A
330
1F
100
AcDbEntity
  8
101
  6
Continuous
 62
     7
370
    30
100
AcDbLine
 10
162.2696253172984
 20
76.8953375575932
 30
0.0
 11
164.1867601487591
 21
74.83073081602018
 31
0.0
  0
LINE
  5
31B
330
1F
100
AcDbEntity
  8
101
  6
Continuous
 62
     7
370
    30
100
AcDbLine
 10
164.1867601487591
 20
74.83073081602018
 30
0.0
 11
166.9592320588715
 21
72.55966340028982
 31
0.0
  0
LINE
  5
31C
330
1F
100
AcDbEntity
  8
101
  6
Continuous
 62
     7
370
    30
100
AcDbLine
 10
166.9592320588715
 20
72.55966340028982
 30
0.0
 11
168.7583893622423
 21
71.52736002950328
 31
0.0
  0
LINE
  5
31D
330
1F
100
AcDbEntity
  8
101
  6
Continuous
 62
     7
370
    30
100
AcDbLine
 10
168.7583893622423
 20
71.52736002950328
 30
0.0
 11
171.6488388004445
 21
70.84898924298645
 31
0.0
  0
LINE
  5
31E
330
1F
100
AcDbEntity
  8
101
  6
Continuous
 62
     7
370
    30
100
AcDbLine
 10
171.6488388004445
 20
70.84898924298645
 30
0.0
 11
174.7752432948266
 21
70.11162969242466
 31
0.0
  0
LINE
  5
31F
330
1F
100
AcDbEntity
  8
101
  6
Continuous
 62
     7
370
    30
100
AcDbLine
 10
174.7752432948266
 20
70.11162969242466
 30
0.0
 11
177.1642882386468
 21
69.84618025422239
 31
0.0
  0
LINE
  5
320
330
1F
100
AcDbEntity
  8
101
  6
Continuous
 62
     7
370
    30
100
AcDbLine
 10
167.3942891019025
 20
72.31004050674744
 30
0.0
 11
168.6994005981973
 21
69.75769710815499
 31
0.0
  0
LINE
  5
321
330
1F
100
AcDbEntity
  8
101
  6
Continuous
 62
     7
370
    30
100
AcDbLine
 10
168.6994005981973
 20
69.75769710815499
 30
0.0
 11
170.4100747555007
 21
67.30966340028979
 31
0.0
  0
LINE
  5
322
330
1F
100
AcDbEntity
  8
101
  6
Continuous
 62
     7
370
    30
100
AcDbLine
 10
170.4100747555007
 20
67.30966340028979
 30
0.0
 11
173.359512957748
 21
64.27174205197517
 31
0.0
  0
LINE
  5
323
330
1F
100
AcDbEntity
  8
101
  6
Continuous
 62
     7
370
    30
100
AcDbLine
 10
173.359512957748
 20
64.27174205197517
 30
0.0
 11
176.1614792498828
 21
62.64955104073923
 31
0.0
  0
LINE
  5
324
330
1F
100
AcDbEntity
  8
101
  6
Continuous
 62
     7
370
    30
100
AcDbLine
 10
176.1614792498828
 20
62.64955104073923
 30
0.0
 11
178.6979961038154
 21
62.11865216433473
 31
0.0
  0
LINE
  5
325
330
1F
100
AcDbEntity
  8
101
  6
Continuous
 62
     7
370
    30
100
AcDbLine
 10
178.6979961038154
 20
62.11865216433473
 30
0.0
 11
182.7092320588716
 21
62.26612407444709
 31
0.0
  0
LINE
  5
326
330
1F
100
AcDbEntity
  8
101
  6
Continuous
 62
     7
370
    30
100
AcDbLine
 10
182.7092320588716
 20
62.26612407444709
 30
0.0
 11
185.7766477892087
 21
63.82932632163809
 31
0.0
  0
LINE
  5
327
330
1F
100
AcDbEntity
  8
101
  6
Continuous
 62
     7
370
    30
100
AcDbLine
 10
185.7766477892087
 20
63.82932632163809
 30
0.0
 11
188.8145691375233
 21
67.07370834411003
 31
0.0
  0
LINE
  5
328
330
1F
100
AcDbEntity
  8
101
  6
Continuous
 62
     7
370
    30
100
AcDbLine
 10
188.8145691375233
 20
67.07370834411003
 30
0.0
 11
191.1446253172986
 21
70.84898924298642
 31
0.0
  0
LINE
  5
329
330
1F
100
AcDbEntity
  8
101
  6
Continuous
 62
     7
370
    30
100
AcDbLine
 10
191.1446253172986
 20
70.84898924298642
 30
0.0
 11
192.796310710557
 21
74.86022519804263
 31
0.0
  0
LINE
  5
32A
330
1F
100
AcDbEntity
  8
101
  6
Continuous
 62
     7
370
    30
100
AcDbLine
 10
192.796310710557
 20
74.86022519804263
 30
0.0
 11
193.799119699321
 21
78.98943868118872
 31
0.0
  0
LINE
  5
32B
330
1F
100
AcDbEntity
  8
101
  6
Continuous
 62
     7
370
    30
100
AcDbLine
 10
193.799119699321
 20
78.98943868118872
 30
0.0
 11
194.5954680139277
 21
83.32511283849206
 31
0.0
  0
LINE
  5
32C
330
1F
100
AcDbEntity
  8
101
  6
Continuous
 62
     7
370
    30
100
AcDbLine
 10
194.5954680139277
 20
83.32511283849206
 30
0.0
 11
194.6544567779727
 21
87.77876452388534
 31
0.0
  0
LINE
  5
32D
330
1F
100
AcDbEntity
  8
101
  6
Continuous
 62
     7
370
    30
100
AcDbLine
 10
194.6544567779727
 20
87.77876452388534
 30
0.0
 11
194.3890073397704
 21
92.02595553512128
 31
0.0
  0
LINE
  5
32E
330
1F
100
AcDbEntity
  8
101
  6
Continuous
 62
     7
370
    30
100
AcDbLine
 10
194.3890073397704
 20
92.02595553512128
 30
0.0
 11
193.5336702611187
 21
97.04000047894151
 31
0.0
  0
LINE
  5
32F
330
1F
100
AcDbEntity
  8
101
  6
Continuous
 62
     7
370
    30
100
AcDbLine
 10
193.5336702611187
 20
97.04000047894151
 30
0.0
 11
191.5870410476356
 21
102.9093825014133
 31
0.0
  0
LINE
  5
330
330
1F
100
AcDbEntity
  8
101
  6
Continuous
 62
     7
370
    30
100
AcDbLine
 10
191.5870410476356
 20
102.9093825014133
 30
0.0
 11
188.6081084633659
 21
107.3335398047841
 31
0.0
  0
LINE
  5
331
330
1F
100
AcDbEntity
  8
101
  6
Continuous
 62
     7
370
    30
100
AcDbLine
 10
188.6081084633659
 20
107.3335398047841
 30
0.0
 11
184.7443444184221
 21
110.2239892429863
 31
0.0
  0
LINE
  5
332
330
1F
100
AcDbEntity
  8
101
  6
Continuous
 62
     7
370
    30
100
AcDbLine
 10
184.7443444184221
 20
110.2239892429863
 30
0.0
 11
180.7920972274109
 21
111.079326321638
 31
0.0
  0
LINE
  5
333
330
1F
100
AcDbEntity
  8
101
  6
Continuous
 62
     7
370
    30
100
AcDbLine
 10
180.7920972274109
 20
111.079326321638
 30
0.0
 11
177.3707489128041
 21
110.7548881193908
 31
0.0
  0
LINE
  5
334
330
1F
100
AcDbEntity
  8
101
  6
Continuous
 62
     7
370
    30
100
AcDbLine
 10
177.3707489128041
 20
110.7548881193908
 30
0.0
 11
173.9494005981974
 21
109.1916858721998
 31
0.0
  0
LINE
  5
335
330
1F
100
AcDbEntity
  8
101
  6
Continuous
 62
     7
370
    30
100
AcDbLine
 10
173.9494005981974
 20
109.1916858721998
 30
0.0
 11
171.0884455420176
 21
106.4782027261324
 31
0.0
  0
LINE
  5
336
330
1F
100
AcDbEntity
  8
101
  6
Continuous
 62
     7
370
    30
100
AcDbLine
 10
171.0884455420176
 20
106.4782027261324
 30
0.0
 11
169.2892882386469
 21
104.148146546357
 31
0.0
  0
LINE
  5
337
330
1F
100
AcDbEntity
  8
101
  6
Continuous
 62
     7
370
    30
100
AcDbLine
 10
169.2892882386469
 20
104.148146546357
 30
0.0
 11
167.7555803734783
 21
101.3461802542222
 31
0.0
  0
LINE
  5
338
330
1F
100
AcDbEntity
  8
101
  6
Continuous
 62
     7
370
    30
100
AcDbLine
 10
176.8103556543772
 20
102.9978656474807
 30
0.0
 11
173.0940635195457
 21
102.9388768834357
 31
0.0
  0
LINE
  5
339
330
1F
100
AcDbEntity
  8
101
  6
Continuous
 62
     7
370
    30
100
AcDbLine
 10
173.0940635195457
 20
102.9388768834357
 30
0.0
 11
169.9086702611187
 21
102.083539804784
 31
0.0
  0
LINE
  5
33A
330
1F
100
AcDbEntity
  8
101
  6
Continuous
 62
     7
370
    30
100
AcDbLine
 10
169.9086702611187
 20
102.083539804784
 30
0.0
 11
167.7555803734783
 21
101.3461802542222
 31
0.0
  0
LINE
  5
33B
330
1F
100
AcDbEntity
  8
101
  6
Continuous
 62
     7
370
    30
100
AcDbLine
 10
167.7555803734783
 20
101.3461802542222
 30
0.0
 11
164.5406927330288
 21
98.98662969242453
 31
0.0
  0
LINE
  5
33C
330
1F
100
AcDbEntity
  8
101
  6
Continuous
 62
     7
370
    30
100
AcDbLine
 10
164.5406927330288
 20
98.98662969242453
 30
0.0
 11
162.6530522835906
 21
96.65657351264925
 31
0.0
  0
LINE
  5
33D
330
1F
100
AcDbEntity
  8
101
  6
Continuous
 62
     7
370
    30
100
AcDbLine
 10
162.6530522835906
 20
96.65657351264925
 30
0.0
 11
161.5322657667367
 21
94.62146115309868
 31
0.0
  0
LINE
  5
33E
330
1F
100
AcDbEntity
  8
101
  6
Continuous
 62
     7
370
    30
100
AcDbLine
 10
161.5322657667367
 20
94.62146115309868
 30
0.0
 11
161.237321946512
 21
93.8841016025369
 31
0.0
  0
LINE
  5
33F
330
1F
100
AcDbEntity
  8
101
  6
Continuous
 62
     7
370
    30
100
AcDbLine
 10
163.4788949802199
 20
93.7956184564695
 30
0.0
 11
161.237321946512
 21
93.8841016025369
 31
0.0
  0
LINE
  5
340
330
1F
100
AcDbEntity
  8
101
  6
Continuous
 62
     7
370
    30
100
AcDbLine
 10
161.237321946512
 20
93.8841016025369
 30
0.0
 11
158.5238388004445
 21
93.73662969242454
 31
0.0
  0
LINE
  5
341
330
1F
100
AcDbEntity
  8
101
  6
Continuous
 62
     7
370
    30
100
AcDbLine
 10
158.5238388004445
 20
93.73662969242454
 30
0.0
 11
157.4030522835906
 21
93.53016901826726
 31
0.0
  0
LINE
  5
342
330
1F
100
AcDbEntity
  8
101
  6
Continuous
 62
     7
370
    30
100
AcDbLine
 10
157.4030522835906
 20
93.53016901826726
 30
0.0
 11
156.3707489128041
 21
92.46837126545833
 31
0.0
  0
LINE
  5
343
330
1F
100
AcDbEntity
  8
101
  6
Continuous
 62
     7
370
    30
100
AcDbLine
 10
164.5111983510064
 20
93.38269710815499
 30
0.0
 11
165.6319848678604
 21
92.14393306321116
 31
0.0
  0
LINE
  5
344
330
1F
100
AcDbEntity
  8
101
  6
Continuous
 62
     7
370
    30
100
AcDbLine
 10
165.6319848678604
 20
92.14393306321116
 30
0.0
 11
166.4578275644895
 21
89.87286564748081
 31
0.0
  0
LINE
  5
345
330
1F
100
AcDbEntity
  8
101
  6
Continuous
 62
     7
370
    30
100
AcDbLine
 10
166.4578275644895
 20
89.87286564748081
 30
0.0
 11
167.0182208229165
 21
87.18887688343577
 31
0.0
  0
LINE
  5
346
330
1F
100
AcDbEntity
  8
101
  6
Continuous
 62
     7
370
    30
100
AcDbLine
 10
167.0182208229165
 20
87.18887688343577
 30
0.0
 11
167.0182208229165
 21
85.03578699579532
 31
0.0
  0
LINE
  5
347
330
1F
100
AcDbEntity
  8
101
  6
Continuous
 62
     7
370
    30
100
AcDbLine
 10
167.0182208229165
 20
85.03578699579532
 30
0.0
 11
166.5168163285345
 21
82.79421396208747
 31
0.0
  0
LINE
  5
348
330
1F
100
AcDbEntity
  8
101
  6
Continuous
 62
     7
370
    30
100
AcDbLine
 10
166.5168163285345
 20
82.79421396208747
 30
0.0
 11
165.8384455420176
 21
81.29000047894138
 31
0.0
  0
LINE
  5
349
330
1F
100
AcDbEntity
  8
101
  6
Continuous
 62
     7
370
    30
100
AcDbLine
 10
165.8384455420176
 20
81.29000047894138
 30
0.0
 11
164.7176590251637
 21
79.69730384972792
 31
0.0
  0
LINE
  5
34A
330
1F
100
AcDbEntity
  8
101
  6
Continuous
 62
     7
370
    30
100
AcDbLine
 10
175.8960298116806
 20
103.6172476699526
 30
0.0
 11
177.606703968984
 21
103.9121914901773
 31
0.0
  0
LINE
  5
34B
330
1F
100
AcDbEntity
  8
101
  6
Continuous
 62
     7
370
    30
100
AcDbLine
 10
177.606703968984
 20
103.9121914901773
 30
0.0
 11
180.3791758790964
 21
103.204326321638
 31
0.0
  0
LINE
  5
34C
330
1F
100
AcDbEntity
  8
101
  6
Continuous
 62
     7
370
    30
100
AcDbLine
 10
180.3791758790964
 20
103.204326321638
 30
0.0
 11
183.5645691375233
 21
100.6678094677054
 31
0.0
  0
LINE
  5
34D
330
1F
100
AcDbEntity
  8
101
  6
Continuous
 62
     7
370
    30
100
AcDbLine
 10
183.5645691375233
 20
100.6678094677054
 30
0.0
 11
185.3342320588716
 21
97.06949486096381
 31
0.0
  0
LINE
  5
34E
330
1F
100
AcDbEntity
  8
101
  6
Continuous
 62
     7
370
    30
100
AcDbLine
 10
185.3342320588716
 20
97.06949486096381
 30
0.0
 11
187.1038949802199
 21
90.8166858721998
 31
0.0
  0
LINE
  5
34F
330
1F
100
AcDbEntity
  8
101
  6
Continuous
 62
     7
370
    30
100
AcDbLine
 10
187.1038949802199
 20
90.8166858721998
 30
0.0
 11
187.1628837442649
 21
84.97679823175034
 31
0.0
  0
LINE
  5
350
330
1F
100
AcDbEntity
  8
101
  6
Continuous
 62
     7
370
    30
100
AcDbLine
 10
187.1628837442649
 20
84.97679823175034
 30
0.0
 11
185.983108463366
 21
79.9037645238852
 31
0.0
  0
LINE
  5
351
330
1F
100
AcDbEntity
  8
101
  6
Continuous
 62
     7
370
    30
100
AcDbLine
 10
185.983108463366
 20
79.9037645238852
 30
0.0
 11
184.3904118341525
 21
75.42061845646947
 31
0.0
  0
LINE
  5
352
330
1F
100
AcDbEntity
  8
101
  6
Continuous
 62
     7
370
    30
100
AcDbLine
 10
184.3904118341525
 20
75.42061845646947
 30
0.0
 11
182.6207489128042
 21
72.41219149017732
 31
0.0
  0
LINE
  5
353
330
1F
100
AcDbEntity
  8
101
  6
Continuous
 62
     7
370
    30
100
AcDbLine
 10
182.6207489128042
 20
72.41219149017732
 30
0.0
 11
181.0280522835908
 21
70.81949486096386
 31
0.0
  0
LINE
  5
354
330
1F
100
AcDbEntity
  8
101
  6
Continuous
 62
     7
370
    30
100
AcDbLine
 10
181.0280522835908
 20
70.81949486096386
 30
0.0
 11
179.4353556543773
 21
69.75769710815487
 31
0.0
  0
LINE
  5
355
330
1F
100
AcDbEntity
  8
101
  6
Continuous
 62
     7
370
    30
100
AcDbLine
 10
179.4353556543773
 20
69.75769710815487
 30
0.0
 11
178.0786140813436
 21
69.4037645238852
 31
0.0
  0
LINE
  5
356
330
1F
100
AcDbEntity
  8
101
  6
Continuous
 62
     7
370
    30
100
AcDbLine
 10
158.5238388004445
 20
93.73662969242454
 30
0.0
 11
159.9248219465122
 21
93.11724766995289
 31
0.0
  0
LINE
  5
357
330
1F
100
AcDbEntity
  8
101
  6
Continuous
 62
     7
370
    30
100
AcDbLine
 10
159.9248219465122
 20
93.11724766995289
 30
0.0
 11
161.0161140813437
 21
92.0554499171439
 31
0.0
  0
LINE
  5
358
330
1F
100
AcDbEntity
  8
101
  6
Continuous
 62
     7
370
    30
100
AcDbLine
 10
161.0161140813437
 20
92.0554499171439
 30
0.0
 11
161.723979249883
 21
90.28578699579558
 31
0.0
  0
LINE
  5
359
330
1F
100
AcDbEntity
  8
101
  6
Continuous
 62
     7
370
    30
100
AcDbLine
 10
161.723979249883
 20
90.28578699579558
 30
0.0
 11
162.1958893622426
 21
87.74927014186295
 31
0.0
  0
LINE
  5
35A
330
1F
100
AcDbEntity
  8
101
  6
Continuous
 62
     7
370
    30
100
AcDbLine
 10
162.1958893622426
 20
87.74927014186295
 30
0.0
 11
162.1958893622426
 21
85.5961802542225
 31
0.0
  0
LINE
  5
35B
330
1F
100
AcDbEntity
  8
101
  6
Continuous
 62
     7
370
    30
100
AcDbLine
 10
162.1958893622426
 20
85.5961802542225
 30
0.0
 11
161.9009455420178
 21
83.64955104073937
 31
0.0
  0
LINE
  5
35C
330
1F
100
AcDbEntity
  8
101
  6
Continuous
 62
     7
370
    30
100
AcDbLine
 10
161.9009455420178
 20
83.64955104073937
 30
0.0
 11
161.1340916094336
 21
81.7029218272562
 31
0.0
  0
LINE
  5
35D
330
1F
100
AcDbEntity
  8
101
  6
Continuous
 62
     7
370
    30
100
AcDbLine
 10
161.1340916094336
 20
81.7029218272562
 30
0.0
 11
160.1312826206695
 21
80.28719149017755
 31
0.0
  0
LINE
  5
35E
330
1F
100
AcDbEntity
  8
101
  6
Continuous
 62
     7
370
    30
100
AcDbLine
 10
160.1312826206695
 20
80.28719149017755
 30
0.0
 11
159.0694848678606
 21
79.54983193961576
 31
0.0
  0
LINE
  5
35F
330
1F
100
AcDbEntity
  8
101
  6
Continuous
 62
     7
370
    30
100
AcDbLine
 10
159.0694848678606
 20
79.54983193961576
 30
0.0
 11
157.8208046082712
 21
79.29073904926301
 31
0.0
  0
LINE
  5
360
330
1F
100
AcDbEntity
  8
101
  6
Continuous
 62
     7
370
    30
100
AcDbLine
 10
157.1523500363999
 20
81.52595553512137
 30
0.0
 11
158.0666758790965
 21
81.11303418680677
 31
0.0
  0
LINE
  5
361
330
1F
100
AcDbEntity
  8
101
  6
Continuous
 62
     7
370
    30
100
AcDbLine
 10
158.0666758790965
 20
81.11303418680677
 30
0.0
 11
159.1284736319055
 21
81.46696677107641
 31
0.0
  0
LINE
  5
362
330
1F
100
AcDbEntity
  8
101
  6
Continuous
 62
     7
370
    30
100
AcDbLine
 10
159.1284736319055
 20
81.46696677107641
 30
0.0
 11
160.219765766737
 21
82.76471958006519
 31
0.0
  0
LINE
  5
363
330
1F
100
AcDbEntity
  8
101
  6
Continuous
 62
     7
370
    30
100
AcDbLine
 10
160.219765766737
 20
82.76471958006519
 30
0.0
 11
160.5736983510066
 21
84.62286564748092
 31
0.0
  0
LINE
  5
364
330
1F
100
AcDbEntity
  8
101
  6
Continuous
 62
     7
370
    30
100
AcDbLine
 10
160.5736983510066
 20
84.62286564748092
 30
0.0
 11
160.8686421712314
 21
87.60179823175059
 31
0.0
  0
LINE
  5
365
330
1F
100
AcDbEntity
  8
101
  6
Continuous
 62
     7
370
    30
100
AcDbLine
 10
160.8686421712314
 20
87.60179823175059
 30
0.0
 11
160.6326871150516
 21
89.4894386811888
 31
0.0
  0
LINE
  5
366
330
1F
100
AcDbEntity
  8
101
  6
Continuous
 62
     7
370
    30
100
AcDbLine
 10
160.6326871150516
 20
89.4894386811888
 30
0.0
 11
159.7773500363999
 21
90.81668587220003
 31
0.0
  0
LINE
  5
367
330
1F
100
AcDbEntity
  8
101
  6
Continuous
 62
     7
370
    30
100
AcDbLine
 10
159.7773500363999
 20
90.81668587220003
 30
0.0
 11
159.1874623959505
 21
91.7015173328742
 31
0.0
  0
LINE
  5
368
330
1F
100
AcDbEntity
  8
101
  6
Continuous
 62
     7
370
    30
100
AcDbLine
 10
159.1874623959505
 20
91.7015173328742
 30
0.0
 11
158.1846534071864
 21
92.05544991714385
 31
0.0
  0
LINE
  5
369
330
1F
100
AcDbEntity
  8
101
  6
Continuous
 62
     7
370
    30
100
AcDbLine
 10
156.7984174521303
 20
91.99646115309892
 30
0.0
 11
157.8012264408943
 21
92.76331508568319
 31
0.0
  0
LINE
  5
36A
330
1F
100
AcDbEntity
  8
101
  6
Continuous
 62
     7
370
    30
100
AcDbLine
 10
157.8012264408943
 20
92.76331508568319
 30
0.0
 11
159.4234174521303
 21
92.58634879354835
 31
0.0
  0
LINE
  5
36B
330
1F
100
AcDbEntity
  8
101
  6
Continuous
 62
     7
370
    30
100
AcDbLine
 10
159.4234174521303
 20
92.58634879354835
 30
0.0
 11
160.160777002692
 21
91.99646115309892
 31
0.0
  0
LINE
  5
36C
330
1F
100
AcDbEntity
  8
101
  6
Continuous
 62
     7
370
    30
100
AcDbLine
 10
160.160777002692
 20
91.99646115309892
 30
0.0
 11
160.8096534071864
 21
91.02314654635734
 31
0.0
  0
LINE
  5
36D
330
1F
100
AcDbEntity
  8
101
  6
Continuous
 62
     7
370
    30
100
AcDbLine
 10
160.8096534071864
 20
91.02314654635734
 30
0.0
 11
161.5470129577482
 21
88.98803418680677
 31
0.0
  0
LINE
  5
36E
330
1F
100
AcDbEntity
  8
101
  6
Continuous
 62
     7
370
    30
100
AcDbLine
 10
161.5470129577482
 20
88.98803418680677
 30
0.0
 11
161.6354961038156
 21
86.62848362500901
 31
0.0
  0
LINE
  5
36F
330
1F
100
AcDbEntity
  8
101
  6
Continuous
 62
     7
370
    30
100
AcDbLine
 10
161.6354961038156
 20
86.62848362500901
 30
0.0
 11
161.3700466656134
 21
83.73803418680677
 31
0.0
  0
LINE
  5
370
330
1F
100
AcDbEntity
  8
101
  6
Continuous
 62
     7
370
    30
100
AcDbLine
 10
161.3700466656134
 20
83.73803418680677
 30
0.0
 11
160.6916758790965
 21
81.7029218272562
 31
0.0
  0
LINE
  5
371
330
1F
100
AcDbEntity
  8
101
  6
Continuous
 62
     7
370
    30
100
AcDbLine
 10
160.6916758790965
 20
81.7029218272562
 30
0.0
 11
159.7478556543774
 21
80.58213531040226
 31
0.0
  0
LINE
  5
372
330
1F
100
AcDbEntity
  8
101
  6
Continuous
 62
     7
370
    30
100
AcDbLine
 10
159.7478556543774
 20
80.58213531040226
 30
0.0
 11
158.5090916094336
 21
80.16921396208767
 31
0.0
  0
LINE
  5
373
330
1F
100
AcDbEntity
  8
101
  6
Continuous
 62
     7
370
    30
100
AcDbLine
 10
158.5090916094336
 20
80.16921396208767
 30
0.0
 11
157.3883050925797
 21
80.37567463624498
 31
0.0
  0
LINE
  5
374
330
1F
100
AcDbEntity
  8
101
  6
Continuous
 62
     7
370
    30
100
AcDbLine
 10
157.3883050925797
 20
80.37567463624498
 30
0.0
 11
156.6509455420179
 21
81.05404542276182
 31
0.0
  0
LINE
  5
375
330
1F
100
AcDbEntity
  8
101
  6
Continuous
 62
     7
370
    30
100
AcDbLine
 10
158.3026309352763
 20
82.91219149017755
 30
0.0
 11
158.9515073397707
 21
84.03297800703149
 31
0.0
  0
LINE
  5
376
330
1F
100
AcDbEntity
  8
101
  6
Continuous
 62
     7
370
    30
100
AcDbLine
 10
158.9515073397707
 20
84.03297800703149
 30
0.0
 11
159.6888668903325
 21
85.41921396208767
 31
0.0
  0
LINE
  5
377
330
1F
100
AcDbEntity
  8
101
  6
Continuous
 62
     7
370
    30
100
AcDbLine
 10
159.6888668903325
 20
85.41921396208767
 30
0.0
 11
159.8068444184224
 21
87.36584317557083
 31
0.0
  0
LINE
  5
378
330
1F
100
AcDbEntity
  8
101
  6
Continuous
 62
     7
370
    30
100
AcDbLine
 10
159.8068444184224
 20
87.36584317557083
 30
0.0
 11
159.65937250831
 21
88.89955104073937
 31
0.0
  0
LINE
  5
379
330
1F
100
AcDbEntity
  8
101
  6
Continuous
 62
     7
370
    30
100
AcDbLine
 10
159.65937250831
 20
88.89955104073937
 30
0.0
 11
159.1284736319055
 21
89.99084317557083
 31
0.0
  0
LINE
  5
37A
330
1F
100
AcDbEntity
  8
101
  6
Continuous
 62
     7
370
    30
100
AcDbLine
 10
176.1059123056276
 20
110.1769886350774
 30
0.0
 11
178.9192039689841
 21
110.312472389054
 31
0.0
  0
LINE
  5
37B
330
1F
100
AcDbEntity
  8
101
  6
Continuous
 62
     7
370
    30
100
AcDbLine
 10
178.9192039689841
 20
110.312472389054
 30
0.0
 11
182.6354961038156
 21
109.2506746362449
 31
0.0
  0
LINE
  5
37C
330
1F
100
AcDbEntity
  8
101
  6
Continuous
 62
     7
370
    30
100
AcDbLine
 10
182.6354961038156
 20
109.2506746362449
 30
0.0
 11
185.9978556543774
 21
106.3012364339978
 31
0.0
  0
LINE
  5
37D
330
1F
100
AcDbEntity
  8
101
  6
Continuous
 62
     7
370
    30
100
AcDbLine
 10
185.9978556543774
 20
106.3012364339978
 30
0.0
 11
188.41639498022
 21
102.8208993553461
 31
0.0
  0
LINE
  5
37E
330
1F
100
AcDbEntity
  8
101
  6
Continuous
 62
     7
370
    30
100
AcDbLine
 10
188.41639498022
 20
102.8208993553461
 30
0.0
 11
190.8939230701077
 21
97.15797800703139
 31
0.0
  0
LINE
  5
37F
330
1F
100
AcDbEntity
  8
101
  6
Continuous
 62
     7
370
    30
100
AcDbLine
 10
190.8939230701077
 20
97.15797800703139
 30
0.0
 11
192.1326871150516
 21
91.31809036658197
 31
0.0
  0
LINE
  5
380
330
1F
100
AcDbEntity
  8
101
  6
Continuous
 62
     7
370
    30
100
AcDbLine
 10
192.1326871150516
 20
91.31809036658197
 30
0.0
 11
192.4276309352763
 21
85.59618025422242
 31
0.0
  0
LINE
  5
381
330
1F
100
AcDbEntity
  8
101
  6
Continuous
 62
     7
370
    30
100
AcDbLine
 10
192.4276309352763
 20
85.59618025422242
 30
0.0
 11
191.3658331824673
 21
79.99224766995275
 31
0.0
  0
LINE
  5
382
330
1F
100
AcDbEntity
  8
101
  6
Continuous
 62
     7
370
    30
100
AcDbLine
 10
191.3658331824673
 20
79.99224766995275
 30
0.0
 11
190.0090916094337
 21
74.03438250141349
 31
0.0
  0
LINE
  5
383
330
1F
100
AcDbEntity
  8
101
  6
Continuous
 62
     7
370
    30
100
AcDbLine
 10
190.0090916094337
 20
74.03438250141349
 30
0.0
 11
187.8854961038157
 21
69.43325890590785
 31
0.0
  0
LINE
  5
384
330
1F
100
AcDbEntity
  8
101
  6
Continuous
 62
     7
370
    30
100
AcDbLine
 10
187.8854961038157
 20
69.43325890590785
 30
0.0
 11
186.5582489128045
 21
67.36865216433483
 31
0.0
  0
LINE
  5
385
330
1F
100
AcDbEntity
  8
101
  6
Continuous
 62
     7
370
    30
100
AcDbLine
 10
186.5582489128045
 20
67.36865216433483
 30
0.0
 11
184.5526309352764
 21
65.21556227669438
 31
0.0
  0
LINE
  5
386
330
1F
100
AcDbEntity
  8
101
  6
Continuous
 62
     7
370
    30
100
AcDbLine
 10
184.5526309352764
 20
65.21556227669438
 30
0.0
 11
182.9304399240405
 21
63.85882070366065
 31
0.0
  0
LINE
  5
387
330
1F
100
AcDbEntity
  8
101
  6
Continuous
 62
     7
370
    30
100
AcDbLine
 10
182.9304399240405
 20
63.85882070366065
 30
0.0
 11
180.6298781262876
 21
62.53157351264943
 31
0.0
  0
LINE
  5
388
330
1F
100
AcDbEntity
  8
101
  6
Continuous
 62
     7
370
    30
100
AcDbLine
 10
180.6298781262876
 20
62.53157351264943
 30
0.0
 11
179.4807079844687
 21
62.14742833641758
 31
0.0
  0
LINE
  5
389
330
1F
100
AcDbEntity
  8
101
  6
Continuous
 62
     7
370
    30
100
AcDbLine
 10
191.5722938566247
 20
75.80404542276179
 30
0.0
 11
190.5694848678607
 21
72.02876452388537
 31
0.0
  0
LINE
  5
38A
330
1F
100
AcDbEntity
  8
101
  6
Continuous
 62
     7
370
    30
100
AcDbLine
 10
190.5694848678607
 20
72.02876452388537
 30
0.0
 11
188.5048781262876
 21
68.78438250141349
 31
0.0
  0
LINE
  5
38B
330
1F
100
AcDbEntity
  8
101
  6
Continuous
 62
     7
370
    30
100
AcDbLine
 10
188.5048781262876
 20
68.78438250141349
 30
0.0
 11
186.6762264408944
 21
66.2478656474809
 31
0.0
  0
LINE
  5
38C
330
1F
100
AcDbEntity
  8
101
  6
Continuous
 62
     7
370
    30
100
AcDbLine
 10
186.6762264408944
 20
66.2478656474809
 30
0.0
 11
184.5526309352764
 21
64.2422476699528
 31
0.0
  0
LINE
  5
38D
330
1F
100
AcDbEntity
  8
101
  6
Continuous
 62
     7
370
    30
100
AcDbLine
 10
184.4641477892089
 20
70.96696677107641
 30
0.0
 11
184.4641477892089
 21
71.7043263216382
 31
0.0
  0
LINE
  5
38E
330
1F
100
AcDbEntity
  8
101
  6
Continuous
 62
     7
370
    30
100
AcDbLine
 10
184.4641477892089
 20
71.7043263216382
 30
0.0
 11
184.7001028453888
 21
72.38269710815504
 31
0.0
  0
LINE
  5
38F
330
1F
100
AcDbEntity
  8
101
  6
Continuous
 62
     7
370
    30
100
AcDbLine
 10
184.7001028453888
 20
72.38269710815504
 30
0.0
 11
185.0245410476359
 21
73.12005665871686
 31
0.0
  0
LINE
  5
390
330
1F
100
AcDbEntity
  8
101
  6
Continuous
 62
     7
370
    30
100
AcDbLine
 10
185.0245410476359
 20
73.12005665871686
 30
0.0
 11
185.7619005981977
 21
73.3855060969191
 31
0.0
  0
LINE
  5
391
330
1F
100
AcDbEntity
  8
101
  6
Continuous
 62
     7
370
    30
100
AcDbLine
 10
185.7619005981977
 20
73.3855060969191
 30
0.0
 11
186.3517882386471
 21
73.17904542276179
 31
0.0
  0
LINE
  5
392
330
1F
100
AcDbEntity
  8
101
  6
Continuous
 62
     7
370
    30
100
AcDbLine
 10
186.3517882386471
 20
73.17904542276179
 30
0.0
 11
186.4107770026921
 21
72.58915778231236
 31
0.0
  0
LINE
  5
393
330
1F
100
AcDbEntity
  8
101
  6
Continuous
 62
     7
370
    30
100
AcDbLine
 10
186.4107770026921
 20
72.58915778231236
 30
0.0
 11
186.0863388004449
 21
71.5863487935483
 31
0.0
  0
LINE
  5
394
330
1F
100
AcDbEntity
  8
101
  6
Continuous
 62
     7
370
    30
100
AcDbLine
 10
186.0863388004449
 20
71.5863487935483
 30
0.0
 11
185.3784736319056
 21
70.90797800703146
 31
0.0
  0
LINE
  5
395
330
1F
100
AcDbEntity
  8
101
  6
Continuous
 62
     7
370
    30
100
AcDbLine
 10
185.3784736319056
 20
70.90797800703146
 30
0.0
 11
184.4641477892089
 21
70.96696677107641
 31
0.0
  0
LINE
  5
396
330
1F
100
AcDbEntity
  8
101
  6
Continuous
 62
     7
370
    30
100
AcDbLine
 10
186.0890320513645
 20
73.2710100883107
 30
0.0
 11
185.7029118341528
 21
72.88410160253707
 31
0.0
  0
LINE
  5
397
330
1F
100
AcDbEntity
  8
101
  6
Continuous
 62
     7
370
    30
100
AcDbLine
 10
185.7029118341528
 20
72.88410160253707
 30
0.0
 11
185.3489792498831
 21
72.47118025422247
 31
0.0
  0
LINE
  5
398
330
1F
100
AcDbEntity
  8
101
  6
Continuous
 62
     7
370
    30
100
AcDbLine
 10
185.3489792498831
 20
72.47118025422247
 30
0.0
 11
185.1720129577483
 21
71.88129261377304
 31
0.0
  0
LINE
  5
399
330
1F
100
AcDbEntity
  8
101
  6
Continuous
 62
     7
370
    30
100
AcDbLine
 10
185.1720129577483
 20
71.88129261377304
 30
0.0
 11
185.1130241937033
 21
71.46837126545844
 31
0.0
  0
LINE
  5
39A
330
1F
100
AcDbEntity
  8
101
  6
Continuous
 62
     7
370
    30
100
AcDbLine
 10
185.1130241937033
 20
71.46837126545844
 30
0.0
 11
185.3784736319056
 21
70.90797800703146
 31
0.0
  0
LINE
  5
39B
330
1F
100
AcDbEntity
  8
101
  6
Continuous
 62
     7
370
    30
100
AcDbLine
 10
185.8798781262877
 20
102.7766577823123
 30
0.0
 11
185.4374623959506
 21
102.4227251980426
 31
0.0
  0
LINE
  5
39C
330
1F
100
AcDbEntity
  8
101
  6
Continuous
 62
     7
370
    30
100
AcDbLine
 10
185.4374623959506
 20
102.4227251980426
 30
0.0
 11
185.2310017217933
 21
101.9655622766943
 31
0.0
  0
LINE
  5
39D
330
1F
100
AcDbEntity
  8
101
  6
Continuous
 62
     7
370
    30
100
AcDbLine
 10
185.2310017217933
 20
101.9655622766943
 30
0.0
 11
185.2162545307821
 21
101.5968825014134
 31
0.0
  0
LINE
  5
39E
330
1F
100
AcDbEntity
  8
101
  6
Continuous
 62
     7
370
    30
100
AcDbLine
 10
185.2162545307821
 20
101.5968825014134
 30
0.0
 11
185.2162545307821
 21
101.1544667710763
 31
0.0
  0
LINE
  5
39F
330
1F
100
AcDbEntity
  8
101
  6
Continuous
 62
     7
370
    30
100
AcDbLine
 10
185.2162545307821
 20
101.1544667710763
 30
0.0
 11
185.2604961038157
 21
100.5793263216381
 31
0.0
  0
LINE
  5
3A0
330
1F
100
AcDbEntity
  8
101
  6
Continuous
 62
     7
370
    30
100
AcDbLine
 10
185.2604961038157
 20
100.5793263216381
 30
0.0
 11
185.5996814970742
 21
100.3581184564696
 31
0.0
  0
LINE
  5
3A1
330
1F
100
AcDbEntity
  8
101
  6
Continuous
 62
     7
370
    30
100
AcDbLine
 10
185.5996814970742
 20
100.3581184564696
 30
0.0
 11
186.2338107105573
 21
100.1369105913011
 31
0.0
  0
LINE
  5
3A2
330
1F
100
AcDbEntity
  8
101
  6
Continuous
 62
     7
370
    30
100
AcDbLine
 10
186.2338107105573
 20
100.1369105913011
 30
0.0
 11
186.5582489128045
 21
100.3286240744471
 31
0.0
  0
LINE
  5
3A3
330
1F
100
AcDbEntity
  8
101
  6
Continuous
 62
     7
370
    30
100
AcDbLine
 10
186.5582489128045
 20
100.3286240744471
 30
0.0
 11
186.838445542018
 21
100.8742701418629
 31
0.0
  0
LINE
  5
3A4
330
1F
100
AcDbEntity
  8
101
  6
Continuous
 62
     7
370
    30
100
AcDbLine
 10
186.838445542018
 20
100.8742701418629
 30
0.0
 11
186.838445542018
 21
101.3756746362449
 31
0.0
  0
LINE
  5
3A5
330
1F
100
AcDbEntity
  8
101
  6
Continuous
 62
     7
370
    30
100
AcDbLine
 10
186.838445542018
 20
101.3756746362449
 30
0.0
 11
186.838445542018
 21
101.7443544115258
 31
0.0
  0
LINE
  5
3A6
330
1F
100
AcDbEntity
  8
101
  6
Continuous
 62
     7
370
    30
100
AcDbLine
 10
186.838445542018
 20
101.7443544115258
 30
0.0
 11
186.7942039689843
 21
102.2015173328741
 31
0.0
  0
LINE
  5
3A7
330
1F
100
AcDbEntity
  8
101
  6
Continuous
 62
     7
370
    30
100
AcDbLine
 10
186.7942039689843
 20
102.2015173328741
 30
0.0
 11
186.6319848678607
 21
102.4669667710763
 31
0.0
  0
LINE
  5
3A8
330
1F
100
AcDbEntity
  8
101
  6
Continuous
 62
     7
370
    30
100
AcDbLine
 10
186.6319848678607
 20
102.4669667710763
 30
0.0
 11
186.2927994746022
 21
102.7176690182674
 31
0.0
  0
LINE
  5
3A9
330
1F
100
AcDbEntity
  8
101
  6
Continuous
 62
     7
370
    30
100
AcDbLine
 10
186.2927994746022
 20
102.7176690182674
 30
0.0
 11
185.8798781262877
 21
102.7766577823123
 31
0.0
  0
LINE
  5
3AA
330
1F
100
AcDbEntity
  8
101
  6
Continuous
 62
     7
370
    30
100
AcDbLine
 10
186.365778238922
 20
102.6637281924659
 30
0.0
 11
185.9683612723551
 21
102.4079780070314
 31
0.0
  0
LINE
  5
3AB
330
1F
100
AcDbEntity
  8
101
  6
Continuous
 62
     7
370
    30
100
AcDbLine
 10
185.9683612723551
 20
102.4079780070314
 30
0.0
 11
185.9388668903326
 21
101.9065735126494
 31
0.0
  0
LINE
  5
3AC
330
1F
100
AcDbEntity
  8
101
  6
Continuous
 62
     7
370
    30
100
AcDbLine
 10
185.9388668903326
 20
101.9065735126494
 30
0.0
 11
185.8503837442652
 21
101.4936521643348
 31
0.0
  0
LINE
  5
3AD
330
1F
100
AcDbEntity
  8
101
  6
Continuous
 62
     7
370
    30
100
AcDbLine
 10
185.8503837442652
 20
101.4936521643348
 30
0.0
 11
185.8503837442652
 21
101.0217420519752
 31
0.0
  0
LINE
  5
3AE
330
1F
100
AcDbEntity
  8
101
  6
Continuous
 62
     7
370
    30
100
AcDbLine
 10
185.8503837442652
 20
101.0217420519752
 30
0.0
 11
185.8651309352765
 21
100.6678094677056
 31
0.0
  0
LINE
  5
3AF
330
1F
100
AcDbEntity
  8
101
  6
Continuous
 62
     7
370
    30
100
AcDbLine
 10
185.8651309352765
 20
100.6678094677056
 30
0.0
 11
186.0610609489286
 21
100.1971721360553
 31
0.0
  0
LINE
  5
3B0
330
1F
100
AcDbEntity
  8
1
  6
Continuous
 62
     7
370
    30
100
AcDbLine
 10
157.3212976539588
 20
81.97122434017588
 30
0.0
 11
158.0844194238755
 21
82.50821117023368
 31
0.0
  0
LINE
  5
3B1
330
1F
100
AcDbEntity
  8
1
  6
Continuous
 62
     7
370
    30
100
AcDbLine
 10
158.0844194238755
 20
82.50821117023368
 30
0.0
 11
158.3026309352763
 21
82.91219149017755
 31
0.0
  0
LINE
  5
3B2
330
1F
100
AcDbEntity
  8
1
  6
Continuous
 62
     7
370
    30
100
AcDbLine
 10
157.7278392123143
 20
91.93756238298329
 30
0.0
 11
158.1752789014334
 21
91.459246368448
 31
0.0
  0
LINE
  5
3B3
330
1F
100
AcDbEntity
  8
1
  6
Continuous
 62
     7
370
    30
100
AcDbLine
 10
158.1752789014334
 20
91.459246368448
 30
0.0
 11
158.4873215516326
 21
91.07745300820427
 31
0.0
  0
LINE
  5
3B4
330
1F
100
AcDbEntity
  8
1
  6
Continuous
 62
     7
370
    30
100
AcDbLine
 10
158.4873215516326
 20
91.07745300820427
 30
0.0
 11
158.7442978517967
 21
90.62958002791835
 31
0.0
  0
LINE
  5
3B5
330
1F
100
AcDbEntity
  8
1
  6
Continuous
 62
     7
370
    30
100
AcDbLine
 10
158.7442978517967
 20
90.62958002791835
 30
0.0
 11
159.1284736319055
 21
89.99084317557083
 31
0.0
  0
LINE
  5
3B6
330
1F
100
AcDbEntity
  8
101
  6
Continuous
 62
     7
370
    30
100
AcDbLine
 10
156.3707489128041
 20
92.46837126545833
 30
0.0
 11
155.9098504187864
 21
91.8922481479362
 31
0.0
  0
LINE
  5
3B7
330
1F
100
AcDbEntity
  8
101
  6
Continuous
 62
     7
370
    30
100
AcDbLine
 10
156.7432527912667
 20
91.92385875326042
 30
0.0
 11
156.7984174521303
 21
91.99646115309892
 31
0.0
  0
LINE
  5
3B8
330
1F
100
AcDbEntity
  8
101
  6
Continuous
 62
     7
370
    30
100
AcDbLine
 10
158.1846534071864
 20
92.05544991714385
 30
0.0
 11
157.7278392123143
 21
91.93756238298329
 31
0.0
  0
LINE
  5
3B9
330
1F
100
AcDbEntity
  8
101
  6
Continuous
 62
     7
370
    30
100
AcDbLine
 10
155.6056138833466
 20
81.95832446220136
 30
0.0
 11
156.1937826206693
 21
80.81809036658197
 31
0.0
  0
LINE
  5
3BA
330
1F
100
AcDbEntity
  8
101
  6
Continuous
 62
     7
370
    30
100
AcDbLine
 10
156.6886531109606
 20
81.96646761428867
 30
0.0
 11
157.1523500363999
 21
81.52595553512137
 31
0.0
  0
MTEXT
  5
3BB
330
1F
100
AcDbEntity
  8
1
  6
DOT
 62
     7
370
     9
100
AcDbMText
 10
47.07113103477133
 20
321.9184822922098
 30
0.0
 40
25.0
 41
136.4219270566463
 46
25.0
 71
     7
 72
     1
  1
{\fＭＳ ゴシック;\W0.714286;（RQ-FR-B）}
 73
     1
 44
1.0
  0
MTEXT
  5
3BC
330
1F
100
AcDbEntity
  8
100
  6
Continuous
 62
     7
370
     9
100
AcDbMText
 10
-8.815965739424342
 20
288.8942887438214
 30
0.0
 40
25.0
 41
316.7495885515506
 46
25.0
 71
     7
 72
     1
  1
{\fＭＳ ゴシック;\W0.714286;ＲＱフランジブラック}
 73
     1
 44
1.0
  0
ENDSEC
  0
SECTION
  2
OBJECTS
  0
DICTIONARY
  5
C
330
0
100
AcDbDictionary
281
     1
  3
ACAD_DETAILVIEWSTYLE
350
3C4
  3
ACAD_GROUP
350
D
  3
ACAD_LAYOUT
350
1A
  3
ACAD_MATERIAL
350
43
  3
ACAD_MLEADERSTYLE
350
6B
  3
ACAD_MLINESTYLE
350
17
  3
ACAD_PLOTSETTINGS
350
19
  3
ACAD_PLOTSTYLENAME
350
E
  3
ACAD_SCALELIST
350
47
  3
ACAD_SECTIONVIEWSTYLE
350
3C5
  3
ACAD_TABLESTYLE
350
69
  3
ACAD_VISUALSTYLE
350
2A
  3
ACDB_RECOMPOSE_DATA
350
3C1
  3
AcDbVariableDictionary
350
3BD
  0
SUN
  5
6D
330
29
100
AcDbSun
 90
        1
290
     0
 63
     7
421
 16777215
 40
1.0
291
     1
 91
  2455826
 92
 54000000
292
     0
 70
     2
 71
   256
280
     1
  0
DICTIONARY
  5
3C4
102
{ACAD_REACTORS
330
C
102
}
330
C
100
AcDbDictionary
281
     1
  0
DICTIONARY
  5
D
102
{ACAD_REACTORS
330
C
102
}
330
C
100
AcDbDictionary
281
     1
  0
DICTIONARY
  5
1A
102
{ACAD_REACTORS
330
C
102
}
330
C
100
AcDbDictionary
281
     1
  3
Layout1
350
1E
  3
Layout2
350
26
  3
Model
350
22
  0
DICTIONARY
  5
43
102
{ACAD_REACTORS
330
C
102
}
330
C
100
AcDbDictionary
281
     1
  3
ByBlock
350
45
  3
ByLayer
350
44
  3
Global
350
46
  0
DICTIONARY
  5
6B
102
{ACAD_REACTORS
330
C
102
}
330
C
100
AcDbDictionary
281
     1
  3
Standard
350
6C
  0
DICTIONARY
  5
17
102
{ACAD_REACTORS
330
C
102
}
330
C
100
AcDbDictionary
281
     1
  3
Standard
350
18
  0
DICTIONARY
  5
19
102
{ACAD_REACTORS
330
C
102
}
330
C
100
AcDbDictionary
281
     1
  0
ACDBDICTIONARYWDFLT
  5
E
102
{ACAD_REACTORS
330
C
102
}
330
C
100
AcDbDictionary
281
     1
  3
Normal
350
F
100
AcDbDictionaryWithDefault
340
F
  0
DICTIONARY
  5
47
102
{ACAD_REACTORS
330
C
102
}
330
C
100
AcDbDictionary
281
     1
  3
A0
350
48
  3
A1
350
49
  3
A2
350
4A
  3
A3
350
4B
  3
A4
350
4C
  3
A5
350
4D
  3
A6
350
4E
  3
A7
350
4F
  3
A8
350
50
  3
A9
350
51
  3
B0
350
52
  3
B1
350
53
  3
B2
350
54
  3
B3
350
55
  3
B4
350
56
  3
B5
350
57
  3
B6
350
58
  3
B7
350
59
  3
B8
350
5A
  3
B9
350
5B
  3
C0
350
5C
  3
C1
350
5D
  3
C2
350
5E
  3
C3
350
5F
  3
C4
350
60
  3
C5
350
61
  3
C6
350
62
  3
C7
350
63
  3
C8
350
64
  3
C9
350
65
  3
D0
350
66
  3
D1
350
67
  3
D2
350
68
  0
DICTIONARY
  5
3C5
102
{ACAD_REACTORS
330
C
102
}
330
C
100
AcDbDictionary
281
     1
  0
DICTIONARY
  5
69
102
{ACAD_REACTORS
330
C
102
}
330
C
100
AcDbDictionary
281
     1
  3
Standard
350
6A
  0
DICTIONARY
  5
2A
102
{ACAD_REACTORS
330
C
102
}
330
C
100
AcDbDictionary
281
     1
  3
2dWireframe
350
2F
  3
Basic
350
32
  3
Brighten
350
36
  3
ColorChange
350
3A
  3
Conceptual
350
34
  3
Dim
350
35
  3
EdgeColorOff
350
3D
  3
Facepattern
350
39
  3
Flat
350
2B
  3
FlatWithEdges
350
2C
  3
Gouraud
350
2D
  3
GouraudWithEdges
350
2E
  3
Hidden
350
31
  3
JitterOff
350
3B
  3
Linepattern
350
38
  3
OverhangOff
350
3C
  3
Realistic
350
33
  3
Shaded
350
42
  3
Shaded with edges
350
41
  3
Shades of Gray
350
3E
  3
Sketchy
350
3F
  3
Thicken
350
37
  3
Wireframe
350
30
  3
X-Ray
350
40
  0
XRECORD
  5
3C1
102
{ACAD_REACTORS
330
C
102
}
330
C
100
AcDbXrecord
280
     1
 90
        1
330
6A
  0
DICTIONARY
  5
3BD
102
{ACAD_REACTORS
330
C
102
}
330
C
100
AcDbDictionary
281
     1
  3
CANNOSCALE
350
3BE
  3
CMLEADERSTYLE
350
3C3
  3
CTABLESTYLE
350
3C2
  0
LAYOUT
  5
1E
102
{ACAD_REACTORS
330
1A
102
}
330
1A
100
AcDbPlotSettings
  1

  2
none_device
  4

  6

 40
0.0
 41
0.0
 42
0.0
 43
0.0
 44
0.0
 45
0.0
 46
0.0
 47
0.0
 48
0.0
 49
0.0
140
0.0
141
0.0
142
1.0
143
1.0
 70
   688
 72
     0
 73
     0
 74
     5
  7

 75
    16
 76
     0
 77
     2
 78
   300
147
1.0
148
0.0
149
0.0
100
AcDbLayout
  1
Layout1
 70
     1
 71
     1
 10
0.0
 20
0.0
 11
297.0
 21
210.0
 12
0.0
 22
0.0
 32
0.0
 14
0.0
 24
0.0
 34
0.0
 15
297.0
 25
210.0
 35
0.0
146
0.0
 13
0.0
 23
0.0
 33
0.0
 16
1.0
 26
0.0
 36
0.0
 17
0.0
 27
1.0
 37
0.0
 76
     0
330
1B
  0
LAYOUT
  5
26
102
{ACAD_REACTORS
330
1A
102
}
330
1A
100
AcDbPlotSettings
  1

  2
none_device
  4

  6

 40
0.0
 41
0.0
 42
0.0
 43
0.0
 44
0.0
 45
0.0
 46
0.0
 47
0.0
 48
0.0
 49
0.0
140
0.0
141
0.0
142
1.0
143
1.0
 70
   688
 72
     0
 73
     0
 74
     5
  7

 75
    16
 76
     0
 77
     2
 78
   300
147
1.0
148
0.0
149
0.0
100
AcDbLayout
  1
Layout2
 70
     1
 71
     2
 10
0.0
 20
0.0
 11
0.0
 21
0.0
 12
0.0
 22
0.0
 32
0.0
 14
0.0
 24
0.0
 34
0.0
 15
0.0
 25
0.0
 35
0.0
146
0.0
 13
0.0
 23
0.0
 33
0.0
 16
1.0
 26
0.0
 36
0.0
 17
0.0
 27
1.0
 37
0.0
 76
     0
330
23
  0
LAYOUT
  5
22
102
{ACAD_REACTORS
330
1A
102
}
330
1A
100
AcDbPlotSettings
  1

  2
none_device
  4
Letter_(8.50_x_11.00_Inches)
  6

 40
6.35
 41
6.35
 42
6.35000508
 43
6.35000508
 44
215.9
 45
279.4
 46
0.0
 47
0.0
 48
0.0
 49
0.0
140
0.0
141
0.0
142
1.0
143
1.0
 70
  1712
 72
     0
 73
     0
 74
     0
  7

 75
     0
 76
     0
 77
     2
 78
   300
147
1.0
148
0.0
149
0.0
100
AcDbLayout
  1
Model
 70
     1
 71
     0
 10
0.0
 20
0.0
 11
297.0
 21
210.0
 12
0.0
 22
0.0
 32
0.0
 14
-21.51656853181939
 24
-42.88407986305791
 34
0.0
 15
253.4834314681806
 25
346.9184822922098
 35
0.0
146
0.0
 13
0.0
 23
0.0
 33
0.0
 16
1.0
 26
0.0
 36
0.0
 17
0.0
 27
1.0
 37
0.0
 76
     0
330
1F
331
29
  0
MATERIAL
  5
45
102
{ACAD_REACTORS
330
43
102
}
330
43
100
AcDbMaterial
  1
ByBlock
 72
     1
 94
      127
  0
MATERIAL
  5
44
102
{ACAD_REACTORS
330
43
102
}
330
43
100
AcDbMaterial
  1
ByLayer
 72
     1
 94
      127
  0
MATERIAL
  5
46
102
{ACAD_REACTORS
330
43
102
}
330
43
100
AcDbMaterial
  1
Global
 72
     1
 94
      127
  0
MLEADERSTYLE
  5
6C
102
{ACAD_REACTORS
330
6B
102
}
330
6B
100
AcDbMLeaderStyle
179
     2
170
     2
171
     1
172
     0
 90
        2
 40
0.0
 41
0.0
173
     1
 91
-1056964608
340
14
 92
       -2
290
     1
 42
0.09
291
     1
 43
0.36
  3
Standard
341
0
 44
0.18
300

342
11
174
     1
178
     6
175
     1
176
     0
 93
-1056964608
 45
0.18
292
     0
297
     0
 46
0.18
343
0
 94
-1056964608
 47
1.0
 49
1.0
140
1.0
293
     1
141
0.0
294
     1
177
     0
142
1.0
295
     0
296
     0
143
0.125
271
     0
272
     9
273
     9
298
     0
  0
MLINESTYLE
  5
18
102
{ACAD_REACTORS
330
17
102
}
330
17
100
AcDbMlineStyle
  2
Standard
 70
     0
  3

 62
   256
 51
90.0
 52
90.0
 71
     2
 49
0.5
 62
   256
  6
BYLAYER
 49
-0.5
 62
   256
  6
BYLAYER
  0
ACDBPLACEHOLDER
  5
F
102
{ACAD_REACTORS
330
E
102
}
330
E
  0
SCALE
  5
48
102
{ACAD_REACTORS
330
47
102
}
330
47
100
AcDbScale
 70
     0
300
1:1
140
1.0
141
1.0
290
     1
  0
SCALE
  5
49
102
{ACAD_REACTORS
330
47
102
}
330
47
100
AcDbScale
 70
     0
300
1:2
140
1.0
141
2.0
290
     0
  0
SCALE
  5
4A
102
{ACAD_REACTORS
330
47
102
}
330
47
100
AcDbScale
 70
     0
300
1:4
140
1.0
141
4.0
290
     0
  0
SCALE
  5
4B
102
{ACAD_REACTORS
330
47
102
}
330
47
100
AcDbScale
 70
     0
300
1:5
140
1.0
141
5.0
290
     0
  0
SCALE
  5
4C
102
{ACAD_REACTORS
330
47
102
}
330
47
100
AcDbScale
 70
     0
300
1:8
140
1.0
141
8.0
290
     0
  0
SCALE
  5
4D
102
{ACAD_REACTORS
330
47
102
}
330
47
100
AcDbScale
 70
     0
300
1:10
140
1.0
141
10.0
290
     0
  0
SCALE
  5
4E
102
{ACAD_REACTORS
330
47
102
}
330
47
100
AcDbScale
 70
     0
300
1:16
140
1.0
141
16.0
290
     0
  0
SCALE
  5
4F
102
{ACAD_REACTORS
330
47
102
}
330
47
100
AcDbScale
 70
     0
300
1:20
140
1.0
141
20.0
290
     0
  0
SCALE
  5
50
102
{ACAD_REACTORS
330
47
102
}
330
47
100
AcDbScale
 70
     0
300
1:30
140
1.0
141
30.0
290
     0
  0
SCALE
  5
51
102
{ACAD_REACTORS
330
47
102
}
330
47
100
AcDbScale
 70
     0
300
1:40
140
1.0
141
40.0
290
     0
  0
SCALE
  5
52
102
{ACAD_REACTORS
330
47
102
}
330
47
100
AcDbScale
 70
     0
300
1:50
140
1.0
141
50.0
290
     0
  0
SCALE
  5
53
102
{ACAD_REACTORS
330
47
102
}
330
47
100
AcDbScale
 70
     0
300
1:100
140
1.0
141
100.0
290
     0
  0
SCALE
  5
54
102
{ACAD_REACTORS
330
47
102
}
330
47
100
AcDbScale
 70
     0
300
2:1
140
2.0
141
1.0
290
     0
  0
SCALE
  5
55
102
{ACAD_REACTORS
330
47
102
}
330
47
100
AcDbScale
 70
     0
300
4:1
140
4.0
141
1.0
290
     0
  0
SCALE
  5
56
102
{ACAD_REACTORS
330
47
102
}
330
47
100
AcDbScale
 70
     0
300
8:1
140
8.0
141
1.0
290
     0
  0
SCALE
  5
57
102
{ACAD_REACTORS
330
47
102
}
330
47
100
AcDbScale
 70
     0
300
10:1
140
10.0
141
1.0
290
     0
  0
SCALE
  5
58
102
{ACAD_REACTORS
330
47
102
}
330
47
100
AcDbScale
 70
     0
300
100:1
140
100.0
141
1.0
290
     0
  0
SCALE
  5
59
102
{ACAD_REACTORS
330
47
102
}
330
47
100
AcDbScale
 70
     0
300
1/128" = 1'-0"
140
0.0078125
141
12.0
290
     0
  0
SCALE
  5
5A
102
{ACAD_REACTORS
330
47
102
}
330
47
100
AcDbScale
 70
     0
300
1/64" = 1'-0"
140
0.015625
141
12.0
290
     0
  0
SCALE
  5
5B
102
{ACAD_REACTORS
330
47
102
}
330
47
100
AcDbScale
 70
     0
300
1/32" = 1'-0"
140
0.03125
141
12.0
290
     0
  0
SCALE
  5
5C
102
{ACAD_REACTORS
330
47
102
}
330
47
100
AcDbScale
 70
     0
300
1/16" = 1'-0"
140
0.0625
141
12.0
290
     0
  0
SCALE
  5
5D
102
{ACAD_REACTORS
330
47
102
}
330
47
100
AcDbScale
 70
     0
300
3/32" = 1'-0"
140
0.09375
141
12.0
290
     0
  0
SCALE
  5
5E
102
{ACAD_REACTORS
330
47
102
}
330
47
100
AcDbScale
 70
     0
300
1/8" = 1'-0"
140
0.125
141
12.0
290
     0
  0
SCALE
  5
5F
102
{ACAD_REACTORS
330
47
102
}
330
47
100
AcDbScale
 70
     0
300
3/16" = 1'-0"
140
0.1875
141
12.0
290
     0
  0
SCALE
  5
60
102
{ACAD_REACTORS
330
47
102
}
330
47
100
AcDbScale
 70
     0
300
1/4" = 1'-0"
140
0.25
141
12.0
290
     0
  0
SCALE
  5
61
102
{ACAD_REACTORS
330
47
102
}
330
47
100
AcDbScale
 70
     0
300
3/8" = 1'-0"
140
0.375
141
12.0
290
     0
  0
SCALE
  5
62
102
{ACAD_REACTORS
330
47
102
}
330
47
100
AcDbScale
 70
     0
300
1/2" = 1'-0"
140
0.5
141
12.0
290
     0
  0
SCALE
  5
63
102
{ACAD_REACTORS
330
47
102
}
330
47
100
AcDbScale
 70
     0
300
3/4" = 1'-0"
140
0.75
141
12.0
290
     0
  0
SCALE
  5
64
102
{ACAD_REACTORS
330
47
102
}
330
47
100
AcDbScale
 70
     0
300
1" = 1'-0"
140
1.0
141
12.0
290
     0
  0
SCALE
  5
65
102
{ACAD_REACTORS
330
47
102
}
330
47
100
AcDbScale
 70
     0
300
1-1/2" = 1'-0"
140
1.5
141
12.0
290
     0
  0
SCALE
  5
66
102
{ACAD_REACTORS
330
47
102
}
330
47
100
AcDbScale
 70
     0
300
3" = 1'-0"
140
3.0
141
12.0
290
     0
  0
SCALE
  5
67
102
{ACAD_REACTORS
330
47
102
}
330
47
100
AcDbScale
 70
     0
300
6" = 1'-0"
140
6.0
141
12.0
290
     0
  0
SCALE
  5
68
102
{ACAD_REACTORS
330
47
102
}
330
47
100
AcDbScale
 70
     0
300
1'-0" = 1'-0"
140
12.0
141
12.0
290
     0
  0
TABLESTYLE
  5
6A
102
{ACAD_REACTORS
330
69
102
}
102
{ACAD_XDICTIONARY
360
3BF
102
}
330
69
100
AcDbTableStyle
  3
Standard
 70
     0
 71
     0
 40
0.06
 41
0.06
280
     0
281
     0
  7
Standard
140
0.18
170
     2
 62
     0
 63
   257
283
     0
 90
        4
 91
        0
  1

274
    -2
284
     1
 64
     0
275
    -2
285
     1
 65
     0
276
    -2
286
     1
 66
     0
277
    -2
287
     1
 67
     0
278
    -2
288
     1
 68
     0
279
    -2
289
     1
 69
     0
  7
Standard
140
0.25
170
     5
 62
     0
 63
   257
283
     0
 90
        4
 91
        0
  1

274
    -2
284
     1
 64
     0
275
    -2
285
     1
 65
     0
276
    -2
286
     1
 66
     0
277
    -2
287
     1
 67
     0
278
    -2
288
     1
 68
     0
279
    -2
289
     1
 69
     0
  7
Standard
140
0.18
170
     5
 62
     0
 63
   257
283
     0
 90
        4
 91
        0
  1

274
    -2
284
     1
 64
     0
275
    -2
285
     1
 65
     0
276
    -2
286
     1
 66
     0
277
    -2
287
     1
 67
     0
278
    -2
288
     1
 68
     0
279
    -2
289
     1
 69
     0
  0
VISUALSTYLE
  5
2F
102
{ACAD_REACTORS
330
2A
102
}
330
2A
100
AcDbVisualStyle
  2
2dWireframe
 70
     4
177
     3
291
     0
 70
    58
 90
        0
176
     1
 90
        2
176
     1
 90
        0
176
     1
 90
        0
176
     1
 40
0.6
176
     1
 40
30.0
176
     1
 62
     7
420
 16777215
176
     1
 90
        1
176
     1
 90
        4
176
     1
 62
     7
176
     1
 62
   257
176
     1
 90
        1
176
     1
 90
        1
176
     1
 40
1.0
176
     1
 90
        0
176
     1
 62
   257
176
     1
 40
1.0
176
     1
 90
        1
176
     1
 90
        6
176
     1
 90
        2
176
     1
 62
     7
176
     1
 90
        5
176
     1
 90
        0
176
     1
 90
        0
176
     1
290
     0
176
     1
 90
        1
176
     1
 40
0.0
176
     1
 90
        0
176
     1
290
     1
176
     1
290
     1
176
     1
290
     0
176
     1
290
     0
176
     1
290
     0
176
     1
290
     0
176
     1
290
     0
176
     1
290
     0
176
     1
290
     0
176
     1
 90
       50
176
     1
 40
0.0
176
     1
 40
1.0
176
     1
 90
        0
176
     1
 62
    18
420
        0
176
     1
 90
       50
176
     1
 90
        3
176
     1
 62
     5
420
      255
176
     1
290
     0
176
     1
 90
       50
176
     1
 90
       50
176
     1
 90
       50
176
     1
290
     0
176
     1
 90
       50
176
     1
 62
   256
176
     0
 40
1.0
176
     0
 90
        2
176
     1
  1
strokes_ogs.tif
176
     1
290
     0
176
     1
 40
1.0
176
     1
 40
1.0
176
     1
  0
VISUALSTYLE
  5
32
102
{ACAD_REACTORS
330
2A
102
}
330
2A
100
AcDbVisualStyle
  2
Basic
 70
     7
177
     3
291
     1
 70
    58
 90
        1
176
     1
 90
        0
176
     1
 90
        1
176
     1
 90
        0
176
     1
 40
0.6
176
     1
 40
30.0
176
     1
 62
     7
420
 16777215
176
     1
 90
        0
176
     1
 90
        4
176
     1
 62
     7
176
     1
 62
   257
176
     1
 90
        1
176
     1
 90
        1
176
     1
 40
1.0
176
     1
 90
        8
176
     1
 62
     7
176
     1
 40
1.0
176
     1
 90
        1
176
     1
 90
        6
176
     1
 90
        2
176
     1
 62
     7
176
     1
 90
        5
176
     1
 90
        0
176
     1
 90
        0
176
     1
290
     0
176
     1
 90
        1
176
     1
 40
0.0
176
     1
 90
        0
176
     1
290
     0
176
     1
290
     1
176
     1
290
     1
176
     1
290
     0
176
     1
290
     0
176
     1
290
     0
176
     1
290
     0
176
     1
290
     0
176
     1
290
     0
176
     1
 90
       50
176
     1
 40
0.0
176
     1
 40
1.0
176
     1
 90
        0
176
     1
 62
    18
420
        0
176
     1
 90
       50
176
     1
 90
        3
176
     1
 62
     5
420
      255
176
     1
290
     0
176
     1
 90
       50
176
     1
 90
       50
176
     1
 90
       50
176
     1
290
     0
176
     1
 90
       50
176
     1
 62
   256
176
     0
 40
1.0
176
     0
 90
        2
176
     1
  1
strokes_ogs.tif
176
     1
290
     0
176
     1
 40
1.0
176
     1
 40
1.0
176
     1
  0
VISUALSTYLE
  5
36
102
{ACAD_REACTORS
330
2A
102
}
330
2A
100
AcDbVisualStyle
  2
Brighten
 70
    12
177
     3
291
     1
 70
    58
 90
        2
176
     1
 90
        2
176
     1
 90
        0
176
     1
 90
        0
176
     1
 40
0.6
176
     1
 40
30.0
176
     1
 62
     7
420
 16777215
176
     1
 90
        1
176
     1
 90
        4
176
     1
 62
     7
176
     1
 62
   257
176
     1
 90
        1
176
     1
 90
        1
176
     1
 40
1.0
176
     1
 90
        8
176
     1
 62
     7
176
     1
 40
1.0
176
     1
 90
        1
176
     1
 90
        6
176
     1
 90
        2
176
     1
 62
     7
176
     1
 90
        5
176
     1
 90
        0
176
     1
 90
        0
176
     1
290
     0
176
     1
 90
        1
176
     1
 40
50.0
176
     1
 90
        0
176
     1
290
     0
176
     1
290
     1
176
     1
290
     1
176
     1
290
     0
176
     1
290
     0
176
     1
290
     0
176
     1
290
     0
176
     1
290
     0
176
     1
290
     0
176
     1
 90
       50
176
     1
 40
0.0
176
     1
 40
1.0
176
     1
 90
        0
176
     1
 62
    18
420
        0
176
     1
 90
       50
176
     1
 90
        3
176
     1
 62
     5
420
      255
176
     1
290
     0
176
     1
 90
       50
176
     1
 90
       50
176
     1
 90
       50
176
     1
290
     0
176
     1
 90
       50
176
     1
 62
   256
176
     0
 40
1.0
176
     0
 90
        2
176
     1
  1
strokes_ogs.tif
176
     1
290
     0
176
     1
 40
1.0
176
     1
 40
1.0
176
     1
  0
VISUALSTYLE
  5
3A
102
{ACAD_REACTORS
330
2A
102
}
330
2A
100
AcDbVisualStyle
  2
ColorChange
 70
    16
177
     3
291
     1
 70
    58
 90
        2
176
     1
 90
        2
176
     1
 90
        3
176
     1
 90
        0
176
     1
 40
0.6
176
     1
 40
30.0
176
     1
 62
     8
420
  8421504
176
     1
 90
        1
176
     1
 90
        4
176
     1
 62
     7
176
     1
 62
   257
176
     1
 90
        1
176
     1
 90
        1
176
     1
 40
1.0
176
     1
 90
        8
176
     1
 62
     8
420
  8421504
176
     1
 40
1.0
176
     1
 90
        1
176
     1
 90
        6
176
     1
 90
        2
176
     1
 62
     7
176
     1
 90
        5
176
     1
 90
        0
176
     1
 90
        0
176
     1
290
     0
176
     1
 90
        1
176
     1
 40
0.0
176
     1
 90
        0
176
     1
290
     0
176
     1
290
     1
176
     1
290
     1
176
     1
290
     0
176
     1
290
     0
176
     1
290
     0
176
     1
290
     0
176
     1
290
     0
176
     1
290
     0
176
     1
 90
       50
176
     1
 40
0.0
176
     1
 40
1.0
176
     1
 90
        0
176
     1
 62
    18
420
        0
176
     1
 90
       50
176
     1
 90
        3
176
     1
 62
     5
420
      255
176
     1
290
     0
176
     1
 90
       50
176
     1
 90
       50
176
     1
 90
       50
176
     1
290
     0
176
     1
 90
       50
176
     1
 62
   256
176
     0
 40
1.0
176
     0
 90
        2
176
     1
  1
strokes_ogs.tif
176
     1
290
     0
176
     1
 40
1.0
176
     1
 40
1.0
176
     1
  0
VISUALSTYLE
  5
34
102
{ACAD_REACTORS
330
2A
102
}
330
2A
100
AcDbVisualStyle
  2
Conceptual
 70
     9
177
     3
291
     0
 70
    58
 90
        3
176
     1
 90
        2
176
     1
 90
        0
176
     1
 90
        0
176
     1
 40
0.6
176
     1
 40
30.0
176
     1
 62
     7
420
 16777215
176
     1
 90
        2
176
     1
 90
        2
176
     1
 62
     7
176
     1
 62
   257
176
     1
 90
        1
176
     1
 90
        1
176
     1
 40
179.0
176
     1
 90
        8
176
     1
 62
     7
176
     1
 40
1.0
176
     1
 90
        1
176
     1
 90
        6
176
     1
 90
        2
176
     1
 62
     7
176
     1
 90
        3
176
     1
 90
        0
176
     1
 90
        0
176
     1
290
     0
176
     1
 90
        1
176
     1
 40
0.0
176
     1
 90
        0
176
     1
290
     0
176
     1
290
     1
176
     1
290
     1
176
     1
290
     0
176
     1
290
     0
176
     1
290
     0
176
     1
290
     0
176
     1
290
     0
176
     1
290
     0
176
     1
 90
       50
176
     1
 40
0.0
176
     1
 40
1.0
176
     1
 90
        0
176
     1
 62
    18
420
        0
176
     1
 90
       50
176
     1
 90
        3
176
     1
 62
     5
420
      255
176
     1
290
     0
176
     1
 90
       50
176
     1
 90
       50
176
     1
 90
       50
176
     1
290
     0
176
     1
 90
       50
176
     1
 62
   256
176
     0
 40
1.0
176
     0
 90
        2
176
     1
  1
strokes_ogs.tif
176
     1
290
     0
176
     1
 40
1.0
176
     1
 40
1.0
176
     1
  0
VISUALSTYLE
  5
35
102
{ACAD_REACTORS
330
2A
102
}
330
2A
100
AcDbVisualStyle
  2
Dim
 70
    11
177
     3
291
     1
 70
    58
 90
        2
176
     1
 90
        2
176
     1
 90
        0
176
     1
 90
        0
176
     1
 40
0.6
176
     1
 40
30.0
176
     1
 62
     7
420
 16777215
176
     1
 90
        1
176
     1
 90
        4
176
     1
 62
     7
176
     1
 62
   257
176
     1
 90
        1
176
     1
 90
        1
176
     1
 40
1.0
176
     1
 90
        8
176
     1
 62
     7
176
     1
 40
1.0
176
     1
 90
        1
176
     1
 90
        6
176
     1
 90
        2
176
     1
 62
     7
176
     1
 90
        5
176
     1
 90
        0
176
     1
 90
        0
176
     1
290
     0
176
     1
 90
        1
176
     1
 40
-50.0
176
     1
 90
        0
176
     1
290
     0
176
     1
290
     1
176
     1
290
     1
176
     1
290
     0
176
     1
290
     0
176
     1
290
     0
176
     1
290
     0
176
     1
290
     0
176
     1
290
     0
176
     1
 90
       50
176
     1
 40
0.0
176
     1
 40
1.0
176
     1
 90
        0
176
     1
 62
    18
420
        0
176
     1
 90
       50
176
     1
 90
        3
176
     1
 62
     5
420
      255
176
     1
290
     0
176
     1
 90
       50
176
     1
 90
       50
176
     1
 90
       50
176
     1
290
     0
176
     1
 90
       50
176
     1
 62
   256
176
     0
 40
1.0
176
     0
 90
        2
176
     1
  1
strokes_ogs.tif
176
     1
290
     0
176
     1
 40
1.0
176
     1
 40
1.0
176
     1
  0
VISUALSTYLE
  5
3D
102
{ACAD_REACTORS
330
2A
102
}
330
2A
100
AcDbVisualStyle
  2
EdgeColorOff
 70
    22
177
     3
291
     1
 70
    58
 90
        2
176
     0
 90
        2
176
     0
 90
        0
176
     0
 90
        0
176
     0
 40
0.6
176
     0
 40
30.0
176
     0
 62
     7
420
 16777215
176
     0
 90
        1
176
     0
 90
        4
176
     0
 62
     7
176
     0
 62
   257
176
     0
 90
        1
176
     0
 90
        1
176
     0
 40
1.0
176
     0
 90
        8
176
     2
 62
     7
176
     0
 40
1.0
176
     0
 90
        1
176
     0
 90
        6
176
     0
 90
        2
176
     0
 62
     7
176
     0
 90
        5
176
     0
 90
        0
176
     0
 90
        0
176
     0
290
     0
176
     0
 90
        1
176
     0
 40
0.0
176
     0
 90
        0
176
     0
290
     0
176
     0
290
     1
176
     0
290
     1
176
     0
290
     0
176
     0
290
     0
176
     0
290
     0
176
     0
290
     0
176
     0
290
     0
176
     0
290
     0
176
     0
 90
       50
176
     0
 40
0.0
176
     0
 40
1.0
176
     0
 90
        0
176
     0
 62
    18
420
        0
176
     0
 90
       50
176
     0
 90
        3
176
     0
 62
     5
420
      255
176
     0
290
     0
176
     0
 90
       50
176
     0
 90
       50
176
     0
 90
       50
176
     0
290
     0
176
     0
 90
       50
176
     0
 62
   256
176
     0
 40
1.0
176
     0
 90
        2
176
     0
  1
strokes_ogs.tif
176
     0
290
     0
176
     0
 40
1.0
176
     0
 40
1.0
176
     0
  0
VISUALSTYLE
  5
39
102
{ACAD_REACTORS
330
2A
102
}
330
2A
100
AcDbVisualStyle
  2
Facepattern
 70
    15
177
     3
291
     1
 70
    58
 90
        2
176
     1
 90
        2
176
     1
 90
        0
176
     1
 90
        0
176
     1
 40
0.6
176
     1
 40
30.0
176
     1
 62
     7
420
 16777215
176
     1
 90
        1
176
     1
 90
        4
176
     1
 62
     7
176
     1
 62
   257
176
     1
 90
        1
176
     1
 90
        1
176
     1
 40
1.0
176
     1
 90
        8
176
     1
 62
     7
176
     1
 40
1.0
176
     1
 90
        1
176
     1
 90
        6
176
     1
 90
        2
176
     1
 62
     7
176
     1
 90
        5
176
     1
 90
        0
176
     1
 90
        0
176
     1
290
     0
176
     1
 90
        1
176
     1
 40
0.0
176
     1
 90
        0
176
     1
290
     0
176
     1
290
     1
176
     1
290
     1
176
     1
290
     0
176
     1
290
     0
176
     1
290
     0
176
     1
290
     0
176
     1
290
     0
176
     1
290
     0
176
     1
 90
       50
176
     1
 40
0.0
176
     1
 40
1.0
176
     1
 90
        0
176
     1
 62
    18
420
        0
176
     1
 90
       50
176
     1
 90
        3
176
     1
 62
     5
420
      255
176
     1
290
     0
176
     1
 90
       50
176
     1
 90
       50
176
     1
 90
       50
176
     1
290
     0
176
     1
 90
       50
176
     1
 62
   256
176
     0
 40
1.0
176
     0
 90
        2
176
     1
  1
strokes_ogs.tif
176
     1
290
     0
176
     1
 40
1.0
176
     1
 40
1.0
176
     1
  0
VISUALSTYLE
  5
2B
102
{ACAD_REACTORS
330
2A
102
}
330
2A
100
AcDbVisualStyle
  2
Flat
 70
     0
177
     3
291
     1
 70
    58
 90
        2
176
     1
 90
        1
176
     1
 90
        1
176
     1
 90
        2
176
     1
 40
0.6
176
     1
 40
30.0
176
     1
 62
     7
420
 16777215
176
     1
 90
        0
176
     1
 90
        0
176
     1
 62
     7
176
     1
 62
   257
176
     1
 90
        1
176
     1
 90
        1
176
     1
 40
1.0
176
     1
 90
        8
176
     1
 62
     7
176
     1
 40
1.0
176
     1
 90
        1
176
     1
 90
        6
176
     1
 90
        2
176
     1
 62
     7
176
     1
 90
        5
176
     1
 90
        0
176
     1
 90
        0
176
     1
290
     0
176
     1
 90
       13
176
     1
 40
0.0
176
     1
 90
        0
176
     1
290
     0
176
     1
290
     1
176
     1
290
     1
176
     1
290
     0
176
     1
290
     0
176
     1
290
     0
176
     1
290
     0
176
     1
290
     0
176
     1
290
     0
176
     1
 90
       50
176
     1
 40
0.0
176
     1
 40
1.0
176
     1
 90
        0
176
     1
 62
    18
420
        0
176
     1
 90
       50
176
     1
 90
        3
176
     1
 62
     5
420
      255
176
     1
290
     0
176
     1
 90
       50
176
     1
 90
       50
176
     1
 90
       50
176
     1
290
     0
176
     1
 90
       50
176
     1
 62
   256
176
     0
 40
1.0
176
     0
 90
        2
176
     1
  1
strokes_ogs.tif
176
     1
290
     0
176
     1
 40
1.0
176
     1
 40
1.0
176
     1
  0
VISUALSTYLE
  5
2C
102
{ACAD_REACTORS
330
2A
102
}
330
2A
100
AcDbVisualStyle
  2
FlatWithEdges
 70
     1
177
     3
291
     1
 70
    58
 90
        2
176
     1
 90
        1
176
     1
 90
        1
176
     1
 90
        2
176
     1
 40
0.6
176
     1
 40
30.0
176
     1
 62
     7
420
 16777215
176
     1
 90
        1
176
     1
 90
        0
176
     1
 62
     7
176
     1
 62
   257
176
     1
 90
        1
176
     1
 90
        1
176
     1
 40
1.0
176
     1
 90
        0
176
     1
 62
   257
176
     1
 40
1.0
176
     1
 90
        1
176
     1
 90
        6
176
     1
 90
        2
176
     1
 62
     7
176
     1
 90
        5
176
     1
 90
        0
176
     1
 90
        0
176
     1
290
     0
176
     1
 90
       13
176
     1
 40
0.0
176
     1
 90
        0
176
     1
290
     0
176
     1
290
     1
176
     1
290
     1
176
     1
290
     0
176
     1
290
     0
176
     1
290
     0
176
     1
290
     0
176
     1
290
     0
176
     1
290
     0
176
     1
 90
       50
176
     1
 40
0.0
176
     1
 40
1.0
176
     1
 90
        0
176
     1
 62
    18
420
        0
176
     1
 90
       50
176
     1
 90
        3
176
     1
 62
     5
420
      255
176
     1
290
     0
176
     1
 90
       50
176
     1
 90
       50
176
     1
 90
       50
176
     1
290
     0
176
     1
 90
       50
176
     1
 62
   256
176
     0
 40
1.0
176
     0
 90
        2
176
     1
  1
strokes_ogs.tif
176
     1
290
     0
176
     1
 40
1.0
176
     1
 40
1.0
176
     1
  0
VISUALSTYLE
  5
2D
102
{ACAD_REACTORS
330
2A
102
}
330
2A
100
AcDbVisualStyle
  2
Gouraud
 70
     2
177
     3
291
     1
 70
    58
 90
        2
176
     1
 90
        2
176
     1
 90
        1
176
     1
 90
        2
176
     1
 40
0.6
176
     1
 40
30.0
176
     1
 62
     7
420
 16777215
176
     1
 90
        0
176
     1
 90
        0
176
     1
 62
     7
176
     1
 62
   257
176
     1
 90
        1
176
     1
 90
        1
176
     1
 40
1.0
176
     1
 90
        0
176
     1
 62
     7
176
     1
 40
1.0
176
     1
 90
        1
176
     1
 90
        6
176
     1
 90
        2
176
     1
 62
     7
176
     1
 90
        5
176
     1
 90
        0
176
     1
 90
        0
176
     1
290
     0
176
     1
 90
       13
176
     1
 40
0.0
176
     1
 90
        0
176
     1
290
     0
176
     1
290
     1
176
     1
290
     1
176
     1
290
     0
176
     1
290
     0
176
     1
290
     0
176
     1
290
     0
176
     1
290
     0
176
     1
290
     0
176
     1
 90
       50
176
     1
 40
0.0
176
     1
 40
1.0
176
     1
 90
        0
176
     1
 62
    18
420
        0
176
     1
 90
       50
176
     1
 90
        3
176
     1
 62
     5
420
      255
176
     1
290
     0
176
     1
 90
       50
176
     1
 90
       50
176
     1
 90
       50
176
     1
290
     0
176
     1
 90
       50
176
     1
 62
   256
176
     0
 40
1.0
176
     0
 90
        2
176
     1
  1
strokes_ogs.tif
176
     1
290
     0
176
     1
 40
1.0
176
     1
 40
1.0
176
     1
  0
VISUALSTYLE
  5
2E
102
{ACAD_REACTORS
330
2A
102
}
330
2A
100
AcDbVisualStyle
  2
GouraudWithEdges
 70
     3
177
     3
291
     1
 70
    58
 90
        2
176
     1
 90
        2
176
     1
 90
        1
176
     1
 90
        2
176
     1
 40
0.6
176
     1
 40
30.0
176
     1
 62
     7
420
 16777215
176
     1
 90
        1
176
     1
 90
        0
176
     1
 62
     7
176
     1
 62
   257
176
     1
 90
        1
176
     1
 90
        1
176
     1
 40
1.0
176
     1
 90
        0
176
     1
 62
   257
176
     1
 40
1.0
176
     1
 90
        1
176
     1
 90
        6
176
     1
 90
        2
176
     1
 62
     7
176
     1
 90
        5
176
     1
 90
        0
176
     1
 90
        0
176
     1
290
     0
176
     1
 90
       13
176
     1
 40
0.0
176
     1
 90
        0
176
     1
290
     0
176
     1
290
     1
176
     1
290
     1
176
     1
290
     0
176
     1
290
     0
176
     1
290
     0
176
     1
290
     0
176
     1
290
     0
176
     1
290
     0
176
     1
 90
       50
176
     1
 40
0.0
176
     1
 40
1.0
176
     1
 90
        0
176
     1
 62
    18
420
        0
176
     1
 90
       50
176
     1
 90
        3
176
     1
 62
     5
420
      255
176
     1
290
     0
176
     1
 90
       50
176
     1
 90
       50
176
     1
 90
       50
176
     1
290
     0
176
     1
 90
       50
176
     1
 62
   256
176
     0
 40
1.0
176
     0
 90
        2
176
     1
  1
strokes_ogs.tif
176
     1
290
     0
176
     1
 40
1.0
176
     1
 40
1.0
176
     1
  0
VISUALSTYLE
  5
31
102
{ACAD_REACTORS
330
2A
102
}
330
2A
100
AcDbVisualStyle
  2
Hidden
 70
     6
177
     3
291
     0
 70
    58
 90
        1
176
     1
 90
        2
176
     1
 90
        2
176
     1
 90
        0
176
     1
 40
0.6
176
     1
 40
30.0
176
     1
 62
     7
420
 16777215
176
     1
 90
        2
176
     1
 90
        2
176
     1
 62
     7
176
     1
 62
   257
176
     1
 90
        2
176
     1
 90
        1
176
     1
 40
40.0
176
     1
 90
        0
176
     1
 62
   257
176
     1
 40
1.0
176
     1
 90
        1
176
     1
 90
        6
176
     1
 90
        2
176
     1
 62
     7
176
     1
 90
        3
176
     1
 90
        0
176
     1
 90
        0
176
     1
290
     0
176
     1
 90
        1
176
     1
 40
0.0
176
     1
 90
        0
176
     1
290
     0
176
     1
290
     1
176
     1
290
     1
176
     1
290
     0
176
     1
290
     0
176
     1
290
     0
176
     1
290
     0
176
     1
290
     0
176
     1
290
     0
176
     1
 90
       50
176
     1
 40
0.0
176
     1
 40
1.0
176
     1
 90
        0
176
     1
 62
    18
420
        0
176
     1
 90
       50
176
     1
 90
        3
176
     1
 62
     5
420
      255
176
     1
290
     0
176
     1
 90
       50
176
     1
 90
       50
176
     1
 90
       50
176
     1
290
     0
176
     1
 90
       50
176
     1
 62
   256
176
     0
 40
1.0
176
     0
 90
        2
176
     1
  1
strokes_ogs.tif
176
     1
290
     0
176
     1
 40
1.0
176
     1
 40
1.0
176
     1
  0
VISUALSTYLE
  5
3B
102
{ACAD_REACTORS
330
2A
102
}
330
2A
100
AcDbVisualStyle
  2
JitterOff
 70
    20
177
     3
291
     1
 70
    58
 90
        2
176
     0
 90
        2
176
     0
 90
        0
176
     0
 90
        0
176
     0
 40
0.6
176
     0
 40
30.0
176
     0
 62
     7
420
 16777215
176
     0
 90
        1
176
     0
 90
        4
176
     0
 62
     7
176
     0
 62
   257
176
     0
 90
        1
176
     0
 90
        1
176
     0
 40
1.0
176
     0
 90
       10
176
     2
 62
     7
176
     0
 40
1.0
176
     0
 90
        1
176
     0
 90
        6
176
     0
 90
        2
176
     0
 62
     7
176
     0
 90
        5
176
     0
 90
        0
176
     0
 90
        0
176
     0
290
     0
176
     0
 90
        1
176
     0
 40
0.0
176
     0
 90
        0
176
     0
290
     0
176
     0
290
     1
176
     0
290
     1
176
     0
290
     0
176
     0
290
     0
176
     0
290
     0
176
     0
290
     0
176
     0
290
     0
176
     0
290
     0
176
     0
 90
       50
176
     0
 40
0.0
176
     0
 40
1.0
176
     0
 90
        0
176
     0
 62
    18
420
        0
176
     0
 90
       50
176
     0
 90
        3
176
     0
 62
     5
420
      255
176
     0
290
     0
176
     0
 90
       50
176
     0
 90
       50
176
     0
 90
       50
176
     0
290
     0
176
     0
 90
       50
176
     0
 62
   256
176
     0
 40
1.0
176
     0
 90
        2
176
     0
  1
strokes_ogs.tif
176
     0
290
     0
176
     0
 40
1.0
176
     0
 40
1.0
176
     0
  0
VISUALSTYLE
  5
38
102
{ACAD_REACTORS
330
2A
102
}
330
2A
100
AcDbVisualStyle
  2
Linepattern
 70
    14
177
     3
291
     1
 70
    58
 90
        2
176
     1
 90
        2
176
     1
 90
        0
176
     1
 90
        0
176
     1
 40
0.6
176
     1
 40
30.0
176
     1
 62
     7
420
 16777215
176
     1
 90
        1
176
     1
 90
        4
176
     1
 62
     7
176
     1
 62
   257
176
     1
 90
        7
176
     1
 90
        7
176
     1
 40
1.0
176
     1
 90
        8
176
     1
 62
     7
176
     1
 40
1.0
176
     1
 90
        1
176
     1
 90
        6
176
     1
 90
        2
176
     1
 62
     7
176
     1
 90
        5
176
     1
 90
        0
176
     1
 90
        0
176
     1
290
     0
176
     1
 90
        1
176
     1
 40
0.0
176
     1
 90
        0
176
     1
290
     0
176
     1
290
     1
176
     1
290
     1
176
     1
290
     0
176
     1
290
     0
176
     1
290
     0
176
     1
290
     0
176
     1
290
     0
176
     1
290
     0
176
     1
 90
       50
176
     1
 40
0.0
176
     1
 40
1.0
176
     1
 90
        0
176
     1
 62
    18
420
        0
176
     1
 90
       50
176
     1
 90
        3
176
     1
 62
     5
420
      255
176
     1
290
     0
176
     1
 90
       50
176
     1
 90
       50
176
     1
 90
       50
176
     1
290
     0
176
     1
 90
       50
176
     1
 62
   256
176
     0
 40
1.0
176
     0
 90
        2
176
     1
  1
strokes_ogs.tif
176
     1
290
     0
176
     1
 40
1.0
176
     1
 40
1.0
176
     1
  0
VISUALSTYLE
  5
3C
102
{ACAD_REACTORS
330
2A
102
}
330
2A
100
AcDbVisualStyle
  2
OverhangOff
 70
    21
177
     3
291
     1
 70
    58
 90
        2
176
     0
 90
        2
176
     0
 90
        0
176
     0
 90
        0
176
     0
 40
0.6
176
     0
 40
30.0
176
     0
 62
     7
420
 16777215
176
     0
 90
        1
176
     0
 90
        4
176
     0
 62
     7
176
     0
 62
   257
176
     0
 90
        1
176
     0
 90
        1
176
     0
 40
1.0
176
     0
 90
        9
176
     2
 62
     7
176
     0
 40
1.0
176
     0
 90
        1
176
     0
 90
        6
176
     0
 90
        2
176
     0
 62
     7
176
     0
 90
        5
176
     0
 90
        0
176
     0
 90
        0
176
     0
290
     0
176
     0
 90
        1
176
     0
 40
0.0
176
     0
 90
        0
176
     0
290
     0
176
     0
290
     1
176
     0
290
     1
176
     0
290
     0
176
     0
290
     0
176
     0
290
     0
176
     0
290
     0
176
     0
290
     0
176
     0
290
     0
176
     0
 90
       50
176
     0
 40
0.0
176
     0
 40
1.0
176
     0
 90
        0
176
     0
 62
    18
420
        0
176
     0
 90
       50
176
     0
 90
        3
176
     0
 62
     5
420
      255
176
     0
290
     0
176
     0
 90
       50
176
     0
 90
       50
176
     0
 90
       50
176
     0
290
     0
176
     0
 90
       50
176
     0
 62
   256
176
     0
 40
1.0
176
     0
 90
        2
176
     0
  1
strokes_ogs.tif
176
     0
290
     0
176
     0
 40
1.0
176
     0
 40
1.0
176
     0
  0
VISUALSTYLE
  5
33
102
{ACAD_REACTORS
330
2A
102
}
330
2A
100
AcDbVisualStyle
  2
Realistic
 70
     8
177
     3
291
     0
 70
    58
 90
        2
176
     1
 90
        3
176
     1
 90
        0
176
     1
 90
        2
176
     1
 40
0.6
176
     1
 40
30.0
176
     1
 62
     7
420
 16777215
176
     1
 90
        0
176
     1
 90
        0
176
     1
 62
     7
176
     1
 62
   257
176
     1
 90
        1
176
     1
 90
        1
176
     1
 40
1.0
176
     1
 90
        8
176
     1
 62
   257
176
     1
 40
1.0
176
     1
 90
        1
176
     1
 90
        6
176
     1
 90
        2
176
     1
 62
     7
176
     1
 90
        3
176
     1
 90
        0
176
     1
 90
        0
176
     1
290
     0
176
     1
 90
       13
176
     1
 40
0.0
176
     1
 90
        0
176
     1
290
     0
176
     1
290
     1
176
     1
290
     1
176
     1
290
     0
176
     1
290
     0
176
     1
290
     0
176
     1
290
     0
176
     1
290
     0
176
     1
290
     0
176
     1
 90
       50
176
     1
 40
0.0
176
     1
 40
1.0
176
     1
 90
        0
176
     1
 62
    18
420
        0
176
     1
 90
       50
176
     1
 90
        3
176
     1
 62
     5
420
      255
176
     1
290
     0
176
     1
 90
       50
176
     1
 90
       50
176
     1
 90
       50
176
     1
290
     0
176
     1
 90
       50
176
     1
 62
   256
176
     0
 40
1.0
176
     0
 90
        2
176
     1
  1
strokes_ogs.tif
176
     1
290
     0
176
     1
 40
1.0
176
     1
 40
1.0
176
     1
  0
VISUALSTYLE
  5
42
102
{ACAD_REACTORS
330
2A
102
}
330
2A
100
AcDbVisualStyle
  2
Shaded
 70
    27
177
     3
291
     0
 70
    58
 90
        2
176
     1
 90
        2
176
     1
 90
        1
176
     1
 90
        2
176
     1
 40
0.6
176
     1
 40
30.0
176
     1
 62
     7
420
 16777215
176
     1
 90
        0
176
     1
 90
        4
176
     1
 62
     7
176
     1
 62
   257
176
     1
 90
        1
176
     1
 90
        1
176
     1
 40
1.0
176
     1
 90
        8
176
     1
 62
   257
176
     1
 40
1.0
176
     1
 90
        1
176
     1
 90
        6
176
     1
 90
        2
176
     1
 62
     8
420
  7895160
176
     1
 90
        3
176
     1
 90
        0
176
     1
 90
        0
176
     1
290
     0
176
     1
 90
        5
176
     1
 40
0.0
176
     1
 90
        0
176
     1
290
     0
176
     1
290
     1
176
     1
290
     1
176
     1
290
     0
176
     1
290
     0
176
     1
290
     0
176
     1
290
     0
176
     1
290
     0
176
     1
290
     0
176
     1
 90
       50
176
     1
 40
0.0
176
     1
 40
1.0
176
     1
 90
        0
176
     1
 62
    18
420
        0
176
     1
 90
       50
176
     1
 90
        3
176
     1
 62
     5
420
      255
176
     1
290
     0
176
     1
 90
       50
176
     1
 90
       50
176
     1
 90
       50
176
     1
290
     0
176
     1
 90
       50
176
     1
 62
   256
176
     0
 40
1.0
176
     0
 90
        2
176
     1
  1
strokes_ogs.tif
176
     1
290
     0
176
     1
 40
1.0
176
     1
 40
1.0
176
     1
  0
VISUALSTYLE
  5
41
102
{ACAD_REACTORS
330
2A
102
}
330
2A
100
AcDbVisualStyle
  2
Shaded with edges
 70
    26
177
     3
291
     0
 70
    58
 90
        2
176
     1
 90
        2
176
     1
 90
        1
176
     1
 90
        2
176
     1
 40
0.6
176
     1
 40
30.0
176
     1
 62
     7
420
 16777215
176
     1
 90
        1
176
     1
 90
       10
176
     1
 62
     7
176
     1
 62
   257
176
     1
 90
        2
176
     1
 90
        1
176
     1
 40
1.0
176
     1
 90
        8
176
     1
 62
   257
176
     1
 40
1.0
176
     1
 90
        1
176
     1
 90
        6
176
     1
 90
        2
176
     1
 62
     7
176
     1
 90
        3
176
     1
 90
        0
176
     1
 90
        0
176
     1
290
     0
176
     1
 90
        5
176
     1
 40
0.0
176
     1
 90
        0
176
     1
290
     0
176
     1
290
     1
176
     1
290
     1
176
     1
290
     0
176
     1
290
     0
176
     1
290
     0
176
     1
290
     0
176
     1
290
     0
176
     1
290
     0
176
     1
 90
       50
176
     1
 40
0.0
176
     1
 40
1.0
176
     1
 90
        0
176
     1
 62
    18
420
        0
176
     1
 90
       50
176
     1
 90
        3
176
     1
 62
     5
420
      255
176
     1
290
     0
176
     1
 90
       50
176
     1
 90
       50
176
     1
 90
       50
176
     1
290
     0
176
     1
 90
       50
176
     1
 62
   256
176
     0
 40
1.0
176
     0
 90
        2
176
     1
  1
strokes_ogs.tif
176
     1
290
     0
176
     1
 40
1.0
176
     1
 40
1.0
176
     1
  0
VISUALSTYLE
  5
3E
102
{ACAD_REACTORS
330
2A
102
}
330
2A
100
AcDbVisualStyle
  2
Shades of Gray
 70
    23
177
     3
291
     0
 70
    58
 90
        2
176
     1
 90
        2
176
     1
 90
        3
176
     1
 90
        0
176
     1
 40
0.6
176
     1
 40
30.0
176
     1
 62
     7
420
 16777215
176
     1
 90
        2
176
     1
 90
        2
176
     1
 62
     7
176
     1
 62
     7
176
     1
 90
        1
176
     1
 90
        1
176
     1
 40
40.0
176
     1
 90
        8
176
     1
 62
     7
176
     1
 40
1.0
176
     1
 90
        1
176
     1
 90
        6
176
     1
 90
        2
176
     1
 62
     7
176
     1
 90
        3
176
     1
 90
        0
176
     1
 90
        0
176
     1
290
     0
176
     1
 90
        1
176
     1
 40
0.0
176
     1
 90
        0
176
     1
290
     0
176
     1
290
     1
176
     1
290
     1
176
     1
290
     0
176
     1
290
     0
176
     1
290
     0
176
     1
290
     0
176
     1
290
     0
176
     1
290
     0
176
     1
 90
       50
176
     1
 40
0.0
176
     1
 40
1.0
176
     1
 90
        0
176
     1
 62
    18
420
        0
176
     1
 90
       50
176
     1
 90
        3
176
     1
 62
     5
420
      255
176
     1
290
     0
176
     1
 90
       50
176
     1
 90
       50
176
     1
 90
       50
176
     1
290
     0
176
     1
 90
       50
176
     1
 62
   256
176
     0
 40
1.0
176
     0
 90
        2
176
     1
  1
strokes_ogs.tif
176
     1
290
     0
176
     1
 40
1.0
176
     1
 40
1.0
176
     1
  0
VISUALSTYLE
  5
3F
102
{ACAD_REACTORS
330
2A
102
}
330
2A
100
AcDbVisualStyle
  2
Sketchy
 70
    24
177
     3
291
     0
 70
    58
 90
        1
176
     1
 90
        2
176
     1
 90
        2
176
     1
 90
        0
176
     1
 40
0.6
176
     1
 40
30.0
176
     1
 62
     7
420
 16777215
176
     1
 90
        2
176
     1
 90
        2
176
     1
 62
     7
176
     1
 62
     7
176
     1
 90
        1
176
     1
 90
        1
176
     1
 40
40.0
176
     1
 90
       11
176
     1
 62
     7
176
     1
 40
1.0
176
     1
 90
        1
176
     1
 90
        6
176
     1
 90
        2
176
     1
 62
     7
176
     1
 90
        6
176
     1
 90
        0
176
     1
 90
        0
176
     1
290
     0
176
     1
 90
        1
176
     1
 40
0.0
176
     1
 90
        0
176
     1
290
     0
176
     1
290
     1
176
     1
290
     1
176
     1
290
     0
176
     1
290
     0
176
     1
290
     0
176
     1
290
     0
176
     1
290
     0
176
     1
290
     0
176
     1
 90
       50
176
     1
 40
0.0
176
     1
 40
1.0
176
     1
 90
        0
176
     1
 62
    18
420
        0
176
     1
 90
       50
176
     1
 90
        3
176
     1
 62
     5
420
      255
176
     1
290
     0
176
     1
 90
       50
176
     1
 90
       50
176
     1
 90
       50
176
     1
290
     0
176
     1
 90
       50
176
     1
 62
   256
176
     0
 40
1.0
176
     0
 90
        2
176
     1
  1
strokes_ogs.tif
176
     1
290
     0
176
     1
 40
1.0
176
     1
 40
1.0
176
     1
  0
VISUALSTYLE
  5
37
102
{ACAD_REACTORS
330
2A
102
}
330
2A
100
AcDbVisualStyle
  2
Thicken
 70
    13
177
     3
291
     1
 70
    58
 90
        2
176
     1
 90
        2
176
     1
 90
        0
176
     1
 90
        0
176
     1
 40
0.6
176
     1
 40
30.0
176
     1
 62
     7
420
 16777215
176
     1
 90
        1
176
     1
 90
        4
176
     1
 62
     7
176
     1
 62
   257
176
     1
 90
        1
176
     1
 90
        1
176
     1
 40
1.0
176
     1
 90
       12
176
     1
 62
     7
176
     1
 40
1.0
176
     1
 90
        1
176
     1
 90
        6
176
     1
 90
        2
176
     1
 62
     7
176
     1
 90
        5
176
     1
 90
        0
176
     1
 90
        0
176
     1
290
     0
176
     1
 90
        1
176
     1
 40
0.0
176
     1
 90
        0
176
     1
290
     0
176
     1
290
     1
176
     1
290
     1
176
     1
290
     0
176
     1
290
     0
176
     1
290
     0
176
     1
290
     0
176
     1
290
     0
176
     1
290
     0
176
     1
 90
       50
176
     1
 40
0.0
176
     1
 40
1.0
176
     1
 90
        0
176
     1
 62
    18
420
        0
176
     1
 90
       50
176
     1
 90
        3
176
     1
 62
     5
420
      255
176
     1
290
     0
176
     1
 90
       50
176
     1
 90
       50
176
     1
 90
       50
176
     1
290
     0
176
     1
 90
       50
176
     1
 62
   256
176
     0
 40
1.0
176
     0
 90
        2
176
     1
  1
strokes_ogs.tif
176
     1
290
     0
176
     1
 40
1.0
176
     1
 40
1.0
176
     1
  0
VISUALSTYLE
  5
30
102
{ACAD_REACTORS
330
2A
102
}
330
2A
100
AcDbVisualStyle
  2
Wireframe
 70
     5
177
     3
291
     0
 70
    58
 90
        0
176
     1
 90
        2
176
     1
 90
        0
176
     1
 90
        0
176
     1
 40
0.6
176
     1
 40
30.0
176
     1
 62
     7
420
 16777215
176
     1
 90
        1
176
     1
 90
        4
176
     1
 62
     7
176
     1
 62
   257
176
     1
 90
        1
176
     1
 90
        1
176
     1
 40
1.0
176
     1
 90
        0
176
     1
 62
   257
176
     1
 40
1.0
176
     1
 90
        1
176
     1
 90
        6
176
     1
 90
        2
176
     1
 62
     7
176
     1
 90
        3
176
     1
 90
        0
176
     1
 90
        0
176
     1
290
     0
176
     1
 90
        1
176
     1
 40
0.0
176
     1
 90
        0
176
     1
290
     0
176
     1
290
     1
176
     1
290
     1
176
     1
290
     0
176
     1
290
     0
176
     1
290
     0
176
     1
290
     0
176
     1
290
     0
176
     1
290
     0
176
     1
 90
       50
176
     1
 40
0.0
176
     1
 40
1.0
176
     1
 90
        0
176
     1
 62
    18
420
        0
176
     1
 90
       50
176
     1
 90
        3
176
     1
 62
     5
420
      255
176
     1
290
     0
176
     1
 90
       50
176
     1
 90
       50
176
     1
 90
       50
176
     1
290
     0
176
     1
 90
       50
176
     1
 62
   256
176
     0
 40
1.0
176
     0
 90
        2
176
     1
  1
strokes_ogs.tif
176
     1
290
     0
176
     1
 40
1.0
176
     1
 40
1.0
176
     1
  0
VISUALSTYLE
  5
40
102
{ACAD_REACTORS
330
2A
102
}
330
2A
100
AcDbVisualStyle
  2
X-Ray
 70
    25
177
     3
291
     0
 70
    58
 90
        2
176
     1
 90
        2
176
     1
 90
        1
176
     1
 90
        1
176
     1
 40
0.5
176
     1
 40
30.0
176
     1
 62
     7
420
 16777215
176
     1
 90
        1
176
     1
 90
        0
176
     1
 62
     7
176
     1
 62
   257
176
     1
 90
        1
176
     1
 90
        1
176
     1
 40
1.0
176
     1
 90
        8
176
     1
 62
     7
176
     1
 40
1.0
176
     1
 90
        1
176
     1
 90
        6
176
     1
 90
        2
176
     1
 62
     7
176
     1
 90
        3
176
     1
 90
        0
176
     1
 90
        0
176
     1
290
     0
176
     1
 90
       13
176
     1
 40
0.0
176
     1
 90
        0
176
     1
290
     0
176
     1
290
     1
176
     1
290
     1
176
     1
290
     0
176
     1
290
     0
176
     1
290
     0
176
     1
290
     0
176
     1
290
     0
176
     1
290
     0
176
     1
 90
       50
176
     1
 40
0.0
176
     1
 40
1.0
176
     1
 90
        0
176
     1
 62
    18
420
        0
176
     1
 90
       50
176
     1
 90
        3
176
     1
 62
     5
420
      255
176
     1
290
     0
176
     1
 90
       50
176
     1
 90
       50
176
     1
 90
       50
176
     1
290
     0
176
     1
 90
       50
176
     1
 62
   256
176
     0
 40
1.0
176
     0
 90
        2
176
     1
  1
strokes_ogs.tif
176
     1
290
     0
176
     1
 40
1.0
176
     1
 40
1.0
176
     1
  0
DICTIONARYVAR
  5
3BE
102
{ACAD_REACTORS
330
3BD
102
}
330
3BD
100
DictionaryVariables
280
     0
  1
1:1
  0
DICTIONARYVAR
  5
3C3
102
{ACAD_REACTORS
330
3BD
102
}
330
3BD
100
DictionaryVariables
280
     0
  1
Standard
  0
DICTIONARYVAR
  5
3C2
102
{ACAD_REACTORS
330
3BD
102
}
330
3BD
100
DictionaryVariables
280
     0
  1
Standard
  0
DICTIONARY
  5
3BF
330
6A
100
AcDbDictionary
280
     1
281
     1
  3
ACAD_ROUNDTRIP_2008_TABLESTYLE_CELLSTYLEMAP
360
3C0
  0
CELLSTYLEMAP
  5
3C0
102
{ACAD_REACTORS
330
3BF
102
}
330
3BF
100
AcDbCellStyleMap
 90
        3
300
CELLSTYLE
  1
TABLEFORMAT_BEGIN
 90
        5
170
     1
 91
        0
 92
    32768
 62
   257
 93
        1
300
CONTENTFORMAT
  1
CONTENTFORMAT_BEGIN
 90
        0
 91
        0
 92
        4
 93
        0
300

 40
0.0
140
1.0
 94
        5
 62
     0
340
11
144
0.25
309
CONTENTFORMAT_END
171
     1
301
MARGIN
  1
CELLMARGIN_BEGIN
 40
0.06
 40
0.06
 40
0.06
 40
0.06
 40
0.06
 40
0.06
309
CELLMARGIN_END
 94
        6
 95
        1
302
GRIDFORMAT
  1
GRIDFORMAT_BEGIN
 90
        0
 91
        1
 62
     0
 92
       -2
340
14
 93
        0
 40
0.045
309
GRIDFORMAT_END
 95
        2
302
GRIDFORMAT
  1
GRIDFORMAT_BEGIN
 90
        0
 91
        1
 62
     0
 92
       -2
340
14
 93
        0
 40
0.045
309
GRIDFORMAT_END
 95
        4
302
GRIDFORMAT
  1
GRIDFORMAT_BEGIN
 90
        0
 91
        1
 62
     0
 92
       -2
340
14
 93
        0
 40
0.045
309
GRIDFORMAT_END
 95
        8
302
GRIDFORMAT
  1
GRIDFORMAT_BEGIN
 90
        0
 91
        1
 62
     0
 92
       -2
340
14
 93
        0
 40
0.045
309
GRIDFORMAT_END
 95
       16
302
GRIDFORMAT
  1
GRIDFORMAT_BEGIN
 90
        0
 91
        1
 62
     0
 92
       -2
340
14
 93
        0
 40
0.045
309
GRIDFORMAT_END
 95
       32
302
GRIDFORMAT
  1
GRIDFORMAT_BEGIN
 90
        0
 91
        1
 62
     0
 92
       -2
340
14
 93
        0
 40
0.045
309
GRIDFORMAT_END
309
TABLEFORMAT_END
  1
CELLSTYLE_BEGIN
 90
        1
 91
        1
300
_TITLE
309
CELLSTYLE_END
300
CELLSTYLE
  1
TABLEFORMAT_BEGIN
 90
        5
170
     1
 91
        0
 92
        0
 62
   257
 93
        1
300
CONTENTFORMAT
  1
CONTENTFORMAT_BEGIN
 90
        0
 91
        0
 92
        4
 93
        0
300

 40
0.0
140
1.0
 94
        5
 62
     0
340
11
144
0.18
309
CONTENTFORMAT_END
171
     1
301
MARGIN
  1
CELLMARGIN_BEGIN
 40
0.06
 40
0.06
 40
0.06
 40
0.06
 40
0.06
 40
0.06
309
CELLMARGIN_END
 94
        6
 95
        1
302
GRIDFORMAT
  1
GRIDFORMAT_BEGIN
 90
        0
 91
        1
 62
     0
 92
       -2
340
14
 93
        0
 40
0.045
309
GRIDFORMAT_END
 95
        2
302
GRIDFORMAT
  1
GRIDFORMAT_BEGIN
 90
        0
 91
        1
 62
     0
 92
       -2
340
14
 93
        0
 40
0.045
309
GRIDFORMAT_END
 95
        4
302
GRIDFORMAT
  1
GRIDFORMAT_BEGIN
 90
        0
 91
        1
 62
     0
 92
       -2
340
14
 93
        0
 40
0.045
309
GRIDFORMAT_END
 95
        8
302
GRIDFORMAT
  1
GRIDFORMAT_BEGIN
 90
        0
 91
        1
 62
     0
 92
       -2
340
14
 93
        0
 40
0.045
309
GRIDFORMAT_END
 95
       16
302
GRIDFORMAT
  1
GRIDFORMAT_BEGIN
 90
        0
 91
        1
 62
     0
 92
       -2
340
14
 93
        0
 40
0.045
309
GRIDFORMAT_END
 95
       32
302
GRIDFORMAT
  1
GRIDFORMAT_BEGIN
 90
        0
 91
        1
 62
     0
 92
       -2
340
14
 93
        0
 40
0.045
309
GRIDFORMAT_END
309
TABLEFORMAT_END
  1
CELLSTYLE_BEGIN
 90
        2
 91
        1
300
_HEADER
309
CELLSTYLE_END
300
CELLSTYLE
  1
TABLEFORMAT_BEGIN
 90
        5
170
     1
 91
        0
 92
        0
 62
   257
 93
        1
300
CONTENTFORMAT
  1
CONTENTFORMAT_BEGIN
 90
        0
 91
        0
 92
        4
 93
        0
300

 40
0.0
140
1.0
 94
        2
 62
     0
340
11
144
0.18
309
CONTENTFORMAT_END
171
     1
301
MARGIN
  1
CELLMARGIN_BEGIN
 40
0.06
 40
0.06
 40
0.06
 40
0.06
 40
0.06
 40
0.06
309
CELLMARGIN_END
 94
        6
 95
        1
302
GRIDFORMAT
  1
GRIDFORMAT_BEGIN
 90
        0
 91
        1
 62
     0
 92
       -2
340
14
 93
        0
 40
0.045
309
GRIDFORMAT_END
 95
        2
302
GRIDFORMAT
  1
GRIDFORMAT_BEGIN
 90
        0
 91
        1
 62
     0
 92
       -2
340
14
 93
        0
 40
0.045
309
GRIDFORMAT_END
 95
        4
302
GRIDFORMAT
  1
GRIDFORMAT_BEGIN
 90
        0
 91
        1
 62
     0
 92
       -2
340
14
 93
        0
 40
0.045
309
GRIDFORMAT_END
 95
        8
302
GRIDFORMAT
  1
GRIDFORMAT_BEGIN
 90
        0
 91
        1
 62
     0
 92
       -2
340
14
 93
        0
 40
0.045
309
GRIDFORMAT_END
 95
       16
302
GRIDFORMAT
  1
GRIDFORMAT_BEGIN
 90
        0
 91
        1
 62
     0
 92
       -2
340
14
 93
        0
 40
0.045
309
GRIDFORMAT_END
 95
       32
302
GRIDFORMAT
  1
GRIDFORMAT_BEGIN
 90
        0
 91
        1
 62
     0
 92
       -2
340
14
 93
        0
 40
0.045
309
GRIDFORMAT_END
309
TABLEFORMAT_END
  1
CELLSTYLE_BEGIN
 90
        3
 91
        2
300
_DATA
309
CELLSTYLE_END
  0
ENDSEC
  0
EOF
